  0
SECTION
  2
HEADER
  9
$ACADVER
  1
AC1009
  9
$INSBASE
 10
0.0
 20
0.0
 30
0.0
  9
$EXTMIN
 10
-47.838889869785127
 20
-34.848424506484321
 30
0.0
  9
$EXTMAX
 10
96.389869379999794
 20
61.0
 30
0.0
  9
$LIMMIN
 10
0.0
 20
0.0
  9
$LIMMAX
 10
297.0
 20
210.0
  9
$ORTHOMODE
 70
     0
  9
$REGENMODE
 70
     1
  9
$FILLMODE
 70
     1
  9
$QTEXTMODE
 70
     0
  9
$MIRRTEXT
 70
     1
  9
$DRAGMODE
 70
     2
  9
$LTSCALE
 40
10.0
  9
$OSMODE
 70
    47
  9
$ATTMODE
 70
     1
  9
$TEXTSIZE
 40
3.0
  9
$TRACEWID
 40
1.0
  9
$TEXTSTYLE
  7
YOKO
  9
$CLAYER
  8
240
  9
$CELTYPE
  6
BYLAYER
  9
$CECOLOR
 62
   256
  9
$DIMSCALE
 40
1.0
  9
$DIMASZ
 40
2.2299999999999991
  9
$DIMEXO
 40
0.5
  9
$DIMDLI
 40
7.0
  9
$DIMRND
 40
0.0
  9
$DIMDLE
 40
0.0
  9
$DIMEXE
 40
1.0
  9
$DIMTP
 40
0.0
  9
$DIMTM
 40
0.01
  9
$DIMTXT
 40
2.7999999999999989
  9
$DIMCEN
 40
0.0
  9
$DIMTSZ
 40
0.0
  9
$DIMTOL
 70
     0
  9
$DIMLIM
 70
     0
  9
$DIMTIH
 70
     0
  9
$DIMTOH
 70
     0
  9
$DIMSE1
 70
     0
  9
$DIMSE2
 70
     0
  9
$DIMTAD
 70
     3
  9
$DIMZIN
 70
     9
  9
$DIMBLK
  1
OPEN
  9
$DIMASO
 70
     1
  9
$DIMSHO
 70
     1
  9
$DIMPOST
  1

  9
$DIMAPOST
  1

  9
$DIMALT
 70
     0
  9
$DIMALTD
 70
     2
  9
$DIMALTF
 40
25.399999999999999
  9
$DIMLFAC
 40
1.0
  9
$DIMTOFL
 70
     1
  9
$DIMTVP
 40
0.0
  9
$DIMTIX
 70
     1
  9
$DIMSOXD
 70
     0
  9
$DIMSAH
 70
     0
  9
$DIMBLK1
  1

  9
$DIMBLK2
  1

  9
$DIMSTYLE
  2
BIGT
  9
$DIMCLRD
 70
   256
  9
$DIMCLRE
 70
   256
  9
$DIMCLRT
 70
    40
  9
$DIMTFAC
 40
1.0
  9
$DIMGAP
 40
1.0
  9
$LUNITS
 70
     2
  9
$LUPREC
 70
     6
  9
$SKETCHINC
 40
1.0
  9
$FILLETRAD
 40
5.0
  9
$AUNITS
 70
     0
  9
$AUPREC
 70
     6
  9
$MENU
  1
.
  9
$ELEVATION
 40
0.0
  9
$PELEVATION
 40
0.0
  9
$THICKNESS
 40
0.0
  9
$LIMCHECK
 70
     0
  9
$BLIPMODE
 70
     0
  9
$CHAMFERA
 40
0.2
  9
$CHAMFERB
 40
0.2
  9
$SKPOLY
 70
     0
  9
$TDCREATE
 40
2460251.6900891778
  9
$TDUPDATE
 40
2460255.3790325811
  9
$TDINDWG
 40
0.0087521412
  9
$TDUSRTIMER
 40
0.0087520833
  9
$USRTIMER
 70
     1
  9
$ANGBASE
 50
0.0
  9
$ANGDIR
 70
     0
  9
$PDMODE
 70
     1
  9
$PDSIZE
 40
0.0
  9
$PLINEWID
 40
0.0
  9
$COORDS
 70
     1
  9
$SPLFRAME
 70
     0
  9
$SPLINETYPE
 70
     6
  9
$SPLINESEGS
 70
     4
  9
$ATTDIA
 70
     1
  9
$ATTREQ
 70
     1
  9
$HANDLING
 70
     1
  9
$HANDSEED
  5
4742
  9
$SURFTAB1
 70
     6
  9
$SURFTAB2
 70
     6
  9
$SURFTYPE
 70
     6
  9
$SURFU
 70
     6
  9
$SURFV
 70
     6
  9
$UCSNAME
  2

  9
$UCSORG
 10
0.0
 20
0.0
 30
0.0
  9
$UCSXDIR
 10
1.0
 20
0.0
 30
0.0
  9
$UCSYDIR
 10
0.0
 20
1.0
 30
0.0
  9
$PUCSNAME
  2

  9
$PUCSORG
 10
0.0
 20
0.0
 30
0.0
  9
$PUCSXDIR
 10
1.0
 20
0.0
 30
0.0
  9
$PUCSYDIR
 10
0.0
 20
1.0
 30
0.0
  9
$USERI1
 70
     1
  9
$USERI2
 70
     0
  9
$USERI3
 70
     0
  9
$USERI4
 70
     0
  9
$USERI5
 70
     0
  9
$USERR1
 40
0.0
  9
$USERR2
 40
0.0
  9
$USERR3
 40
0.0
  9
$USERR4
 40
0.0
  9
$USERR5
 40
0.0
  9
$WORLDVIEW
 70
     1
  9
$SHADEDGE
 70
     3
  9
$SHADEDIF
 70
    70
  9
$TILEMODE
 70
     1
  9
$MAXACTVP
 70
    16
  9
$PLIMCHECK
 70
     0
  9
$PEXTMIN
 10
1.0000000000000000E+020
 20
1.0000000000000000E+020
 30
1.0000000000000000E+020
  9
$PEXTMAX
 10
-1.0000000000000000E+020
 20
-1.0000000000000000E+020
 30
-1.0000000000000000E+020
  9
$PLIMMIN
 10
0.0
 20
0.0
  9
$PLIMMAX
 10
420.0
 20
297.0
  9
$UNITMODE
 70
     0
  9
$VISRETAIN
 70
     1
  9
$PLINEGEN
 70
     0
  9
$PSLTSCALE
 70
     1
  0
ENDSEC
  0
SECTION
  2
TABLES
  0
TABLE
  2
VPORT
 70
     1
  0
VPORT
  2
*ACTIVE
 70
     0
 10
0.0
 20
0.0
 11
1.0
 21
1.0
 12
46.762776532739338
 22
-2.8665493497069572
 13
0.0
 23
0.0
 14
7.0
 24
7.0
 15
7.0
 25
7.0
 16
0.0
 26
0.0
 36
1.0
 17
0.0
 27
0.0
 37
0.0
 40
172.08105177165501
 41
1.9740932642487039
 42
50.0
 43
0.0
 44
0.0
 50
0.0
 51
0.0
 71
     0
 72
  2000
 73
     1
 74
     0
 75
     1
 76
     1
 77
     0
 78
     0
  0
ENDTAB
  0
TABLE
  2
LTYPE
 70
    17
  0
LTYPE
  2
CONTINUOUS
 70
     0
  3
Solid line
 72
    65
 73
     0
 40
0.0
  0
LTYPE
  2
CENTER2
 70
     0
  3
___ _ ___ _ ___ _ ___ _ ___ _ ___ _ ___ _ ___ _
 72
    65
 73
     4
 40
1.125
 49
0.75
 49
-0.125
 49
0.125
 49
-0.125
  0
LTYPE
  2
HIDDEN2
 70
     0
  3
_ _ _ _ _ _ _ _ _ _ _ _ _ _ _ _ _ _ _ _ _ _ _ _
 72
    65
 73
     2
 40
0.1875
 49
0.125
 49
-0.0625
  0
LTYPE
  2
PHANTOM2
 70
     0
  3
___ _ _ ___ _ _ ___ _ _ ___ _ _ ___ _ _ ___ _ _
 72
    65
 73
     6
 40
1.25
 49
0.625
 49
-0.125
 49
0.125
 49
-0.125
 49
0.125
 49
-0.125
  0
LTYPE
  2
AM_ISO02W050
 70
     0
  3
__ __ __ __ __ __ __ __ __ __ __ __ __ __ __
 72
    65
 73
     2
 40
7.5
 49
6.0
 49
-1.5
  0
LTYPE
  2
AMCONSTR
 70
     0
  3
_______________________
 72
    65
 73
     2
 40
9999.0
 49
9999.0
 49
0.0
  0
LTYPE
  2
ACISOWELD
 70
     0
  3
_ _ _ _ _
 72
    65
 73
     2
 40
2.0
 49
2.0
 49
-1.0
  0
LTYPE
  2
ACISOTGB
 70
     0
  3
__ . . __ . .
 72
    65
 73
     6
 40
9.0
 49
4.0
 49
-1.0
 49
1.0
 49
-1.0
 49
1.0
 49
-1.0
  0
LTYPE
  2
ACISOTGL
 70
     0
  3
_ _ _ _ _
 72
    65
 73
     2
 40
3.0
 49
2.0
 49
-1.0
  0
LTYPE
  2
ACJISTGB
 70
     0
  3
__ . . __ . .
 72
    65
 73
     6
 40
9.0
 49
4.0
 49
-1.0
 49
1.0
 49
-1.0
 49
1.0
 49
-1.0
  0
LTYPE
  2
ACJISTGL
 70
     0
  3
_ _ _ _ _
 72
    65
 73
     2
 40
3.0
 49
2.0
 49
-1.0
  0
ENDTAB
  0
TABLE
  2
LAYER
 70
     9
  0
LAYER
  2
0
 70
     0
 62
     7
  6
CONTINUOUS
  0
LAYER
  2
DEFPOINTS
 70
     0
 62
     7
  6
CONTINUOUS
  0
LAYER
  2
245
 70
     0
 62
     2
  6
CENTER2
  0
LAYER
  2
240
 70
     0
 62
     4
  6
CONTINUOUS
  0
LAYER
  2
241
 70
     0
 62
   211
  6
CONTINUOUS
  0
LAYER
  2
242
 70
     0
 62
     3
  6
CONTINUOUS
  0
LAYER
  2
243
 70
     0
 62
   211
  6
HIDDEN2
  0
LAYER
  2
247
 70
     0
 62
    60
  6
CONTINUOUS
  0
LAYER
  2
250
 70
     0
 62
     3
  6
CONTINUOUS
  0
ENDTAB
  0
TABLE
  2
STYLE
 70
     7
  0
STYLE
  2
STANDARD
 70
     0
 40
0.0
 41
1.0
 50
0.0
 71
     0
 42
3.0
  3
romans.shx
  4
extfont.shx
  0
STYLE
  2
ACISOTS
 70
     0
 40
1.0
 41
1.0
 50
0.0
 71
     0
 42
3.0
  3
amgdt.shx
  4
extfont.shx
  0
STYLE
  2
ACISOGDT
 70
     0
 40
0.0
 41
1.0
 50
0.0
 71
     0
 42
3.0
  3
amgdt.shx
  4
extfont.shx
  0
STYLE
  2
ACJISTS
 70
     0
 40
1.0
 41
1.0
 50
0.0
 71
     0
 42
3.0
  3
amgdt.shx
  4
extfont.shx
  0
STYLE
  2
ACJISGDT
 70
     0
 40
0.0
 41
1.0
 50
0.0
 71
     0
 42
3.0
  3
amgdt.shx
  4
extfont.shx
  0
STYLE
  2
YOKO
 70
     0
 40
0.0
 41
1.0
 50
0.0
 71
     0
 42
3.0
  3
romans.shx
  4
extfont.shx
  0
ENDTAB
  0
TABLE
  2
VIEW
 70
     0
  0
ENDTAB
  0
TABLE
  2
UCS
 70
     0
  0
ENDTAB
  0
TABLE
  2
APPID
 70
    35
  0
APPID
  2
ACAD
 70
     0
  0
APPID
  2
GLOBAL
 70
     0
  0
APPID
  2
DETAIL
 70
     0
  0
APPID
  2
GRPNAME
 70
     0
  0
APPID
  2
GPARA
 70
     0
  0
APPID
  2
MCAD_NO_VIS
 70
     0
  0
APPID
  2
ACAD_TEMP_GRAPHIC
 70
     0
  0
APPID
  2
ACATTRIBSERVICES
 70
     0
  0
APPID
  2
GENIUS_GENSCREG_15
 70
     0
  0
APPID
  2
GENIUS_GENODEF_13
 70
     0
  0
APPID
  2
GENIUS_GENOBJ-N-SDF_13
 70
     0
  0
APPID
  2
GENIUS_GENREC_14
 70
     0
  0
APPID
  2
GENIUS_GENOBJ-N-REC_13
 70
     0
  0
APPID
  2
GENIUS_GENDIMSH_14
 70
     0
  0
APPID
  2
GENIUS_GENOBJ-N-DIM_13
 70
     0
  0
APPID
  2
GENIUS_GENDIM_13
 70
     0
  0
APPID
  2
GENIUS_GENDTOL_13
 70
     0
  0
APPID
  2
GENIUS_GENOLIS_13
 70
     0
  0
APPID
  2
GENIUS_GENOENT_13
 70
     0
  0
APPID
  2
GENIUS_GENOBJ-F-FEM_13
 70
     0
  0
APPID
  2
GENIUS_GENOREF_13
 70
     0
  0
APPID
  2
GENIUS_GEFFEM_13
 70
     0
  0
APPID
  2
GENIUS_GEFFEMP_13
 70
     0
  0
APPID
  2
AD_DRAW
 70
     0
  0
APPID
  2
DESIGNERASSEMBLIES
 70
     0
  0
APPID
  2
ACADM_DIM_EDIT
 70
     0
  0
APPID
  2
AMDT_DM_ADJ
 70
     0
  0
APPID
  2
ITEMNAME
 70
     0
  0
APPID
  2
GENIUS_GENOBJ-N-FIL_13
 70
     0
  0
APPID
  2
GENIUS_GENFIL_13
 70
     0
  0
APPID
  2
GENIUS_GENOBJ-N-CHA_13
 70
     0
  0
APPID
  2
ACAD_NAV_VCDISPLAY
 70
     0
  0
APPID
  2
ACAD_EXEMPT_FROM_CAD_STANDARDS
 70
     0
  0
APPID
  2
ACAD_DSTYLE_DIMINSPECT
 70
     0
  0
APPID
  2
ACAD_MLEADERVER
 70
     0
  0
ENDTAB
  0
TABLE
  2
DIMSTYLE
 70
    30
  0
DIMSTYLE
  2
BIGT
 70
     0
  3

  4

  5
OPEN
  6

  7

 40
1.0
 41
2.2299999999999991
 42
0.5
 43
7.0
 44
1.0
 45
0.0
 46
0.0
 47
0.0
 48
0.01
140
2.7999999999999989
141
0.0
142
0.0
143
25.399999999999999
144
1.0
145
0.0
146
1.0
147
1.0
 71
     0
 72
     0
 73
     0
 74
     0
 75
     0
 76
     0
 77
     3
 78
     9
170
     0
171
     2
172
     1
173
     0
174
     1
175
     0
176
   256
177
   256
178
    40
  0
DIMSTYLE
  2
AM_ISO
 70
     0
  3

  4
"
  5

  6

  7

 40
1.0
 41
2.5
 42
1.0
 43
10.0
 44
1.0
 45
0.0
 46
0.0
 47
0.1
 48
0.1
140
3.5
141
0.0
142
0.0
143
0.0393701
144
1.0
145
0.0
146
0.71
147
1.5
 71
     0
 72
     0
 73
     0
 74
     0
 75
     0
 76
     0
 77
     1
 78
     8
170
     0
171
     2
172
     1
173
     0
174
     0
175
     0
176
   256
177
   256
178
     2
  0
DIMSTYLE
  2
AM_ISO$3
 70
     0
  3

  4
"
  5

  6

  7

 40
1.0
 41
2.5
 42
1.0
 43
10.0
 44
1.0
 45
0.0
 46
0.0
 47
0.1
 48
0.1
140
3.5
141
0.0
142
0.0
143
0.0393701
144
1.0
145
0.0
146
0.71
147
1.5
 71
     0
 72
     0
 73
     0
 74
     1
 75
     0
 76
     0
 77
     1
 78
     8
170
     0
171
     2
172
     0
173
     0
174
     0
175
     0
176
   256
177
   256
178
     2
  0
DIMSTYLE
  2
AM_ISO$4
 70
     0
  3

  4
"
  5

  6

  7

 40
1.0
 41
2.5
 42
1.0
 43
10.0
 44
1.0
 45
0.0
 46
0.0
 47
0.1
 48
0.1
140
3.5
141
0.0
142
0.0
143
0.0393701
144
1.0
145
0.0
146
0.71
147
1.5
 71
     0
 72
     0
 73
     0
 74
     1
 75
     0
 76
     0
 77
     1
 78
     8
170
     0
171
     2
172
     0
173
     0
174
     0
175
     0
176
   256
177
   256
178
     2
  0
DIMSTYLE
  2
AM_ISO$6
 70
     0
  3

  4
"
  5

  6

  7

 40
1.0
 41
2.5
 42
1.0
 43
10.0
 44
1.0
 45
0.0
 46
0.0
 47
0.1
 48
0.1
140
3.5
141
0.0
142
0.0
143
0.0393701
144
1.0
145
0.0
146
0.71
147
1.5
 71
     0
 72
     0
 73
     0
 74
     0
 75
     0
 76
     0
 77
     0
 78
     8
170
     0
171
     2
172
     1
173
     0
174
     0
175
     0
176
   256
177
   256
178
     2
  0
DIMSTYLE
  2
AM_ISO$7
 70
     0
  3

  4
"
  5

  6

  7

 40
1.0
 41
2.5
 42
1.0
 43
10.0
 44
1.0
 45
0.0
 46
0.0
 47
0.1
 48
0.1
140
5.0
141
0.0
142
0.0
143
0.0393701
144
1.0
145
0.0
146
0.71
147
1.5
 71
     0
 72
     0
 73
     0
 74
     0
 75
     0
 76
     0
 77
     1
 78
     8
170
     0
171
     2
172
     1
173
     0
174
     0
175
     0
176
   256
177
   256
178
     2
  0
DIMSTYLE
  2
AM_ISO$SF
 70
     0
  3

  4
"
  5

  6

  7

 40
1.0
 41
2.5
 42
1.0
 43
10.0
 44
1.0
 45
0.0
 46
0.0
 47
0.1
 48
0.1
140
3.5
141
0.0
142
0.0
143
0.0393701
144
1.0
145
0.0
146
0.71
147
1.5
 71
     0
 72
     0
 73
     0
 74
     0
 75
     1
 76
     1
 77
     1
 78
     8
170
     0
171
     2
172
     1
173
     0
174
     0
175
     0
176
   256
177
   256
178
     2
  0
DIMSTYLE
  2
AM_ISO$SH
 70
     0
  3

  4
"
  5

  6
GENAXEH
  7

 40
1.0
 41
2.5
 42
1.0
 43
10.0
 44
1.0
 45
0.0
 46
0.0
 47
0.1
 48
0.1
140
3.5
141
0.0
142
0.0
143
0.0393701
144
2.0
145
0.0
146
0.71
147
1.5
 71
     0
 72
     0
 73
     0
 74
     0
 75
     1
 76
     1
 77
     1
 78
     8
170
     0
171
     2
172
     1
173
     1
174
     0
175
     0
176
   256
177
   256
178
     2
  0
DIMSTYLE
  2
BIGT$2
 70
     0
  3

  4

  5
OPEN
  6

  7

 40
1.0
 41
2.2299999999999991
 42
0.5
 43
7.0
 44
1.0
 45
0.0
 46
0.0
 47
0.0
 48
0.01
140
2.7999999999999989
141
0.0
142
0.0
143
25.399999999999999
144
1.0
145
0.0
146
1.0
147
1.0
 71
     0
 72
     0
 73
     0
 74
     0
 75
     0
 76
     0
 77
     3
 78
     9
170
     0
171
     2
172
     1
173
     0
174
     0
175
     0
176
   256
177
   256
178
    40
  0
DIMSTYLE
  2
BIGT$3
 70
     0
  3

  4

  5
OPEN
  6

  7

 40
1.0
 41
2.2299999999999991
 42
0.5
 43
2.5
 44
1.0
 45
0.0
 46
0.0
 47
0.0
 48
0.01
140
2.7999999999999989
141
0.0
142
0.0
143
25.399999999999999
144
1.0
145
0.0
146
1.0
147
1.0
 71
     0
 72
     0
 73
     0
 74
     0
 75
     0
 76
     0
 77
     3
 78
     9
170
     0
171
     2
172
     1
173
     0
174
     0
175
     0
176
   256
177
   256
178
    40
  0
DIMSTYLE
  2
BIGT$7
 70
     0
  3

  4

  5
OPEN
  6

  7

 40
0.0
 41
2.2299999999999991
 42
0.5
 43
7.0
 44
1.0
 45
0.0
 46
0.0
 47
0.0
 48
0.01
140
2.7999999999999989
141
0.0
142
0.0
143
25.399999999999999
144
1.0
145
0.0
146
1.0
147
1.0
 71
     0
 72
     0
 73
     0
 74
     0
 75
     0
 76
     0
 77
     3
 78
     9
170
     0
171
     2
172
     0
173
     0
174
     0
175
     0
176
   256
177
   256
178
    40
  0
DIMSTYLE
  2
BIGT$6
 70
     0
  3

  4

  5
OPEN
  6

  7

 40
1.0
 41
2.2299999999999991
 42
0.5
 43
2.5
 44
1.0
 45
0.0
 46
0.0
 47
0.0
 48
0.01
140
2.7999999999999989
141
0.0
142
0.0
143
25.399999999999999
144
1.0
145
0.0
146
1.0
147
1.0
 71
     0
 72
     0
 73
     0
 74
     0
 75
     0
 76
     0
 77
     3
 78
     9
170
     0
171
     2
172
     1
173
     0
174
     0
175
     0
176
   256
177
   256
178
    40
  0
DIMSTYLE
  2
BIGT$0
 70
     0
  3

  4

  5
OPEN
  6

  7

 40
1.0
 41
2.2299999999999991
 42
0.5
 43
7.0
 44
1.0
 45
0.0
 46
0.0
 47
0.0
 48
0.01
140
2.7999999999999989
141
0.0
142
0.0
143
25.399999999999999
144
1.0
145
0.0
146
1.0
147
1.0
 71
     0
 72
     0
 73
     0
 74
     0
 75
     0
 76
     0
 77
     3
 78
     9
170
     0
171
     2
172
     1
173
     0
174
     1
175
     0
176
   256
177
   256
178
    40
  0
DIMSTYLE
  2
BIGT$4
 70
     0
  3

  4

  5
OPEN
  6

  7

 40
1.0
 41
2.2299999999999991
 42
0.5
 43
2.5
 44
1.0
 45
0.0
 46
0.0
 47
0.0
 48
0.01
140
2.7999999999999989
141
0.0
142
0.0
143
25.399999999999999
144
1.0
145
0.0
146
1.0
147
1.0
 71
     0
 72
     0
 73
     0
 74
     0
 75
     0
 76
     0
 77
     3
 78
     9
170
     0
171
     2
172
     1
173
     0
174
     0
175
     0
176
   256
177
   256
178
    40
  0
DIMSTYLE
  2
BIGT$SH
 70
     0
  3

  4

  5
OPEN
  6

  7

 40
1.0
 41
2.2299999999999991
 42
0.5
 43
7.0
 44
1.0
 45
0.0
 46
0.0
 47
0.0
 48
0.0
140
2.7999999999999989
141
0.0
142
0.0
143
25.399999999999999
144
1.0
145
0.0
146
1.0
147
1.0
 71
     0
 72
     0
 73
     0
 74
     0
 75
     0
 76
     0
 77
     3
 78
     9
170
     0
171
     2
172
     1
173
     0
174
     0
175
     0
176
   256
177
   256
178
    40
  0
DIMSTYLE
  2
BIGT$SF
 70
     0
  3

  4

  5
OPEN
  6

  7

 40
1.0
 41
2.2299999999999991
 42
0.5
 43
7.0
 44
1.0
 45
0.0
 46
0.0
 47
0.0
 48
0.0
140
2.7999999999999989
141
0.0
142
0.0
143
25.399999999999999
144
1.0
145
0.0
146
1.0
147
1.0
 71
     0
 72
     0
 73
     0
 74
     0
 75
     0
 76
     0
 77
     3
 78
     9
170
     0
171
     2
172
     1
173
     0
174
     0
175
     0
176
   256
177
   256
178
    40
  0
DIMSTYLE
  2
TECHNICAL_OSAKA
 70
     0
  3

  4
"
  5
OPEN30
  6

  7

 40
1.0
 41
2.5
 42
1.0
 43
10.0
 44
1.0
 45
0.0
 46
0.0
 47
0.1
 48
0.1
140
2.7999999999999989
141
0.0
142
0.0
143
0.0393701
144
1.0
145
0.0
146
0.71
147
1.5
 71
     0
 72
     0
 73
     0
 74
     0
 75
     0
 76
     0
 77
     3
 78
     8
170
     0
171
     2
172
     1
173
     0
174
     0
175
     0
176
   256
177
   256
178
    40
  0
DIMSTYLE
  2
TECHNICAL_OSAKA$3
 70
     0
  3

  4
"
  5
OPEN30
  6

  7

 40
1.0
 41
2.5
 42
1.0
 43
10.0
 44
1.0
 45
0.0
 46
0.0
 47
0.1
 48
0.1
140
2.7999999999999989
141
0.0
142
0.0
143
0.0393701
144
1.0
145
0.0
146
0.71
147
1.5
 71
     0
 72
     0
 73
     0
 74
     1
 75
     0
 76
     0
 77
     3
 78
     8
170
     0
171
     2
172
     0
173
     0
174
     0
175
     0
176
   256
177
   256
178
    40
  0
DIMSTYLE
  2
TECHNICAL_OSAKA$4
 70
     0
  3

  4
"
  5
OPEN30
  6

  7

 40
1.0
 41
2.5
 42
1.0
 43
10.0
 44
1.0
 45
0.0
 46
0.0
 47
0.1
 48
0.1
140
2.7999999999999989
141
0.0
142
0.0
143
0.0393701
144
1.0
145
0.0
146
0.71
147
1.5
 71
     0
 72
     0
 73
     0
 74
     1
 75
     0
 76
     0
 77
     3
 78
     8
170
     0
171
     2
172
     0
173
     0
174
     0
175
     0
176
   256
177
   256
178
    40
  0
DIMSTYLE
  2
TECHNICAL_OSAKA$6
 70
     0
  3

  4
"
  5
OPEN30
  6

  7

 40
1.0
 41
2.5
 42
1.0
 43
10.0
 44
1.0
 45
0.0
 46
0.0
 47
0.1
 48
0.1
140
2.7999999999999989
141
0.0
142
0.0
143
0.0393701
144
1.0
145
0.0
146
0.71
147
1.5
 71
     0
 72
     0
 73
     0
 74
     0
 75
     0
 76
     0
 77
     0
 78
     8
170
     0
171
     2
172
     1
173
     0
174
     0
175
     0
176
   256
177
   256
178
    40
  0
DIMSTYLE
  2
TECHNICAL_OSAKA$7
 70
     0
  3

  4
"
  5
OPEN30
  6

  7

 40
1.0
 41
2.5
 42
1.0
 43
10.0
 44
1.0
 45
0.0
 46
0.0
 47
0.1
 48
0.1
140
2.7999999999999989
141
0.0
142
0.0
143
0.0393701
144
1.0
145
0.0
146
0.71
147
1.5
 71
     0
 72
     0
 73
     0
 74
     0
 75
     0
 76
     0
 77
     3
 78
     8
170
     0
171
     2
172
     1
173
     0
174
     0
175
     0
176
   256
177
   256
178
    40
  0
DIMSTYLE
  2
TECHNICAL_OSAKA$SF
 70
     0
  3

  4
"
  5
OPEN30
  6
OPEN30
  7
OPEN30
 40
1.0
 41
2.5
 42
1.0
 43
10.0
 44
1.0
 45
0.0
 46
0.0
 47
0.1
 48
0.1
140
3.5
141
0.0
142
0.0
143
0.0393701
144
1.0
145
0.0
146
0.71
147
1.5
 71
     0
 72
     0
 73
     0
 74
     0
 75
     1
 76
     1
 77
     3
 78
     8
170
     0
171
     2
172
     1
173
     0
174
     0
175
     0
176
   256
177
   256
178
    40
  0
DIMSTYLE
  2
TECHNICAL_OSAKA$SH
 70
     0
  3

  4
"
  5
OPEN30
  6
GENAXEH
  7
OPEN30
 40
1.0
 41
2.5
 42
1.0
 43
10.0
 44
1.0
 45
0.0
 46
0.0
 47
0.1
 48
0.1
140
3.5
141
0.0
142
0.0
143
0.0393701
144
2.0
145
0.0
146
0.71
147
1.5
 71
     0
 72
     0
 73
     0
 74
     0
 75
     1
 76
     1
 77
     3
 78
     8
170
     0
171
     2
172
     1
173
     1
174
     0
175
     0
176
   256
177
   256
178
    40
  0
ENDTAB
  0
ENDSEC
  0
SECTION
  2
BLOCKS
  0
BLOCK
  8
0
  2
$MODEL_SPACE
 70
     0
 10
0.0
 20
0.0
 30
0.0
  3
$MODEL_SPACE
  1

  0
ENDBLK
  5
1C
  8
0
  0
BLOCK
 67
     1
  8
0
  2
$PAPER_SPACE
 70
     0
 10
0.0
 20
0.0
 30
0.0
  3
$PAPER_SPACE
  1

  0
ENDBLK
  5
19
 67
     1
  8
0
  0
BLOCK
  8
0
  2
_OPEN
 70
     0
 10
0.0
 20
0.0
 30
0.0
  3
_OPEN
  1

  0
LINE
  5
4640
  8
0
  6
BYBLOCK
 62
     0
 10
-1.0
 20
0.1666666666666666
 30
0.0
 11
0.0
 21
0.0
 31
0.0
  0
LINE
  5
4641
  8
0
  6
BYBLOCK
 62
     0
 10
-1.0
 20
-0.1666666666666666
 30
0.0
 11
0.0
 21
0.0
 31
0.0
  0
LINE
  5
4642
  8
0
  6
BYBLOCK
 62
     0
 10
0.0
 20
0.0
 30
0.0
 11
-1.0
 21
0.0
 31
0.0
  0
ENDBLK
  5
4643
  8
0
  0
BLOCK
  8
0
  2
GENAXEH
 70
     0
 10
0.0
 20
0.0
 30
0.0
  3
GENAXEH
  1

  0
LINE
  5
467B
  8
0
 10
-1.0
 20
0.0
 30
0.0
 11
1.0
 21
0.0
 31
0.0
  0
ENDBLK
  5
467C
  8
0
  0
BLOCK
  8
0
  2
_OPEN30
 70
     0
 10
0.0
 20
0.0
 30
0.0
  3
_OPEN30
  1

  0
LINE
  5
46B7
  8
0
  6
BYBLOCK
 62
     0
 10
-1.0
 20
0.26794919
 30
0.0
 11
0.0
 21
0.0
 31
0.0
  0
LINE
  5
46B8
  8
0
  6
BYBLOCK
 62
     0
 10
0.0
 20
0.0
 30
0.0
 11
-1.0
 21
-0.26794919
 31
0.0
  0
LINE
  5
46B9
  8
0
  6
BYBLOCK
 62
     0
 10
0.0
 20
0.0
 30
0.0
 11
-1.0
 21
0.0
 31
0.0
  0
ENDBLK
  5
46BA
  8
0
  0
ENDSEC
  0
SECTION
  2
ENTITIES
  0
LINE
  5
42B4
  8
240
  6
CONTINUOUS
 10
80.0
 20
-15.49999999999994
 30
0.0
 11
39.000000000000007
 21
-15.499999999999821
 31
0.0
1001
GRPNAME
1000
PASTMD0R
  0
LINE
  5
42B5
  8
240
  6
CONTINUOUS
 10
80.0
 20
15.50000000000006
 30
0.0
 11
38.999999999999908
 21
15.50000000000011
 31
0.0
1001
GRPNAME
1000
PASTMD0R
  0
LINE
  5
42B7
  8
245
  6
CENTER2
 10
82.0
 20
0.0000000000000568
 30
0.0
 11
-35.0
 21
0.0
 31
0.0
  0
LINE
  5
435F
  8
240
  6
CONTINUOUS
 10
80.0
 20
-15.49999999999994
 30
0.0
 11
80.0
 21
15.50000000000005
 31
0.0
1001
GRPNAME
1000
PASTMD0R
  0
LINE
  5
438C
  8
240
  6
CONTINUOUS
 10
33.999999999999922
 20
20.500000000000231
 30
0.0
 11
34.000000000000021
 21
25.000000000000401
 31
0.0
  0
LINE
  5
438D
  8
240
  6
CONTINUOUS
 10
34.0
 20
-25.000000000000401
 30
0.0
 11
34.0
 21
-20.499999999999819
 31
0.0
  0
LINE
  5
4453
  8
241
  6
CONTINUOUS
 10
14.622500929999971
 20
31.5
 30
0.0
 11
14.622500929999971
 21
24.336187050000039
 31
0.0
1001
GRPNAME
1000
PASTMD2W
  0
LINE
  5
4454
  8
240
  6
CONTINUOUS
 10
16.124999999999972
 20
28.897595259999999
 30
0.0
 11
14.622500929999971
 21
31.5
 31
0.0
1001
GRPNAME
1000
PASTMD2W
  0
LINE
  5
4455
  8
240
  6
CONTINUOUS
 10
19.874999999999972
 20
28.897595259999999
 30
0.0
 11
21.377499069999971
 21
31.5
 31
0.0
1001
GRPNAME
1000
PASTMD2W
  0
LINE
  5
4456
  8
240
  6
CONTINUOUS
 10
-0.0000000000000284
 20
24.315000000207881
 30
0.0
 11
0.0000000000000284
 21
31.49999999999989
 31
0.0
1001
GRPNAME
1000
PASTMD2W
  0
LINE
  5
4457
  8
243
  6
HIDDEN2
 10
4.999999999999968
 20
31.5
 30
0.0
 11
4.999999999999968
 21
26.5
 31
0.0
1001
GRPNAME
1000
PASTMD2W
  0
LINE
  5
4458
  8
240
  6
CONTINUOUS
 10
26.000000000000028
 20
25.00000000000006
 30
0.0
 11
25.99999999999941
 21
31.499999999999599
 31
0.0
1001
GRPNAME
1000
PASTMD2W
  0
LINE
  5
4459
  8
241
  6
CONTINUOUS
 10
21.377499069999971
 20
31.5
 30
0.0
 11
21.377499069999971
 21
24.336187050000039
 31
0.0
1001
GRPNAME
1000
PASTMD2W
  0
LINE
  5
445A
  8
240
  6
CONTINUOUS
 10
-0.0000000000000284
 20
24.315000000207881
 30
0.0
 11
-32.000000000000121
 21
22.714999996881321
 31
0.0
1001
GRPNAME
1000
PASTMD2W
  0
LINE
  5
445B
  8
240
  6
CONTINUOUS
 10
-0.0000000000000284
 20
-24.315000000207881
 30
0.0
 11
-32.00000000000005
 21
-22.714999996881492
 31
0.0
1001
GRPNAME
1000
PASTMD2W
  0
LINE
  5
445C
  8
240
  6
CONTINUOUS
 10
-32.00000000000005
 20
-22.714999996881492
 30
0.0
 11
-32.00000000000005
 21
22.714999996881321
 31
0.0
1001
GRPNAME
1000
PASTMD2W
  0
LINE
  5
445D
  8
241
  6
CONTINUOUS
 10
-0.0000000000000284
 20
-24.315000000207881
 30
0.0
 11
0.0
 21
24.315000000207849
 31
0.0
1001
GRPNAME
1000
PASTMD2W
  0
LINE
  5
445E
  8
241
  6
CONTINUOUS
 10
25.999999999999972
 20
-25.000000000000249
 30
0.0
 11
25.999999999999972
 21
25.00000000000006
 31
0.0
  0
LINE
  5
445F
  8
241
  6
CONTINUOUS
 10
14.622500929999971
 20
20.0
 30
0.0
 11
14.622500929999971
 21
-31.5
 31
0.0
1001
GRPNAME
1000
PASTMD2W
  0
LINE
  5
4460
  8
241
  6
CONTINUOUS
 10
21.377499069999939
 20
20.0
 30
0.0
 11
21.377499069999971
 21
-31.5
 31
0.0
1001
GRPNAME
1000
PASTMD2W
  0
LINE
  5
4461
  8
241
  6
CONTINUOUS
 10
16.124999999999972
 20
-27.5
 30
0.0
 11
16.124999999999972
 21
27.5
 31
0.0
1001
GRPNAME
1000
PASTMD2W
  0
LINE
  5
4462
  8
241
  6
CONTINUOUS
 10
19.874999999999972
 20
-27.5
 30
0.0
 11
19.874999999999972
 21
27.5
 31
0.0
1001
GRPNAME
1000
PASTMD2W
  0
LINE
  5
4463
  8
243
  6
HIDDEN2
 10
25.999999999999972
 20
-26.5
 30
0.0
 11
4.999999999999968
 21
-26.5
 31
0.0
1001
GRPNAME
1000
PASTMD2W
  0
LINE
  5
4464
  8
240
  6
CONTINUOUS
 10
14.622500929999971
 20
-31.5
 30
0.0
 11
0.0000000000000284
 21
-31.499999999999861
 31
0.0
1001
GRPNAME
1000
PASTMD2W
  0
LINE
  5
4465
  8
243
  6
HIDDEN2
 10
4.999999999999968
 20
-31.5
 30
0.0
 11
4.999999999999968
 21
-26.5
 31
0.0
1001
GRPNAME
1000
PASTMD2W
  0
LINE
  5
4466
  8
240
  6
CONTINUOUS
 10
-0.0000000000000284
 20
-24.315000000207881
 30
0.0
 11
0.0000000000000284
 21
-31.499999999999861
 31
0.0
1001
GRPNAME
1000
PASTMD2W
  0
LINE
  5
4467
  8
240
  6
CONTINUOUS
 10
19.874999999999972
 20
-27.5
 30
0.0
 11
16.124999999999972
 21
-27.5
 31
0.0
1001
GRPNAME
1000
PASTMD2W
  0
LINE
  5
4468
  8
240
  6
CONTINUOUS
 10
16.124999999999972
 20
-27.5
 30
0.0
 11
16.124999999999972
 21
-28.897595259999999
 31
0.0
1001
GRPNAME
1000
PASTMD2W
  0
LINE
  5
4469
  8
240
  6
CONTINUOUS
 10
16.124999999999972
 20
-28.897595259999999
 30
0.0
 11
14.622500929999971
 21
-31.5
 31
0.0
1001
GRPNAME
1000
PASTMD2W
  0
LINE
  5
446A
  8
240
  6
CONTINUOUS
 10
25.99999999999952
 20
-25.000000000000309
 30
0.0
 11
25.999999999999751
 21
-31.499999999999488
 31
0.0
1001
GRPNAME
1000
PASTMD2W
  0
LINE
  5
446B
  8
240
  6
CONTINUOUS
 10
19.874999999999972
 20
-27.5
 30
0.0
 11
19.874999999999972
 21
-28.897595259999999
 31
0.0
1001
GRPNAME
1000
PASTMD2W
  0
LINE
  5
446C
  8
240
  6
CONTINUOUS
 10
25.999999999999751
 20
-31.499999999999488
 30
0.0
 11
21.377499069999971
 21
-31.5
 31
0.0
1001
GRPNAME
1000
PASTMD2W
  0
LINE
  5
446D
  8
240
  6
CONTINUOUS
 10
19.874999999999972
 20
-28.897595259999999
 30
0.0
 11
21.377499069999971
 21
-31.5
 31
0.0
1001
GRPNAME
1000
PASTMD2W
  0
LINE
  5
446E
  8
243
  6
HIDDEN2
 10
25.999999999999972
 20
26.5
 30
0.0
 11
4.999999999999968
 21
26.5
 31
0.0
1001
GRPNAME
1000
PASTMD2W
  0
ARC
  5
446F
  8
241
  6
CONTINUOUS
 10
12.11171389999998
 20
16.336187050000031
 30
0.0
 40
8.0
 50
89.999999989999736
 51
152.74338068000031
1001
GRPNAME
1000
PASTMD2W
  0
LINE
  5
4470
  8
241
  6
CONTINUOUS
 10
16.124999999999972
 20
20.0
 30
0.0
 11
4.999999999999968
 21
20.0
 31
0.0
1001
GRPNAME
1000
PASTMD2W
  0
LINE
  5
4471
  8
240
  6
CONTINUOUS
 10
19.874999999999972
 20
27.5
 30
0.0
 11
16.124999999999972
 21
27.5
 31
0.0
1001
GRPNAME
1000
PASTMD2W
  0
LINE
  5
4472
  8
241
  6
CONTINUOUS
 10
14.622500929999971
 20
24.336187050000039
 30
0.0
 11
16.124999999999972
 21
20.85835593000002
 31
0.0
1001
GRPNAME
1000
PASTMD2W
  0
LINE
  5
4473
  8
241
  6
CONTINUOUS
 10
14.622500929999971
 20
24.336187050000039
 30
0.0
 11
12.11171389999998
 21
24.336187050000039
 31
0.0
1001
GRPNAME
1000
PASTMD2W
  0
LINE
  5
4474
  8
240
  6
CONTINUOUS
 10
16.124999999999972
 20
27.5
 30
0.0
 11
16.124999999999972
 21
28.897595259999999
 31
0.0
1001
GRPNAME
1000
PASTMD2W
  0
LINE
  5
4475
  8
241
  6
CONTINUOUS
 10
21.377499069999971
 20
24.336187050000039
 30
0.0
 11
19.874999999999972
 21
20.85835593000002
 31
0.0
1001
GRPNAME
1000
PASTMD2W
  0
LINE
  5
4476
  8
241
  6
CONTINUOUS
 10
25.999999999999972
 20
20.0
 30
0.0
 11
19.874999999999972
 21
20.0
 31
0.0
1001
GRPNAME
1000
PASTMD2W
  0
LINE
  5
4477
  8
241
  6
CONTINUOUS
 10
25.999999999999972
 20
24.336187050000039
 30
0.0
 11
21.377499069999971
 21
24.336187050000039
 31
0.0
1001
GRPNAME
1000
PASTMD2W
  0
LINE
  5
4478
  8
240
  6
CONTINUOUS
 10
19.874999999999972
 20
27.5
 30
0.0
 11
19.874999999999972
 21
28.897595259999999
 31
0.0
1001
GRPNAME
1000
PASTMD2W
  0
LINE
  5
4479
  8
240
  6
CONTINUOUS
 10
14.622500929999971
 20
31.5
 30
0.0
 11
0.0000000000000284
 21
31.49999999999989
 31
0.0
1001
GRPNAME
1000
PASTMD2W
  0
LINE
  5
447A
  8
240
  6
CONTINUOUS
 10
25.99999999999941
 20
31.499999999999599
 30
0.0
 11
21.377499069999971
 21
31.5
 31
0.0
1001
GRPNAME
1000
PASTMD2W
  0
LINE
  5
447B
  8
243
  6
HIDDEN2
 10
-18.996025403784671
 20
-17.00000000000011
 30
0.0
 11
-32.000000000000092
 21
-17.00000000000011
 31
0.0
1001
GRPNAME
1000
PASTMD2W
  0
LINE
  5
447C
  8
243
  6
HIDDEN2
 10
-22.000000000000131
 20
-23.215000000000249
 30
0.0
 11
-22.000000000000131
 21
-17.00000000000011
 31
0.0
1001
GRPNAME
1000
PASTMD2W
  0
LINE
  5
447D
  8
243
  6
HIDDEN2
 10
-6.244997998398417
 20
-20.00000000000011
 30
0.0
 11
-17.263974596215721
 21
-20.0
 31
0.0
1001
GRPNAME
1000
PASTMD2W
  0
LINE
  5
447E
  8
243
  6
HIDDEN2
 10
-18.996025403784671
 20
-17.00000000000011
 30
0.0
 11
-17.263974596215721
 21
-20.0
 31
0.0
1001
GRPNAME
1000
PASTMD2W
  0
LINE
  5
447F
  8
245
  6
CENTER2
 10
-8.9999999999999112
 20
-18.00000000000011
 30
0.0
 11
-8.9999999999999112
 21
-25.86500000000024
 31
0.0
  0
LINE
  5
4480
  8
243
  6
HIDDEN2
 10
-12.749999999999909
 20
-20.00000000000011
 30
0.0
 11
-12.749999999999909
 21
-23.67750000000024
 31
0.0
  0
ARC
  5
4481
  8
243
  6
HIDDEN2
 10
-6.244997998398417
 20
-12.0
 30
0.0
 40
8.0000000000001101
 50
269.99999996141412
 51
321.31781250792199
1001
GRPNAME
1000
PASTMD2W
  0
LINE
  5
4482
  8
243
  6
HIDDEN2
 10
-5.2499999999999121
 20
-20.00000000000011
 30
0.0
 11
-5.2499999999999121
 21
-24.05250000000024
 31
0.0
  0
LINE
  5
4483
  8
243
  6
HIDDEN2
 10
-18.996025403784561
 20
17.0
 30
0.0
 11
-31.99999999999989
 21
17.0
 31
0.0
1001
GRPNAME
1000
PASTMD2W
  0
LINE
  5
4484
  8
243
  6
HIDDEN2
 10
-25.999999999999918
 20
23.014999999999869
 30
0.0
 11
-25.999999999999918
 21
17.0
 31
0.0
1001
GRPNAME
1000
PASTMD2W
  0
ARC
  5
4485
  8
243
  6
HIDDEN2
 10
-6.244997998398417
 20
12.0
 30
0.0
 40
7.9999999999998144
 50
38.682187201645299
 51
89.999999748157876
1001
GRPNAME
1000
PASTMD2W
  0
LINE
  5
4486
  8
243
  6
HIDDEN2
 10
-18.996025403784561
 20
17.0
 30
0.0
 11
-17.26397459621478
 21
20.00000000000006
 31
0.0
1001
GRPNAME
1000
PASTMD2W
  0
LINE
  5
4487
  8
245
  6
CENTER2
 10
-8.9999999999999112
 20
25.864999999999789
 30
0.0
 11
-8.9999999999999112
 21
18.0
 31
0.0
  0
LINE
  5
4488
  8
243
  6
HIDDEN2
 10
-6.2449979983983042
 20
20.0
 30
0.0
 11
-17.26397459621478
 21
20.00000000000006
 31
0.0
1001
GRPNAME
1000
PASTMD2W
  0
LINE
  5
4489
  8
243
  6
HIDDEN2
 10
-12.749999999999909
 20
23.677499999999789
 30
0.0
 11
-12.749999999999909
 21
20.0
 31
0.0
  0
LINE
  5
448A
  8
243
  6
HIDDEN2
 10
-5.2499999999999121
 20
24.052499999999789
 30
0.0
 11
-5.2499999999999121
 21
20.0
 31
0.0
  0
LINE
  5
448B
  8
240
  6
CONTINUOUS
 10
25.999999999999972
 20
-25.000000000000249
 30
0.0
 11
34.0
 21
-25.000000000000401
 31
0.0
  0
LINE
  5
448C
  8
240
  6
CONTINUOUS
 10
25.999999999999972
 20
25.00000000000006
 30
0.0
 11
34.000000000000021
 21
25.000000000000401
 31
0.0
  0
LINE
  5
448D
  8
247
  6
CONTINUOUS
 10
6.499999999999968
 20
-17.250000000070031
 30
0.0
 11
6.499999999999968
 21
-10.557692308030029
 31
0.0
  0
ARC
  5
448E
  8
247
  6
CONTINUOUS
 10
4.7500000000699441
 20
-17.250000000070031
 30
0.0
 40
1.7499999999299991
 50
180.0
 51
0.0
  0
ARC
  5
448F
  8
247
  6
CONTINUOUS
 10
4.7500000000699441
 20
-10.557692308030029
 30
0.0
 40
1.7499999999299991
 50
0.0
 51
180.0
  0
LINE
  5
4490
  8
247
  6
CONTINUOUS
 10
3.000000000139976
 20
-16.38461538472
 30
0.0
 11
6.000000000019976
 21
-17.244851541962021
 31
0.0
  0
LINE
  5
4491
  8
247
  6
CONTINUOUS
 10
4.4230769231599822
 20
-15.48498381833582
 30
0.0
 11
4.4230769231599822
 21
-16.792676125975841
 31
0.0
  0
ARC
  5
4492
  8
247
  6
CONTINUOUS
 10
3.5495986677029521
 20
-15.14514381608978
 30
0.0
 40
0.5538165441895349
 50
72.997889675291773
 51
172.92416621851359
  0
ARC
  5
4493
  8
247
  6
CONTINUOUS
 10
3.4360330444657441
 20
-15.56687832302879
 30
0.0
 40
0.9904354236226808
 50
4.7429368522022122
 51
73.849226273266297
1001
GENIUS_GENOBJ-N-FIL_13
1002
{
1000
OWNER
1000
GEN
1002
}
1001
GENIUS_GENODEF_13
1002
{
1000
HIER
1070
     0
1002
}
1002
{
1000
MANEDIT
1070
     0
1002
}
1002
{
1000
NOSEL
1070
     0
1002
}
1002
{
1000
BEHIND
1070
     0
1002
}
1002
{
1000
OTHER
1070
     0
1002
}
1002
{
1000
REACTOR
1002
}
  0
LINE
  5
4494
  8
247
  6
CONTINUOUS
 10
6.000000000019976
 20
-15.937159234321991
 30
0.0
 11
6.000000000019976
 21
-17.244851541962021
 31
0.0
  0
LINE
  5
4495
  8
247
  6
CONTINUOUS
 10
3.000000000139976
 20
-16.38461538472
 30
0.0
 11
3.000000000139976
 21
-15.07692307707998
 31
0.0
  0
ARC
  5
4496
  8
247
  6
CONTINUOUS
 10
4.9820242326655091
 20
-15.56091963654694
 30
0.0
 40
0.5640818586791229
 50
65.990941652528889
 51
172.26344345906909
  0
ARC
  5
4497
  8
247
  6
CONTINUOUS
 10
4.9874290391865372
 20
-16.038262685347028
 30
0.0
 40
1.0176059446230981
 50
5.7019851642564632
 51
77.277338436822376
1001
GENIUS_GENOBJ-N-FIL_13
1002
{
1000
OWNER
1000
GEN
1002
}
1001
GENIUS_GENODEF_13
1002
{
1000
HIER
1070
     0
1002
}
1002
{
1000
MANEDIT
1070
     0
1002
}
1002
{
1000
NOSEL
1070
     0
1002
}
1002
{
1000
BEHIND
1070
     0
1002
}
1002
{
1000
OTHER
1070
     0
1002
}
1002
{
1000
REACTOR
1002
}
  0
LINE
  5
4498
  8
247
  6
CONTINUOUS
 10
6.000000000019976
 20
-14.28331308054203
 30
0.0
 11
3.000000000139976
 21
-13.423076923300011
 31
0.0
  0
LINE
  5
4499
  8
247
  6
CONTINUOUS
 10
3.000000000139976
 20
-11.00000000032003
 30
0.0
 11
3.000000000139976
 21
-11.565736619456629
 31
0.0
  0
LINE
  5
449A
  8
247
  6
CONTINUOUS
 10
6.000000000019976
 20
-12.461538461799989
 30
0.0
 11
6.000000000019976
 21
-11.846153846440011
 31
0.0
  0
ARC
  5
449B
  8
247
  6
CONTINUOUS
 10
5.0832851359733411
 20
-10.708791209122859
 30
0.0
 40
2.2526500823422122
 50
202.35948814152559
 51
254.99324854284609
  0
ARC
  5
449C
  8
247
  6
CONTINUOUS
 10
3.808312655194495
 20
-11.37406947921323
 30
0.0
 40
0.8906723995727782
 50
94.994589319075317
 51
155.1663289573039
1001
GENIUS_GENOBJ-N-FIL_13
1002
{
1000
OWNER
1000
GEN
1002
}
1001
GENIUS_GENODEF_13
1002
{
1000
HIER
1070
     0
1002
}
1002
{
1000
MANEDIT
1070
     0
1002
}
1002
{
1000
NOSEL
1070
     0
1002
}
1002
{
1000
BEHIND
1070
     0
1002
}
1002
{
1000
OTHER
1070
     0
1002
}
1002
{
1000
REACTOR
1002
}
  0
ARC
  5
449D
  8
247
  6
CONTINUOUS
 10
4.6601458886677563
 20
-12.22645888621258
 30
0.0
 40
1.392781735586712
 50
15.846096555777221
 51
82.325137004169065
  0
ARC
  5
449E
  8
247
  6
CONTINUOUS
 10
4.9592434315272547
 20
-11.64221272584035
 30
0.0
 40
1.324563662670287
 50
249.7136016704969
 51
321.78874565640689
1001
GENIUS_GENOBJ-N-FIL_13
1002
{
1000
OWNER
1000
GEN
1002
}
1001
GENIUS_GENODEF_13
1002
{
1000
HIER
1070
     0
1002
}
1002
{
1000
MANEDIT
1070
     0
1002
}
1002
{
1000
NOSEL
1070
     0
1002
}
1002
{
1000
BEHIND
1070
     0
1002
}
1002
{
1000
OTHER
1070
     0
1002
}
1002
{
1000
REACTOR
1002
}
  0
LINE
  5
449F
  8
247
  6
CONTINUOUS
 10
4.8461538462199441
 20
-11.538461538759959
 30
0.0
 11
4.8461538462199441
 21
-10.84615384647998
 31
0.0
  0
LINE
  5
44A0
  8
250
  6
CONTINUOUS
 10
-18.436872775073201
 20
-25.210403317106
 30
0.0
 11
-17.0
 21
-23.465000000000028
 31
0.0
  0
LINE
  5
44A1
  8
250
  6
CONTINUOUS
 10
-17.793127224926788
 20
-25.582069983772669
 30
0.0
 11
-17.0
 21
-23.465000000000028
 31
0.0
  0
LINE
  5
44A2
  8
250
  6
CONTINUOUS
 10
-17.0
 20
-23.465000000000028
 30
0.0
 11
-18.114999999999998
 21
-25.396236650439331
 31
0.0
  0
LINE
  5
44A3
  8
250
  6
CONTINUOUS
 10
-18.114999999999998
 20
-25.396236650439331
 30
0.0
 11
-23.572223203118511
 21
-34.848424506484321
 31
0.0
  0
TEXT
  5
44A4
  8
250
  6
CONTINUOUS
 10
-45.572223203118497
 20
-33.848424506484321
 30
0.0
 40
2.799999999999998
  1
HSK-A63
  7
YOKO
1001
ITEMNAME
1000
LNSP3
  0
LINE
  5
44A5
  8
250
  6
CONTINUOUS
 10
-23.572223203118511
 20
-34.848424506484321
 30
0.0
 11
-47.838889869785127
 21
-34.848424506484321
 31
0.0
1001
ITEMNAME
1000
LNSP2
  0
LINE
  5
44A6
  8
247
  6
CONTINUOUS
 10
3.0000000001399481
 20
-17.250000000070031
 30
0.0
 11
3.0000000001399481
 21
-16.576923077019998
 31
0.0
  0
TEXT
  5
44A7
  8
241
  6
CONTINUOUS
 10
-32.000000000000007
 20
56.0
 30
0.0
 40
5.0
  1
HSK-A63-CKB3-80
  7
YOKO
 11
-32.000000000000007
 21
56.0
 31
0.0
 73
     1
1001
GRPNAME
1000
PASTMD0I
  0
ARC
  5
44A8
  8
240
  6
CONTINUOUS
 10
38.999999999999922
 20
20.50000000000011
 30
0.0
 40
5.0
 50
179.99999999999869
 51
269.99999999999989
1001
GRPNAME
1000
PASTMD0R
1001
GENIUS_GENODEF_13
1002
{
1000
HIER
1070
     0
1002
}
1002
{
1000
MANEDIT
1070
     0
1002
}
1002
{
1000
NOSEL
1070
     0
1002
}
1002
{
1000
BEHIND
1070
     0
1002
}
1002
{
1000
OTHER
1070
     0
1002
}
1002
{
1000
REACTOR
1002
}
1001
GENIUS_GENOBJ-N-FIL_13
1002
{
1000
OWNER
1000
GEN
1002
}
  0
ARC
  5
44AA
  8
240
  6
CONTINUOUS
 10
39.0
 20
-20.499999999999819
 30
0.0
 40
5.0
 50
89.999999999999844
 51
180.0
1001
GENIUS_GENODEF_13
1002
{
1000
HIER
1070
     0
1002
}
1002
{
1000
MANEDIT
1070
     0
1002
}
1002
{
1000
NOSEL
1070
     0
1002
}
1002
{
1000
BEHIND
1070
     0
1002
}
1002
{
1000
OTHER
1070
     0
1002
}
1002
{
1000
REACTOR
1002
}
1001
GENIUS_GENOBJ-N-FIL_13
1002
{
1000
OWNER
1000
GEN
1002
}
  0
LINE
  5
44B2
  8
241
  6
CONTINUOUS
 10
33.999999999999922
 20
20.500000000000231
 30
0.0
 11
33.999999999999993
 21
-20.499999999999819
 31
0.0
  0
LINE
  5
4539
  8
243
  6
HIDDEN2
 10
57.999999999999979
 20
9.0000000000000533
 30
0.0
 11
80.0
 21
9.0000000000000551
 31
0.0
1001
GRPNAME
1000
PASTMD0R
  0
LINE
  5
453A
  8
243
  6
HIDDEN2
 10
57.999999999999979
 20
-8.9999999999999432
 30
0.0
 11
80.0
 21
-8.9999999999999432
 31
0.0
1001
GRPNAME
1000
PASTMD0R
  0
LINE
  5
453B
  8
250
  6
CONTINUOUS
 10
80.5
 20
-15.49999999999994
 30
0.0
 11
91.142929509999902
 21
-15.49999999999994
 31
0.0
  0
LINE
  5
453C
  8
250
  6
CONTINUOUS
 10
80.5
 20
15.50000000000005
 30
0.0
 11
91.142929509999902
 21
15.50000000000005
 31
0.0
  0
LINE
  5
453D
  8
250
  6
CONTINUOUS
 10
90.142929509999902
 20
-13.269999999999939
 30
0.0
 11
90.142929509999902
 21
13.270000000000049
 31
0.0
  0
LINE
  5
453E
  8
250
  6
CONTINUOUS
 10
90.514596176666487
 20
-13.269999999999939
 30
0.0
 11
90.142929509999902
 21
-15.49999999999994
 31
0.0
  0
LINE
  5
453F
  8
250
  6
CONTINUOUS
 10
89.77126284333319
 20
-13.269999999999939
 30
0.0
 11
90.142929509999902
 21
-15.49999999999994
 31
0.0
  0
LINE
  5
4540
  8
250
  6
CONTINUOUS
 10
90.142929509999902
 20
-15.49999999999994
 30
0.0
 11
90.142929509999902
 21
-13.269999999999939
 31
0.0
  0
LINE
  5
4541
  8
250
  6
CONTINUOUS
 10
89.77126284333319
 20
13.270000000000049
 30
0.0
 11
90.142929509999902
 21
15.50000000000005
 31
0.0
  0
LINE
  5
4542
  8
250
  6
CONTINUOUS
 10
90.514596176666487
 20
13.270000000000049
 30
0.0
 11
90.142929509999902
 21
15.50000000000005
 31
0.0
  0
LINE
  5
4543
  8
250
  6
CONTINUOUS
 10
90.142929509999902
 20
15.50000000000005
 30
0.0
 11
90.142929509999902
 21
13.270000000000049
 31
0.0
  0
TEXT
  5
4544
  8
250
  6
CONTINUOUS
 10
89.142929509999917
 20
-3.5333333333332599
 30
0.0
 40
2.799999999999998
  1
\U+2205
 50
90.0
1001
ACAD
1000
MTEXTBEGIN
1070
    73
1070
     1
1070
    44
1040
1.0
1070
    74
1070
     0
1000
MTEXTEND
  0
TEXT
  5
4545
  8
250
  6
CONTINUOUS
 10
89.142929509999917
 20
-0.9999999999999293
 30
0.0
 40
2.799999999999998
  1
31
 50
90.0
1001
ACAD
1000
MTEXTBEGIN
1070
    73
1070
     1
1070
    44
1040
1.0
1070
    74
1070
     0
1000
MTEXTEND
  0
LINE
  5
4546
  8
250
  6
CONTINUOUS
 10
83.323202719999884
 20
31.041146230000049
 30
0.0
 11
96.389869379999794
 21
31.041146230000049
 31
0.0
1001
ITEMNAME
1000
LNSP2
  0
LINE
  5
4547
  8
250
  6
CONTINUOUS
 10
75.787390535123222
 20
17.245403317064831
 30
0.0
 11
74.350517760000002
 21
15.50000000000005
 31
0.0
  0
LINE
  5
4548
  8
250
  6
CONTINUOUS
 10
75.143644984987446
 20
17.617069983749928
 30
0.0
 11
74.350517760000002
 21
15.50000000000005
 31
0.0
  0
LINE
  5
4549
  8
250
  6
CONTINUOUS
 10
74.350517760000002
 20
15.50000000000005
 30
0.0
 11
75.46551776005532
 21
17.431236650407381
 31
0.0
  0
POLYLINE
  5
454A
  8
250
  6
CONTINUOUS
 66
     1
 10
0.0
 20
0.0
 30
0.0
1001
ACAD
1000
DSTYLE
1002
{
1070
     6
1000
OPEN
1070
   343
1005
0
1002
}
  0
VERTEX
  5
454B
  8
250
  6
CONTINUOUS
 10
75.46551776005532
 20
17.431236650407381
 30
0.0
  0
VERTEX
  5
454C
  8
250
  6
CONTINUOUS
 10
83.323202719999884
 20
31.041146230000049
 30
0.0
  0
SEQEND
  5
454D
  8
250
  6
CONTINUOUS
  0
TEXT
  5
454E
  8
250
  6
CONTINUOUS
 10
85.723202719999904
 20
32.041146230000066
 30
0.0
 40
2.799999999999998
  1
CK3
  7
YOKO
1001
ITEMNAME
1000
LNSP3
1001
ACAD
1000
MTEXTBEGIN
1070
    73
1070
     1
1070
    44
1040
1.0
1070
    74
1070
     0
1000
MTEXTEND
  0
CIRCLE
  5
454F
  8
242
  6
CONTINUOUS
 10
71.999999999999986
 20
0.0000000000000551
 30
0.0
 40
2.649999999999999
  0
CIRCLE
  5
4550
  8
241
  6
CONTINUOUS
 10
71.999999999999986
 20
0.0000000000000551
 30
0.0
 40
3.1000000000000001
  0
LINE
  5
4551
  8
245
  6
CENTER2
 10
71.999999999999986
 20
4.1000000000000512
 30
0.0
 11
71.999999999999986
 21
-4.099999999999941
 31
0.0
  0
POLYLINE
  5
4552
  8
241
  6
CONTINUOUS
 66
     1
 10
0.0
 20
0.0
 30
0.0
 70
     1
  0
VERTEX
  5
4553
  8
241
  6
CONTINUOUS
 10
70.499999999999986
 20
-0.8660253999999449
 30
0.0
  0
VERTEX
  5
4554
  8
241
  6
CONTINUOUS
 10
71.999999999999986
 20
-1.7320508099999441
 30
0.0
  0
VERTEX
  5
4555
  8
241
  6
CONTINUOUS
 10
73.499999999999986
 20
-0.8660253999999449
 30
0.0
  0
VERTEX
  5
4556
  8
241
  6
CONTINUOUS
 10
73.499999999999986
 20
0.866025400000055
 30
0.0
  0
VERTEX
  5
4557
  8
241
  6
CONTINUOUS
 10
71.999999999999986
 20
1.7320508100000549
 30
0.0
  0
VERTEX
  5
4558
  8
241
  6
CONTINUOUS
 10
70.499999999999986
 20
0.866025400000055
 30
0.0
  0
SEQEND
  5
4559
  8
241
  6
CONTINUOUS
  0
LINE
  5
456D
  8
250
  6
CONTINUOUS
 10
0.0000000000000284
 20
31.99999999999989
 30
0.0
 11
0.0000000000000291
 21
43.0
 31
0.0
  0
LINE
  5
456E
  8
250
  6
CONTINUOUS
 10
80.0
 20
16.00000000000006
 30
0.0
 11
80.0
 21
43.0
 31
0.0
  0
LINE
  5
456F
  8
250
  6
CONTINUOUS
 10
2.230000000000028
 20
42.0
 30
0.0
 11
77.769999999999996
 21
42.0
 31
0.0
  0
TEXT
  5
4573
  8
250
  6
CONTINUOUS
 10
37.33333333333335
 20
43.0
 30
0.0
 40
2.7999999999999989
  1
80
  0
LINE
  5
4574
  8
250
  6
CONTINUOUS
 10
77.769999999999996
 20
42.371666666666663
 30
0.0
 11
80.0
 21
42.0
 31
0.0
  0
LINE
  5
4575
  8
250
  6
CONTINUOUS
 10
77.769999999999996
 20
41.62833333333333
 30
0.0
 11
80.0
 21
42.0
 31
0.0
  0
LINE
  5
4576
  8
250
  6
CONTINUOUS
 10
80.0
 20
42.0
 30
0.0
 11
77.769999999999996
 21
42.0
 31
0.0
  0
LINE
  5
4577
  8
250
  6
CONTINUOUS
 10
2.230000000000028
 20
41.62833333333333
 30
0.0
 11
0.000000000000029
 21
42.0
 31
0.0
  0
LINE
  5
4578
  8
250
  6
CONTINUOUS
 10
2.230000000000028
 20
42.371666666666663
 30
0.0
 11
0.000000000000029
 21
42.0
 31
0.0
  0
LINE
  5
4579
  8
250
  6
CONTINUOUS
 10
0.000000000000029
 20
42.0
 30
0.0
 11
2.230000000000028
 21
42.0
 31
0.0
  0
VIEWPORT
  5
22
 67
     1
  8
0
 10
261.51769911504419
 20
148.5
 30
0.0
 40
523.0353982300885
 41
297.0
 68
     1
 69
     1
1001
ACAD
1000
MVIEW
1002
{
1070
    16
1010
0.0
1020
0.0
1030
0.0
1010
0.0
1020
0.0
1030
1.0
1040
0.0
1040
297.0
1040
261.51769911504419
1040
148.5
1040
50.0
1040
0.0
1040
0.0
1070
     0
1070
   100
1070
     1
1070
     1
1070
     0
1070
     0
1070
     0
1070
     0
1040
0.0
1040
0.0
1040
0.0
1040
1.0
1040
1.0
1040
10.0
1040
10.0
1070
     0
1002
{
1002
}
1002
}
1001
GENIUS_GENODEF_13
1002
{
1000
HIER
1070
     0
1002
}
1002
{
1000
MANEDIT
1070
     0
1002
}
1002
{
1000
NOSEL
1070
     0
1002
}
1002
{
1000
BEHIND
1070
     0
1002
}
1002
{
1000
OTHER
1070
     0
1002
}
1002
{
1000
REACTOR
1002
}
1001
GENIUS_GENOBJ-N-SDF_13
1002
{
1000
OWNER
1000
GEN
1002
}
1001
GENIUS_GENSCREG_15
1000
PF
1040
1.0
1000
DF
1040
1.0
1000
MIN
1011
0.0
1021
0.0
1031
0.0
1021
0.0
1031
0.0
1000
MAX
1011
523.0353982300885
1021
0.0
1031
0.0
1021
297.0
1031
0.0
1000
FLAGS
1070
     4
  0
ENDSEC
  0
EOF
