  0
SECTION
  2
HEADER
  9
$ACADVER
  1
AC1009
  9
$INSBASE
 10
0.0
 20
0.0
 30
0.0
  9
$EXTMIN
 10
-43.1414530200000002
 20
-27.8844030405215406
 30
0.0
  9
$EXTMAX
 10
86.899901679999985
 20
54.0000000000000071
 30
0.0
  9
$LIMMIN
 10
0.0
 20
0.0
  9
$LIMMAX
 10
297.0
 20
210.0
  9
$ORTHOMODE
 70
     0
  9
$REGENMODE
 70
     1
  9
$FILLMODE
 70
     1
  9
$QTEXTMODE
 70
     0
  9
$MIRRTEXT
 70
     1
  9
$DRAGMODE
 70
     2
  9
$LTSCALE
 40
10.0
  9
$OSMODE
 70
   807
  9
$ATTMODE
 70
     1
  9
$TEXTSIZE
 40
3.0
  9
$TRACEWID
 40
1.0
  9
$TEXTSTYLE
  7
YOKO
  9
$CLAYER
  8
240
  9
$CELTYPE
  6
BYLAYER
  9
$CECOLOR
 62
   256
  9
$DIMSCALE
 40
1.0
  9
$DIMASZ
 40
2.2299999999999991
  9
$DIMEXO
 40
0.5
  9
$DIMDLI
 40
7.0
  9
$DIMRND
 40
0.0
  9
$DIMDLE
 40
0.0
  9
$DIMEXE
 40
1.0
  9
$DIMTP
 40
0.0
  9
$DIMTM
 40
0.01
  9
$DIMTXT
 40
2.799999999999998
  9
$DIMCEN
 40
0.0
  9
$DIMTSZ
 40
0.0
  9
$DIMTOL
 70
     0
  9
$DIMLIM
 70
     0
  9
$DIMTIH
 70
     0
  9
$DIMTOH
 70
     0
  9
$DIMSE1
 70
     0
  9
$DIMSE2
 70
     0
  9
$DIMTAD
 70
     3
  9
$DIMZIN
 70
     9
  9
$DIMBLK
  1
OPEN
  9
$DIMASO
 70
     1
  9
$DIMSHO
 70
     1
  9
$DIMPOST
  1

  9
$DIMAPOST
  1

  9
$DIMALT
 70
     0
  9
$DIMALTD
 70
     2
  9
$DIMALTF
 40
25.3999999999999986
  9
$DIMLFAC
 40
1.0
  9
$DIMTOFL
 70
     1
  9
$DIMTVP
 40
0.0
  9
$DIMTIX
 70
     1
  9
$DIMSOXD
 70
     0
  9
$DIMSAH
 70
     0
  9
$DIMBLK1
  1

  9
$DIMBLK2
  1

  9
$DIMSTYLE
  2
BIGT
  9
$DIMCLRD
 70
   256
  9
$DIMCLRE
 70
   256
  9
$DIMCLRT
 70
    40
  9
$DIMTFAC
 40
1.0
  9
$DIMGAP
 40
1.0
  9
$LUNITS
 70
     2
  9
$LUPREC
 70
     6
  9
$SKETCHINC
 40
1.0
  9
$FILLETRAD
 40
5.0
  9
$AUNITS
 70
     0
  9
$AUPREC
 70
     6
  9
$MENU
  1
.
  9
$ELEVATION
 40
0.0
  9
$PELEVATION
 40
0.0
  9
$THICKNESS
 40
0.0
  9
$LIMCHECK
 70
     0
  9
$BLIPMODE
 70
     0
  9
$CHAMFERA
 40
0.2
  9
$CHAMFERB
 40
0.2
  9
$SKPOLY
 70
     0
  9
$TDCREATE
 40
2457732.4415509258396924
  9
$TDUPDATE
 40
2458291.710405093152076
  9
$TDINDWG
 40
0.0082290046
  9
$TDUSRTIMER
 40
0.0082289699
  9
$USRTIMER
 70
     1
  9
$ANGBASE
 50
0.0
  9
$ANGDIR
 70
     0
  9
$PDMODE
 70
     1
  9
$PDSIZE
 40
0.0
  9
$PLINEWID
 40
0.0
  9
$COORDS
 70
     1
  9
$SPLFRAME
 70
     0
  9
$SPLINETYPE
 70
     6
  9
$SPLINESEGS
 70
     4
  9
$ATTDIA
 70
     1
  9
$ATTREQ
 70
     1
  9
$HANDLING
 70
     1
  9
$HANDSEED
  5
46FD
  9
$SURFTAB1
 70
     6
  9
$SURFTAB2
 70
     6
  9
$SURFTYPE
 70
     6
  9
$SURFU
 70
     6
  9
$SURFV
 70
     6
  9
$UCSNAME
  2

  9
$UCSORG
 10
0.0
 20
0.0
 30
0.0
  9
$UCSXDIR
 10
1.0
 20
0.0
 30
0.0
  9
$UCSYDIR
 10
0.0
 20
1.0
 30
0.0
  9
$PUCSNAME
  2

  9
$PUCSORG
 10
0.0
 20
0.0
 30
0.0
  9
$PUCSXDIR
 10
1.0
 20
0.0
 30
0.0
  9
$PUCSYDIR
 10
0.0
 20
1.0
 30
0.0
  9
$USERI1
 70
     1
  9
$USERI2
 70
     0
  9
$USERI3
 70
     0
  9
$USERI4
 70
     0
  9
$USERI5
 70
     0
  9
$USERR1
 40
0.0
  9
$USERR2
 40
0.0
  9
$USERR3
 40
0.0
  9
$USERR4
 40
0.0
  9
$USERR5
 40
0.0
  9
$WORLDVIEW
 70
     1
  9
$SHADEDGE
 70
     3
  9
$SHADEDIF
 70
    70
  9
$TILEMODE
 70
     1
  9
$MAXACTVP
 70
    16
  9
$PLIMCHECK
 70
     0
  9
$PEXTMIN
 10
1.0000000000000000E+20
 20
1.0000000000000000E+20
 30
1.0000000000000000E+20
  9
$PEXTMAX
 10
-1.0000000000000000E+20
 20
-1.0000000000000000E+20
 30
-1.0000000000000000E+20
  9
$PLIMMIN
 10
0.0
 20
0.0
  9
$PLIMMAX
 10
420.0
 20
297.0
  9
$UNITMODE
 70
     0
  9
$VISRETAIN
 70
     1
  9
$PLINEGEN
 70
     0
  9
$PSLTSCALE
 70
     1
  0
ENDSEC
  0
SECTION
  2
TABLES
  0
TABLE
  2
VPORT
 70
     1
  0
VPORT
  2
*ACTIVE
 70
     0
 10
0.0
 20
0.0
 11
1.0
 21
1.0
 12
48.6564972089169601
 22
17.1424902540231692
 13
0.0
 23
0.0
 14
7.0
 24
7.0
 15
7.0
 25
7.0
 16
0.0
 26
0.0
 36
1.0
 17
0.0
 27
0.0
 37
0.0
 40
141.3911328466683983
 41
1.887387387387387
 42
50.0
 43
0.0
 44
0.0
 50
0.0
 51
0.0
 71
     0
 72
  2000
 73
     1
 74
     0
 75
     0
 76
     1
 77
     0
 78
     0
  0
ENDTAB
  0
TABLE
  2
LTYPE
 70
    22
  0
LTYPE
  2
CONTINUOUS
 70
     0
  3
Solid line
 72
    65
 73
     0
 40
0.0
  0
LTYPE
  2
CENTER2
 70
     0
  3
___ _ ___ _ ___ _ ___ _ ___ _ ___ _ ___ _ ___ _
 72
    65
 73
     4
 40
1.125
 49
0.75
 49
-0.125
 49
0.125
 49
-0.125
  0
LTYPE
  2
HIDDEN2
 70
     0
  3
_ _ _ _ _ _ _ _ _ _ _ _ _ _ _ _ _ _ _ _ _ _ _ _
 72
    65
 73
     2
 40
0.1875
 49
0.125
 49
-0.0625
  0
LTYPE
  2
PHANTOM2
 70
     0
  3
___ _ _ ___ _ _ ___ _ _ ___ _ _ ___ _ _ ___ _ _
 72
    65
 73
     6
 40
1.25
 49
0.625
 49
-0.125
 49
0.125
 49
-0.125
 49
0.125
 49
-0.125
  0
LTYPE
  2
AMCONSTR
 70
     0
  3
_______________________
 72
    65
 73
     2
 40
9999.0
 49
9999.0
 49
0.0
  0
LTYPE
  2
HIDDEN
 70
     0
  3
Hidden __ __ __ __ __ __ __ __ __ __ __ __ __ _
 72
    65
 73
     2
 40
0.375
 49
0.25
 49
-0.125
  0
LTYPE
  2
CENTER
 70
     0
  3
Center ____ _ ____ _ ____ _ ____ _ ____ _ ____
 72
    65
 73
     4
 40
2.0
 49
1.25
 49
-0.25
 49
0.25
 49
-0.25
  0
LTYPE
  2
AMZIGZAG2
 70
     0
  3
/\/-/\/-/\/-/\/-/\/-/\/
 72
    65
 73
     2
 40
0.4401
 49
0.0001
 49
-0.4400000000000001
  0
LTYPE
  2
ACANSTGB
 70
     0
  3
__ . . __ . .
 72
    65
 73
     6
 40
0.35433070866
 49
0.15748031496
 49
-0.03937007874
 49
0.03937007874
 49
-0.03937007874
 49
0.03937007874
 49
-0.03937007874
  0
LTYPE
  2
ACANSTGL
 70
     0
  3
_ _ _ _ _
 72
    65
 73
     2
 40
0.11811023622
 49
0.07874015748
 49
-0.03937007874
  0
ENDTAB
  0
TABLE
  2
LAYER
 70
     9
  0
LAYER
  2
0
 70
     0
 62
     7
  6
CONTINUOUS
  0
LAYER
  2
240
 70
     0
 62
     4
  6
CONTINUOUS
  0
LAYER
  2
DEFPOINTS
 70
     0
 62
     7
  6
CONTINUOUS
  0
LAYER
  2
245
 70
     0
 62
     2
  6
CENTER2
  0
LAYER
  2
241
 70
     0
 62
   211
  6
CONTINUOUS
  0
LAYER
  2
242
 70
     0
 62
     3
  6
CONTINUOUS
  0
LAYER
  2
243
 70
     0
 62
   211
  6
HIDDEN2
  0
LAYER
  2
247
 70
     0
 62
    60
  6
CONTINUOUS
  0
LAYER
  2
250
 70
     0
 62
     3
  6
CONTINUOUS
  0
ENDTAB
  0
TABLE
  2
STYLE
 70
    10
  0
STYLE
  2
STANDARD
 70
     0
 40
0.0
 41
1.0
 50
0.0
 71
     0
 42
3.0
  3
romans.shx
  4
extfont.shx
  0
STYLE
  2
YOKO
 70
     0
 40
0.0
 41
1.0
 50
0.0
 71
     0
 42
3.0
  3
romans.shx
  4
extfont.shx
  0
STYLE
  2

 70
     1
 40
0.0
 41
1.0
 50
0.0
 71
     0
 42
3.0
  3
genltshp.shx
  4

  0
STYLE
  2
ACANSGDT
 70
     0
 40
0.0
 41
1.0
 50
0.0
 71
     0
 42
3.0
  3
amgdt.shx
  4

  0
ENDTAB
  0
TABLE
  2
VIEW
 70
     0
  0
ENDTAB
  0
TABLE
  2
UCS
 70
     0
  0
ENDTAB
  0
TABLE
  2
APPID
 70
    38
  0
APPID
  2
ACAD
 70
     0
  0
APPID
  2
ACADANNOTATIVE
 70
     0
  0
APPID
  2
GLOBAL
 70
     0
  0
APPID
  2
DETAIL
 70
     0
  0
APPID
  2
GRPNAME
 70
     0
  0
APPID
  2
GPARA
 70
     0
  0
APPID
  2
MCAD_NO_VIS
 70
     0
  0
APPID
  2
ACAD_TEMP_GRAPHIC
 70
     0
  0
APPID
  2
ACATTRIBSERVICES
 70
     0
  0
APPID
  2
GENIUS_GENSCREG_15
 70
     0
  0
APPID
  2
GENIUS_GENODEF_13
 70
     0
  0
APPID
  2
GENIUS_GENOBJ-N-SDF_13
 70
     0
  0
APPID
  2
GENIUS_GENREC_14
 70
     0
  0
APPID
  2
GENIUS_GENOBJ-N-REC_13
 70
     0
  0
APPID
  2
GENIUS_GENDIMSH_14
 70
     0
  0
APPID
  2
GENIUS_GENOBJ-N-DIM_13
 70
     0
  0
APPID
  2
GENIUS_GENDIM_13
 70
     0
  0
APPID
  2
GENIUS_GENDTOL_13
 70
     0
  0
APPID
  2
GENIUS_GENOLIS_13
 70
     0
  0
APPID
  2
GENIUS_GENOENT_13
 70
     0
  0
APPID
  2
GENIUS_GENOBJ-F-FEM_13
 70
     0
  0
APPID
  2
GENIUS_GENOREF_13
 70
     0
  0
APPID
  2
GENIUS_GEFFEM_13
 70
     0
  0
APPID
  2
GENIUS_GEFFEMP_13
 70
     0
  0
APPID
  2
AD_DRAW
 70
     0
  0
APPID
  2
DESIGNERASSEMBLIES
 70
     0
  0
APPID
  2
ACADM_DIM_EDIT
 70
     0
  0
APPID
  2
AMDT_DM_ADJ
 70
     0
  0
APPID
  2
ITEMNAME
 70
     0
  0
APPID
  2
GENIUS_GENOBJ-N-FIL_13
 70
     0
  0
APPID
  2
GENIUS_GENFIL_13
 70
     0
  0
APPID
  2
GENIUS_GENOBJ-N-CHA_13
 70
     0
  0
APPID
  2
ACAD_NAV_VCDISPLAY
 70
     0
  0
APPID
  2
ACAD_EXEMPT_FROM_CAD_STANDARDS
 70
     0
  0
APPID
  2
ACAECLAYERSTANDARD
 70
     0
  0
APPID
  2
ACAD_MLEADERVER
 70
     0
  0
APPID
  2
ACAD_DSTYLE_DIMJAG
 70
     0
  0
APPID
  2
ACAD_DSTYLE_DIMBREAK
 70
     0
  0
ENDTAB
  0
TABLE
  2
DIMSTYLE
 70
    31
  0
DIMSTYLE
  2
STANDARD
 70
     0
  3

  4

  5

  6

  7

 40
1.0
 41
0.18
 42
0.0625
 43
0.38
 44
0.18
 45
0.0
 46
0.0
 47
0.0
 48
0.0
140
0.18
141
0.09
142
0.0
143
25.3999999999999986
144
1.0
145
0.0
146
1.0
147
0.09
 71
     0
 72
     0
 73
     1
 74
     1
 75
     0
 76
     0
 77
     0
 78
     0
170
     0
171
     2
172
     0
173
     0
174
     0
175
     0
176
     0
177
     0
178
     0
  0
DIMSTYLE
  2
BIGT
 70
     0
  3

  4

  5

  6

  7

 40
1.0
 41
2.2299999999999991
 42
0.5
 43
7.0
 44
1.0
 45
0.0
 46
0.0
 47
0.0
 48
0.01
140
2.799999999999998
141
0.0
142
0.0
143
25.3999999999999986
144
1.0
145
0.0
146
1.0
147
1.0
 71
     0
 72
     0
 73
     0
 74
     0
 75
     0
 76
     0
 77
     3
 78
     9
170
     0
171
     2
172
     1
173
     0
174
     1
175
     0
176
   256
177
   256
178
    40
  0
DIMSTYLE
  2
AM_ANSI
 70
     0
  3

  4
mm
  5

  6

  7

 40
1.0
 41
0.12
 42
0.05
 43
0.5
 44
0.1
 45
0.0
 46
0.0
 47
0.1
 48
0.1
140
0.12
141
0.0
142
0.0
143
25.3999999999999986
144
1.0
145
0.0
146
0.71
147
0.06
 71
     0
 72
     0
 73
     1
 74
     1
 75
     0
 76
     0
 77
     0
 78
     7
170
     0
171
     2
172
     0
173
     0
174
     0
175
     0
176
   256
177
   256
178
     2
  0
DIMSTYLE
  2
AM_ANSI$3
 70
     0
  3

  4
mm
  5

  6

  7

 40
1.0
 41
0.12
 42
0.05
 43
0.5
 44
0.1
 45
0.0
 46
0.0
 47
0.1
 48
0.1
140
0.12
141
0.0
142
0.0
143
25.3999999999999986
144
1.0
145
0.0
146
0.71
147
0.06
 71
     0
 72
     0
 73
     1
 74
     1
 75
     0
 76
     0
 77
     0
 78
     7
170
     0
171
     2
172
     0
173
     0
174
     0
175
     0
176
   256
177
   256
178
     2
  0
DIMSTYLE
  2
AM_ANSI$4
 70
     0
  3

  4
mm
  5

  6

  7

 40
1.0
 41
0.12
 42
0.05
 43
0.5
 44
0.1
 45
0.0
 46
0.0
 47
0.1
 48
0.1
140
0.12
141
0.0
142
0.0
143
25.3999999999999986
144
1.0
145
0.0
146
0.71
147
0.06
 71
     0
 72
     0
 73
     1
 74
     1
 75
     0
 76
     0
 77
     0
 78
     7
170
     0
171
     2
172
     0
173
     0
174
     0
175
     0
176
   256
177
   256
178
     2
  0
DIMSTYLE
  2
AM_ANSI$7
 70
     0
  3

  4
mm
  5

  6

  7

 40
1.0
 41
0.12
 42
0.05
 43
0.5
 44
0.1
 45
0.0
 46
0.0
 47
0.1
 48
0.1
140
0.12
141
0.0
142
0.0
143
25.3999999999999986
144
1.0
145
0.0
146
0.71
147
0.06
 71
     0
 72
     0
 73
     1
 74
     1
 75
     0
 76
     0
 77
     0
 78
     7
170
     0
171
     2
172
     0
173
     0
174
     0
175
     0
176
   256
177
   256
178
     2
  0
DIMSTYLE
  2
AM_ANSI$SF
 70
     0
  3

  4
mm
  5

  6

  7

 40
1.0
 41
0.12
 42
0.05
 43
0.5
 44
0.1
 45
0.0
 46
0.0
 47
0.1
 48
0.1
140
0.12
141
0.0
142
0.0
143
25.3999999999999986
144
1.0
145
0.0
146
0.71
147
0.06
 71
     0
 72
     0
 73
     1
 74
     1
 75
     1
 76
     1
 77
     0
 78
     7
170
     0
171
     2
172
     0
173
     0
174
     0
175
     0
176
   256
177
   256
178
     2
  0
DIMSTYLE
  2
AM_ANSI$SH
 70
     0
  3

  4
mm
  5

  6
GENAXEH
  7

 40
1.0
 41
0.12
 42
0.05
 43
0.5
 44
0.1
 45
0.0
 46
0.0
 47
0.1
 48
0.1
140
0.12
141
0.0
142
0.0
143
25.3999999999999986
144
1.0
145
0.0
146
0.71
147
0.06
 71
     0
 72
     0
 73
     1
 74
     1
 75
     1
 76
     1
 77
     0
 78
     7
170
     0
171
     2
172
     0
173
     1
174
     0
175
     0
176
   256
177
   256
178
     2
  0
ENDTAB
  0
ENDSEC
  0
SECTION
  2
BLOCKS
  0
BLOCK
  8
0
  2
$MODEL_SPACE
 70
     0
 10
0.0
 20
0.0
 30
0.0
  3
$MODEL_SPACE
  1

  0
ENDBLK
  5
45BD
  8
0
  0
BLOCK
 67
     1
  8
0
  2
$PAPER_SPACE
 70
     0
 10
0.0
 20
0.0
 30
0.0
  3
$PAPER_SPACE
  1

  0
ENDBLK
  5
45B9
 67
     1
  8
0
  0
BLOCK
  8
0
  2
_OPEN
 70
     0
 10
0.0
 20
0.0
 30
0.0
  3
_OPEN
  1

  0
LINE
  5
444A
  8
0
  6
BYBLOCK
 62
     0
 10
-1.0
 20
0.1666666666666666
 30
0.0
 11
0.0
 21
0.0
 31
0.0
  0
LINE
  5
444B
  8
0
  6
BYBLOCK
 62
     0
 10
-1.0
 20
-0.1666666666666666
 30
0.0
 11
0.0
 21
0.0
 31
0.0
  0
LINE
  5
444C
  8
0
  6
BYBLOCK
 62
     0
 10
0.0
 20
0.0
 30
0.0
 11
-1.0
 21
0.0
 31
0.0
  0
ENDBLK
  5
444D
  8
0
  0
BLOCK
  8
0
  2
GENAXEH
 70
     0
 10
0.0
 20
0.0
 30
0.0
  3
GENAXEH
  1

  0
LINE
  5
4485
  8
0
 10
-1.0
 20
0.0
 30
0.0
 11
1.0
 21
0.0
 31
0.0
  0
ENDBLK
  5
4486
  8
0
  0
BLOCK
  8
0
  2
_ACMFILLEDHALF
 70
     0
 10
0.0
 20
0.0
 30
0.0
  3
_ACMFILLEDHALF
  1

  0
TRACE
  5
467E
  8
240
 62
     0
 10
-0.8
 20
0.0
 30
0.0
 11
-1.0
 21
0.166666666
 31
0.0
 12
0.0
 22
0.0
 32
0.0
 13
0.0
 23
0.0
 33
0.0
  0
LINE
  5
467F
  8
240
 62
     0
 10
-1.0
 20
0.0
 30
0.0
 11
-0.8
 21
0.0
 31
0.0
  0
ENDBLK
  5
467D
  8
0
  0
ENDSEC
  0
SECTION
  2
ENTITIES
  0
LINE
  5
424D
  8
240
  6
CONTINUOUS
 10
14.6225009299999993
 20
25.0
 30
0.0
 11
0.0
 21
25.0
 31
0.0
  0
ARC
  5
424E
  8
241
  6
CONTINUOUS
 10
12.6987211000000002
 20
13.6226140999999608
 30
0.0
 40
6.0000000000002691
 50
92.8782119500004057
 51
161.7660565600002087
  0
LINE
  5
424F
  8
241
  6
CONTINUOUS
 10
7.0
 20
15.5
 30
0.0
 11
16.125
 21
15.5
 31
0.0
  0
LINE
  5
4250
  8
243
  6
HIDDEN2
 10
7.0
 20
21.0
 30
0.0
 11
26.0
 21
21.0
 31
0.0
  0
LINE
  5
4251
  8
243
  6
HIDDEN2
 10
7.0
 20
-21.0
 30
0.0
 11
26.0
 21
-21.0
 31
0.0
  0
LINE
  5
4252
  8
240
  6
CONTINUOUS
 10
14.6225009299999993
 20
-25.0
 30
0.0
 11
0.0
 21
-25.0
 31
0.0
  0
LINE
  5
4253
  8
240
  6
CONTINUOUS
 10
0.0
 20
-19.2499999999092815
 30
0.0
 11
-25.0
 21
-18.0000000010430803
 31
0.0
  0
LINE
  5
4254
  8
240
  6
CONTINUOUS
 10
-25.0
 20
18.0000000010430803
 30
0.0
 11
-25.0
 21
-18.0000000010430803
 31
0.0
  0
LINE
  5
4255
  8
241
  6
CONTINUOUS
 10
0.0
 20
19.2499999999092815
 30
0.0
 11
0.0
 21
-19.2499999999092815
 31
0.0
  0
LINE
  5
4256
  8
240
  6
CONTINUOUS
 10
0.0
 20
-19.2499999999092815
 30
0.0
 11
0.0
 21
-25.0
 31
0.0
  0
LINE
  5
4257
  8
243
  6
HIDDEN2
 10
7.0
 20
-21.0
 30
0.0
 11
7.0
 21
-25.0
 31
0.0
  0
LINE
  5
4258
  8
243
  6
HIDDEN2
 10
-13.2639745999999796
 20
16.0
 30
0.0
 11
-14.9960254000000095
 21
13.0
 31
0.0
  0
LINE
  5
4259
  8
240
  6
CONTINUOUS
 10
0.0
 20
19.2499999999092815
 30
0.0
 11
-25.0
 21
18.0000000010430803
 31
0.0
  0
LINE
  5
425A
  8
243
  6
HIDDEN2
 10
-20.5
 20
13.0
 30
0.0
 11
-20.5
 21
18.2250000000000085
 31
0.0
  0
LINE
  5
425B
  8
243
  6
HIDDEN2
 10
-14.9960254000000095
 20
13.0
 30
0.0
 11
-25.0
 21
13.0
 31
0.0
  0
LINE
  5
425C
  8
243
  6
HIDDEN2
 10
7.0
 20
21.0
 30
0.0
 11
7.0
 21
25.0
 31
0.0
  0
LINE
  5
425D
  8
240
  6
CONTINUOUS
 10
0.0
 20
25.0
 30
0.0
 11
0.0
 21
19.2499999999092815
 31
0.0
  0
ARC
  5
425E
  8
243
  6
HIDDEN2
 10
-5.0609879300000067
 20
10.0
 30
0.0
 40
5.999999999156417
 50
33.3670129700005802
 51
90.0
  0
LINE
  5
425F
  8
243
  6
HIDDEN2
 10
-5.0609879300000067
 20
16.0
 30
0.0
 11
-13.2639745999999796
 21
16.0
 31
0.0
  0
LINE
  5
4260
  8
243
  6
HIDDEN2
 10
-10.5
 20
16.0
 30
0.0
 11
-10.5
 21
18.7250000000000085
 31
0.0
1001
GRPNAME
1000
PASTMD02
  0
LINE
  5
4261
  8
245
  6
CENTER2
 10
-7.5
 20
15.2599631439943497
 30
0.0
 11
-7.5
 21
19.6063234070453483
 31
0.0
1001
GRPNAME
1000
PASTMD02
  0
LINE
  5
4262
  8
243
  6
HIDDEN2
 10
-4.5
 20
16.0
 30
0.0
 11
-4.5
 21
19.0249999999999808
 31
0.0
1001
GRPNAME
1000
PASTMD02
  0
LINE
  5
4263
  8
241
  6
CONTINUOUS
 10
14.6225009299999993
 20
-25.0
 30
0.0
 11
14.6225009299999993
 21
15.5
 31
0.0
  0
LINE
  5
4264
  8
240
  6
CONTINUOUS
 10
26.0
 20
-20.0
 30
0.0
 11
34.0
 21
-20.0
 31
0.0
  0
LINE
  5
4265
  8
241
  6
CONTINUOUS
 10
21.3774990699999989
 20
15.5
 30
0.0
 11
21.3774990699999989
 21
-25.0
 31
0.0
  0
LINE
  5
4266
  8
241
  6
CONTINUOUS
 10
19.875
 20
22.0
 30
0.0
 11
19.875
 21
-21.5
 31
0.0
  0
LINE
  5
4267
  8
241
  6
CONTINUOUS
 10
16.125
 20
22.0
 30
0.0
 11
16.125
 21
-21.5
 31
0.0
  0
LINE
  5
4268
  8
241
  6
CONTINUOUS
 10
26.0
 20
-20.0
 30
0.0
 11
26.0
 21
20.0
 31
0.0
  0
LINE
  5
4269
  8
240
  6
CONTINUOUS
 10
21.3774990699999989
 20
-25.0
 30
0.0
 11
19.875
 21
-22.3975952599999992
 31
0.0
  0
LINE
  5
426A
  8
240
  6
CONTINUOUS
 10
14.6225009299999993
 20
-25.0
 30
0.0
 11
16.125
 21
-22.3975952599999992
 31
0.0
  0
LINE
  5
426B
  8
240
  6
CONTINUOUS
 10
19.875
 20
-21.5
 30
0.0
 11
19.875
 21
-22.3975952599999992
 31
0.0
  0
LINE
  5
426C
  8
240
  6
CONTINUOUS
 10
16.125
 20
-22.3975952599999992
 30
0.0
 11
16.125
 21
-21.5
 31
0.0
  0
LINE
  5
426D
  8
240
  6
CONTINUOUS
 10
16.125
 20
-21.5
 30
0.0
 11
19.875
 21
-21.5
 31
0.0
  0
LINE
  5
426E
  8
240
  6
CONTINUOUS
 10
26.0
 20
-20.0
 30
0.0
 11
26.0
 21
-25.0
 31
0.0
  0
LINE
  5
426F
  8
240
  6
CONTINUOUS
 10
26.0
 20
-25.0
 30
0.0
 11
21.3774990699999989
 21
-25.0
 31
0.0
  0
LINE
  5
4270
  8
240
  6
CONTINUOUS
 10
26.0
 20
20.0
 30
0.0
 11
33.9999999999999929
 21
20.0
 31
0.0
  0
LINE
  5
4271
  8
241
  6
CONTINUOUS
 10
14.6225009299999993
 20
19.6150452399999686
 30
0.0
 11
14.6225009299999993
 21
25.0
 31
0.0
  0
LINE
  5
4272
  8
241
  6
CONTINUOUS
 10
21.3774990699999989
 20
19.6150452399999686
 30
0.0
 11
21.3774990699999989
 21
25.0
 31
0.0
  0
LINE
  5
4273
  8
240
  6
CONTINUOUS
 10
14.6225009299999993
 20
25.0
 30
0.0
 11
16.125
 21
22.3975952599999992
 31
0.0
  0
LINE
  5
4274
  8
240
  6
CONTINUOUS
 10
21.3774990699999989
 20
25.0
 30
0.0
 11
19.875
 21
22.3975952599999992
 31
0.0
  0
LINE
  5
4275
  8
240
  6
CONTINUOUS
 10
26.0
 20
25.0
 30
0.0
 11
26.0
 21
20.0
 31
0.0
  0
LINE
  5
4276
  8
241
  6
CONTINUOUS
 10
19.875
 20
17.0126404999999714
 30
0.0
 11
21.3774990699999989
 21
19.6150452399999686
 31
0.0
  0
LINE
  5
4277
  8
241
  6
CONTINUOUS
 10
19.875
 20
15.5
 30
0.0
 11
26.0
 21
15.5
 31
0.0
  0
LINE
  5
4278
  8
241
  6
CONTINUOUS
 10
16.125
 20
17.0126404999999714
 30
0.0
 11
14.6225009299999993
 21
19.6150452399999686
 31
0.0
  0
LINE
  5
4279
  8
241
  6
CONTINUOUS
 10
12.3974422000000004
 20
19.6150452399999686
 30
0.0
 11
14.6225009299999993
 21
19.6150452399999686
 31
0.0
  0
LINE
  5
427A
  8
240
  6
CONTINUOUS
 10
16.125
 20
21.5
 30
0.0
 11
19.875
 21
21.5
 31
0.0
  0
LINE
  5
427B
  8
240
  6
CONTINUOUS
 10
16.125
 20
22.3975952599999992
 30
0.0
 11
16.125
 21
21.5
 31
0.0
  0
LINE
  5
427C
  8
240
  6
CONTINUOUS
 10
19.875
 20
21.5
 30
0.0
 11
19.875
 21
22.3975952599999992
 31
0.0
  0
LINE
  5
427D
  8
241
  6
CONTINUOUS
 10
21.3774990699999989
 20
19.6150452399999686
 30
0.0
 11
26.0
 21
19.6150452399999686
 31
0.0
  0
LINE
  5
427E
  8
240
  6
CONTINUOUS
 10
26.0
 20
25.0
 30
0.0
 11
21.3774990699999989
 21
25.0
 31
0.0
  0
LINE
  5
427F
  8
245
  6
CENTER2
 10
-28.0
 20
0.0
 30
0.0
 11
74.0055713074478945
 21
0.0
 31
0.0
  0
LINE
  5
4280
  8
243
  6
HIDDEN2
 10
-13.2639745999999796
 20
-16.0
 30
0.0
 11
-14.9960254000000095
 21
-13.0
 31
0.0
  0
LINE
  5
4281
  8
243
  6
HIDDEN2
 10
-17.5
 20
-13.0
 30
0.0
 11
-17.5
 21
-18.3750000007029186
 31
0.0
  0
LINE
  5
4282
  8
243
  6
HIDDEN2
 10
-14.9960254000000095
 20
-13.0
 30
0.0
 11
-25.0
 21
-13.0
 31
0.0
  0
ARC
  5
4283
  8
243
  6
HIDDEN2
 10
-5.0609879300000067
 20
-10.0
 30
0.0
 40
5.999999999156417
 50
270.0
 51
326.6329870299994127
  0
LINE
  5
4284
  8
243
  6
HIDDEN2
 10
-5.0609879300000067
 20
-16.0
 30
0.0
 11
-13.2639745999999796
 21
-16.0
 31
0.0
  0
LINE
  5
4285
  8
243
  6
HIDDEN2
 10
-10.5
 20
-16.0
 30
0.0
 11
-10.5
 21
-18.7250000000000085
 31
0.0
1001
GRPNAME
1000
PASTMD02
  0
LINE
  5
4286
  8
245
  6
CENTER2
 10
-7.5
 20
-15.2599631439943497
 30
0.0
 11
-7.5
 21
-19.6063234070453483
 31
0.0
1001
GRPNAME
1000
PASTMD02
  0
LINE
  5
4287
  8
243
  6
HIDDEN2
 10
-4.5
 20
-16.0
 30
0.0
 11
-4.5
 21
-19.0249999999999808
 31
0.0
1001
GRPNAME
1000
PASTMD02
  0
LINE
  5
4288
  8
250
  6
CONTINUOUS
 10
-14.9368727749131001
 20
-20.3204033177593111
 30
0.0
 11
-13.5
 21
-18.5750000005215306
 31
0.0
  0
LINE
  5
4289
  8
250
  6
CONTINUOUS
 10
-14.2931272247325492
 20
-20.6920699843669205
 30
0.0
 11
-13.5
 21
-18.5750000005215306
 31
0.0
  0
LINE
  5
428A
  8
250
  6
CONTINUOUS
 10
-13.5
 20
-18.5750000005215306
 30
0.0
 11
-14.6149999998228299
 21
-20.5062366510630909
 31
0.0
  0
POLYLINE
  5
428B
  8
250
  6
CONTINUOUS
 66
     1
 10
0.0
 20
0.0
 30
0.0
1001
ACAD
1000
DSTYLE
1002
{
1070
     6
1000
OPEN
1070
   343
1005
0
1002
}
  0
VERTEX
  5
428C
  8
250
  6
CONTINUOUS
 10
-14.6149999998228299
 20
-20.5062366510630909
 30
0.0
  0
VERTEX
  5
428D
  8
250
  6
CONTINUOUS
 10
-18.8747863499999902
 20
-27.8844030405215406
 30
0.0
  0
SEQEND
  5
428E
  8
250
  6
CONTINUOUS
  0
TEXT
  5
428F
  8
250
  6
CONTINUOUS
 10
-40.8747863533333202
 20
-26.8844030405215406
 30
0.0
 40
2.799999999999998
  1
HSK-A50
  7
YOKO
1001
ITEMNAME
1000
LNSP3
  0
LINE
  5
4290
  8
250
  6
CONTINUOUS
 10
-18.8747863499999902
 20
-27.8844030405215406
 30
0.0
 11
-43.1414530200000002
 21
-27.8844030405215406
 31
0.0
1001
ITEMNAME
1000
LNSP2
  0
LINE
  5
4291
  8
247
  6
CONTINUOUS
 10
6.4999999999999432
 20
-14.75
 30
0.0
 11
6.5
 21
-10.1153846156699903
 31
0.0
  0
LINE
  5
4292
  8
247
  6
CONTINUOUS
 10
4.0
 20
-13.9548934999879197
 30
0.0
 11
6.0999999999160082
 21
-14.5570588100573506
 31
0.0
  0
LINE
  5
4293
  8
247
  6
CONTINUOUS
 10
4.996153846113998
 20
-13.3251514035190404
 30
0.0
 11
4.996153846113998
 21
-14.2405360188670294
 31
0.0
  0
ARC
  5
4294
  8
247
  6
CONTINUOUS
 10
4.3847190672940961
 20
-13.0872634019467604
 30
0.0
 40
0.3876715809326743
 50
72.9978896752917734
 51
172.9241662185135908
  0
ARC
  5
4295
  8
247
  6
CONTINUOUS
 10
4.305223131028014
 20
-13.3824775568041296
 30
0.0
 40
0.693304796535877
 50
4.7429368522022122
 51
73.8492262732662965
1001
GENIUS_GENOBJ-N-FIL_13
1002
{
1000
OWNER
1000
GEN
1002
}
1001
GENIUS_GENODEF_13
1002
{
1000
HIER
1070
     0
1002
}
1002
{
1000
MANEDIT
1070
     0
1002
}
1002
{
1000
NOSEL
1070
     0
1002
}
1002
{
1000
BEHIND
1070
     0
1002
}
1002
{
1000
OTHER
1070
     0
1002
}
1002
{
1000
REACTOR
1002
}
  0
LINE
  5
4296
  8
247
  6
CONTINUOUS
 10
6.0999999999160082
 20
-13.6416741947093705
 30
0.0
 11
6.0999999999160082
 21
-14.5570588100573506
 31
0.0
  0
LINE
  5
4297
  8
247
  6
CONTINUOUS
 10
4.0
 20
-13.9548934999879695
 30
0.0
 11
4.0
 21
-13.0395088846399307
 31
0.0
  0
ARC
  5
4298
  8
247
  6
CONTINUOUS
 10
5.3874169627678707
 20
-13.3783064762668609
 30
0.0
 40
0.394857301075386
 50
65.990941652528889
 51
172.2634434590690944
  0
ARC
  5
4299
  8
247
  6
CONTINUOUS
 10
5.3912003273325659
 20
-13.7124466104269196
 30
0.0
 40
0.7123241612361686
 50
5.7019851642564632
 51
77.2773384368223759
1001
GENIUS_GENOBJ-N-FIL_13
1002
{
1000
OWNER
1000
GEN
1002
}
1001
GENIUS_GENODEF_13
1002
{
1000
HIER
1070
     0
1002
}
1002
{
1000
MANEDIT
1070
     0
1002
}
1002
{
1000
NOSEL
1070
     0
1002
}
1002
{
1000
BEHIND
1070
     0
1002
}
1002
{
1000
OTHER
1070
     0
1002
}
1002
{
1000
REACTOR
1002
}
  0
LINE
  5
429A
  8
247
  6
CONTINUOUS
 10
6.0999999999160082
 20
-12.6839818870633998
 30
0.0
 11
4.0
 21
-12.0818165769939601
 31
0.0
  0
LINE
  5
429B
  8
247
  6
CONTINUOUS
 10
4.0
 20
-10.5856627309079805
 30
0.0
 11
4.0
 21
-10.9816783643035496
 31
0.0
  0
LINE
  5
429C
  8
247
  6
CONTINUOUS
 10
6.0999999999160082
 20
-11.6087396539439798
 30
0.0
 11
6.0999999999160082
 21
-11.1779704231919297
 31
0.0
  0
ARC
  5
429D
  8
247
  6
CONTINUOUS
 10
5.458299595083357
 20
-10.3818165770699107
 30
0.0
 40
1.576855057639547
 50
202.3594881415255884
 51
254.9932485428460893
  0
ARC
  5
429E
  8
247
  6
CONTINUOUS
 10
4.5658188585381341
 20
-10.8475113661331708
 30
0.0
 40
0.6234706797009447
 50
94.9945893190753168
 51
155.1663289573039037
1001
GENIUS_GENOBJ-N-FIL_13
1002
{
1000
OWNER
1000
GEN
1002
}
1001
GENIUS_GENODEF_13
1002
{
1000
HIER
1070
     0
1002
}
1002
{
1000
MANEDIT
1070
     0
1002
}
1002
{
1000
NOSEL
1070
     0
1002
}
1002
{
1000
BEHIND
1070
     0
1002
}
1002
{
1000
OTHER
1070
     0
1002
}
1002
{
1000
REACTOR
1002
}
  0
ARC
  5
429F
  8
247
  6
CONTINUOUS
 10
5.1621021219694381
 20
-11.4441839510327501
 30
0.0
 40
0.9749472149106982
 50
15.8460965557808002
 51
82.3251370041690649
  0
ARC
  5
42A0
  8
247
  6
CONTINUOUS
 10
5.3714704019710631
 20
-11.0352116387722408
 30
0.0
 40
0.9271945638692008
 50
249.7136016704968995
 51
321.7887456564068884
1001
GENIUS_GENOBJ-N-FIL_13
1002
{
1000
OWNER
1000
GEN
1002
}
1001
GENIUS_GENODEF_13
1002
{
1000
HIER
1070
     0
1002
}
1002
{
1000
MANEDIT
1070
     0
1002
}
1002
{
1000
NOSEL
1070
     0
1002
}
1002
{
1000
BEHIND
1070
     0
1002
}
1002
{
1000
OTHER
1070
     0
1002
}
1002
{
1000
REACTOR
1002
}
  0
LINE
  5
42A1
  8
247
  6
CONTINUOUS
 10
5.2923076922559744
 20
-10.9625858078159109
 30
0.0
 11
5.2923076922559744
 21
-10.4779704232199702
 31
0.0
  0
ARC
  5
42A2
  8
247
  6
CONTINUOUS
 10
5.25
 20
-14.75
 30
0.0
 40
1.25
 50
180.0
 51
0.0
  0
LINE
  5
42A3
  8
247
  6
CONTINUOUS
 10
4.0
 20
-14.75
 30
0.0
 11
4.0
 21
-14.3038461539139803
 31
0.0
  0
ARC
  5
42A4
  8
247
  6
CONTINUOUS
 10
5.25
 20
-10.1153846156699903
 30
0.0
 40
1.25
 50
0.0
 51
180.0
  0
LINE
  5
42B4
  8
243
  6
HIDDEN2
 10
72.5000000000000142
 20
5.4999999999999991
 30
0.0
 11
58.4999999999999929
 21
5.4999999999999991
 31
0.0
1001
GRPNAME
1000
PASTMD0K
  0
LINE
  5
42B5
  8
240
  6
CONTINUOUS
 10
72.5000000000000284
 20
-9.5
 30
0.0
 11
39.0000000000000213
 21
-9.4999999999999396
 31
0.0
1001
GRPNAME
1000
PASTMD0K
  0
LINE
  5
42B6
  8
240
  6
CONTINUOUS
 10
72.5000000000000284
 20
9.5
 30
0.0
 11
39.0000000000000497
 21
9.5
 31
0.0
1001
GRPNAME
1000
PASTMD0K
  0
LINE
  5
42B7
  8
240
  6
CONTINUOUS
 10
72.5000000000000284
 20
-9.5
 30
0.0
 11
72.5000000000000284
 21
9.5
 31
0.0
1001
GRPNAME
1000
PASTMD0K
  0
LINE
  5
42BA
  8
240
  6
CONTINUOUS
 10
33.9999999999999929
 20
20.0
 30
0.0
 11
34.0000000000000497
 21
14.4999999999999396
 31
0.0
  0
LINE
  5
42BB
  8
240
  6
CONTINUOUS
 10
34.0
 20
-20.0
 30
0.0
 11
34.0
 21
-14.4999999999999396
 31
0.0
  0
ARC
  5
42E9
  8
240
  6
CONTINUOUS
 10
39.0000000000000497
 20
14.5
 30
0.0
 40
5.0
 50
180.0000000000007105
 51
270.0
1001
GENIUS_GENODEF_13
1002
{
1000
HIER
1070
     0
1002
}
1002
{
1000
MANEDIT
1070
     0
1002
}
1002
{
1000
NOSEL
1070
     0
1002
}
1002
{
1000
BEHIND
1070
     0
1002
}
1002
{
1000
OTHER
1070
     0
1002
}
1002
{
1000
REACTOR
1002
}
1001
GENIUS_GENOBJ-N-FIL_13
1002
{
1000
OWNER
1000
GEN
1002
}
  0
ARC
  5
42EB
  8
240
  6
CONTINUOUS
 10
39.0
 20
-14.4999999999999396
 30
0.0
 40
5.0
 50
89.9999999999999147
 51
180.0
1001
GENIUS_GENOBJ-N-FIL_13
1002
{
1000
OWNER
1000
GEN
1002
}
1001
GENIUS_GENODEF_13
1002
{
1000
HIER
1070
     0
1002
}
1002
{
1000
MANEDIT
1070
     0
1002
}
1002
{
1000
NOSEL
1070
     0
1002
}
1002
{
1000
BEHIND
1070
     0
1002
}
1002
{
1000
OTHER
1070
     0
1002
}
1002
{
1000
REACTOR
1002
}
  0
LINE
  5
42F3
  8
243
  6
HIDDEN2
 10
72.5000000000000142
 20
-5.4999999999999991
 30
0.0
 11
58.4999999999999929
 21
-5.4999999999999991
 31
0.0
1001
GRPNAME
1000
PASTMD0K
  0
LINE
  5
42F4
  8
241
  6
CONTINUOUS
 10
34.0000000000000497
 20
14.4999999999999396
 30
0.0
 11
34.0
 21
-14.4999999999999396
 31
0.0
  0
TEXT
  5
431C
  8
241
  6
CONTINUOUS
 10
-25.0
 20
49.0
 30
0.0
 40
5.0
  1
HSK-A50-CKB1-73
  7
YOKO
  0
LINE
  5
431D
  8
250
  6
CONTINUOUS
 10
74.6332350100000212
 20
21.6979451599999997
 30
0.0
 11
86.899901679999985
 21
21.6979451599999997
 31
0.0
1001
ITEMNAME
1000
LNSP2
  0
LINE
  5
431E
  8
250
  6
CONTINUOUS
 10
73.0
 20
-9.5
 30
0.0
 11
83.6429295100000161
 21
-9.5
 31
0.0
  0
LINE
  5
431F
  8
250
  6
CONTINUOUS
 10
73.0
 20
9.5
 30
0.0
 11
83.6429295100000161
 21
9.5
 31
0.0
  0
LINE
  5
4320
  8
250
  6
CONTINUOUS
 10
82.6429295099999877
 20
-7.269999999999996
 30
0.0
 11
82.6429295099999877
 21
7.269999999999996
 31
0.0
  0
LINE
  5
4321
  8
250
  6
CONTINUOUS
 10
83.0145961766666289
 20
-7.2700000000000014
 30
0.0
 11
82.6429295099999877
 21
-9.5
 31
0.0
  0
LINE
  5
4322
  8
250
  6
CONTINUOUS
 10
82.271262843333318
 20
-7.2700000000000014
 30
0.0
 11
82.6429295099999877
 21
-9.5
 31
0.0
  0
LINE
  5
4323
  8
250
  6
CONTINUOUS
 10
82.6429295099999877
 20
-9.5
 30
0.0
 11
82.6429295099999877
 21
-7.2700000000000014
 31
0.0
  0
LINE
  5
4324
  8
250
  6
CONTINUOUS
 10
82.271262843333318
 20
7.2700000000000014
 30
0.0
 11
82.6429295099999877
 21
9.5
 31
0.0
  0
LINE
  5
4325
  8
250
  6
CONTINUOUS
 10
83.0145961766666289
 20
7.2700000000000014
 30
0.0
 11
82.6429295099999877
 21
9.5
 31
0.0
  0
LINE
  5
4326
  8
250
  6
CONTINUOUS
 10
82.6429295099999877
 20
9.5
 30
0.0
 11
82.6429295099999877
 21
7.2700000000000014
 31
0.0
  0
TEXT
  5
4327
  8
250
  6
CONTINUOUS
 10
81.6429295099999734
 20
-4.0002728466666628
 30
0.0
 40
2.799999999999998
  1
\U+2205
 50
90.0
1001
ACAD
1000
MTEXTBEGIN
1070
    73
1070
     1
1070
    44
1040
1.0
1070
    74
1070
     0
1000
MTEXTEND
  0
TEXT
  5
4328
  8
250
  6
CONTINUOUS
 10
81.6429295099999734
 20
-1.4669395133333321
 30
0.0
 40
2.799999999999998
  1
19
 50
90.0
1001
ACAD
1000
MTEXTBEGIN
1070
    73
1070
     1
1070
    44
1040
1.0
1070
    74
1070
     0
1000
MTEXTEND
  0
LINE
  5
4329
  8
250
  6
CONTINUOUS
 10
69.0276208648922562
 20
11.2454033172549401
 30
0.0
 11
67.5907480900000053
 21
9.5
 31
0.0
  0
LINE
  5
432A
  8
250
  6
CONTINUOUS
 10
68.3838753147072822
 20
11.6170699838548597
 30
0.0
 11
67.5907480900000053
 21
9.5
 31
0.0
  0
LINE
  5
432B
  8
250
  6
CONTINUOUS
 10
67.5907480900000053
 20
9.5
 30
0.0
 11
68.7057480897997692
 21
11.4312366505549008
 31
0.0
  0
POLYLINE
  5
432C
  8
250
  6
CONTINUOUS
 66
     1
 10
0.0
 20
0.0
 30
0.0
1001
ACAD
1000
DSTYLE
1002
{
1070
     6
1000
OPEN
1002
}
  0
VERTEX
  5
4543
  8
250
  6
CONTINUOUS
 10
68.7057480897997692
 20
11.4312366505549008
 30
0.0
  0
VERTEX
  5
4544
  8
250
  6
CONTINUOUS
 10
74.6332350100000212
 20
21.6979451599999997
 30
0.0
  0
SEQEND
  5
4545
  8
250
  6
CONTINUOUS
  0
TEXT
  5
432D
  8
250
  6
CONTINUOUS
 10
77.0332350099999843
 20
22.6979451599999997
 30
0.0
 40
2.799999999999998
  1
CK1
  7
YOKO
1001
ITEMNAME
1000
LNSP3
1001
ACAD
1000
MTEXTBEGIN
1070
    73
1070
     1
1070
    44
1040
1.0
1070
    74
1070
     0
1000
MTEXTEND
  0
LINE
  5
432E
  8
250
  6
CONTINUOUS
 10
0.0
 20
25.5
 30
0.0
 11
0.0
 21
36.0
 31
0.0
  0
LINE
  5
432F
  8
250
  6
CONTINUOUS
 10
72.5
 20
10.0
 30
0.0
 11
72.5
 21
36.0
 31
0.0
  0
LINE
  5
4330
  8
250
  6
CONTINUOUS
 10
2.2299999999999991
 20
35.0
 30
0.0
 11
70.269999999999996
 21
35.0
 31
0.0
  0
LINE
  5
4331
  8
250
  6
CONTINUOUS
 10
2.2299999999999991
 20
34.6283333333333303
 30
0.0
 11
0.0
 21
35.0
 31
0.0
  0
LINE
  5
4332
  8
250
  6
CONTINUOUS
 10
2.2299999999999991
 20
35.3716666666666697
 30
0.0
 11
0.0
 21
35.0
 31
0.0
  0
LINE
  5
4333
  8
250
  6
CONTINUOUS
 10
0.0
 20
35.0
 30
0.0
 11
2.2299999999999991
 21
35.0
 31
0.0
  0
LINE
  5
4334
  8
250
  6
CONTINUOUS
 10
70.269999999999996
 20
35.3716666666666697
 30
0.0
 11
72.5
 21
35.0
 31
0.0
  0
LINE
  5
4335
  8
250
  6
CONTINUOUS
 10
70.269999999999996
 20
34.6283333333333303
 30
0.0
 11
72.5
 21
35.0
 31
0.0
  0
LINE
  5
4336
  8
250
  6
CONTINUOUS
 10
72.5
 20
35.0
 30
0.0
 11
70.269999999999996
 21
35.0
 31
0.0
  0
TEXT
  5
4337
  8
250
  6
CONTINUOUS
 10
31.5833333333333393
 20
36.0
 30
0.0
 40
2.799999999999998
  1
72.5
1001
ACAD
1000
MTEXTBEGIN
1070
    73
1070
     1
1070
    44
1040
1.0
1070
    74
1070
     0
1000
MTEXTEND
  0
POLYLINE
  5
4338
  8
241
  6
CONTINUOUS
 66
     1
 10
0.0
 20
0.0
 30
0.0
 70
     1
  0
VERTEX
  5
4546
  8
241
  6
CONTINUOUS
 10
66.5
 20
-0.5773502700000001
 30
0.0
  0
VERTEX
  5
4547
  8
241
  6
CONTINUOUS
 10
67.5
 20
-1.1547005400000001
 30
0.0
  0
VERTEX
  5
4548
  8
241
  6
CONTINUOUS
 10
68.5
 20
-0.5773502700000001
 30
0.0
  0
VERTEX
  5
4549
  8
241
  6
CONTINUOUS
 10
68.5
 20
0.5773502700000001
 30
0.0
  0
VERTEX
  5
454A
  8
241
  6
CONTINUOUS
 10
67.5
 20
1.1547005400000001
 30
0.0
  0
VERTEX
  5
454B
  8
241
  6
CONTINUOUS
 10
66.5
 20
0.5773502700000001
 30
0.0
  0
SEQEND
  5
454C
  8
241
  6
CONTINUOUS
  0
CIRCLE
  5
4339
  8
242
  6
CONTINUOUS
 10
67.5
 20
0.0
 30
0.0
 40
1.75
  0
CIRCLE
  5
433A
  8
241
  6
CONTINUOUS
 10
67.5
 20
0.0
 30
0.0
 40
2.1000000000000001
  0
LINE
  5
433B
  8
245
  6
CENTER2
 10
67.5
 20
3.1000000000000001
 30
0.0
 11
67.5
 21
-3.1000000000000001
 31
0.0
  0
VIEWPORT
  5
22
 67
     1
  8
0
 10
261.517699115044195
 20
148.5
 30
0.0
 40
523.0353982300885036
 41
297.0
 68
     1
 69
     1
1001
ACAD
1000
MVIEW
1002
{
1070
    16
1010
0.0
1020
0.0
1030
0.0
1010
0.0
1020
0.0
1030
1.0
1040
0.0
1040
297.0
1040
261.517699115044195
1040
148.5
1040
50.0
1040
0.0
1040
0.0
1070
     0
1070
   100
1070
     1
1070
     1
1070
     0
1070
     0
1070
     0
1070
     0
1040
0.0
1040
0.0
1040
0.0
1040
1.0
1040
1.0
1040
10.0
1040
10.0
1070
     0
1002
{
1002
}
1002
}
1001
GENIUS_GENODEF_13
1002
{
1000
HIER
1070
     0
1002
}
1002
{
1000
MANEDIT
1070
     0
1002
}
1002
{
1000
NOSEL
1070
     0
1002
}
1002
{
1000
BEHIND
1070
     0
1002
}
1002
{
1000
OTHER
1070
     0
1002
}
1002
{
1000
REACTOR
1002
}
1001
GENIUS_GENOBJ-N-SDF_13
1002
{
1000
OWNER
1000
GEN
1002
}
1001
GENIUS_GENSCREG_15
1000
PF
1040
1.0
1000
DF
1040
1.0
1000
MIN
1011
0.0
1021
0.0
1031
0.0
1021
0.0
1031
0.0
1000
MAX
1011
523.0353982300885036
1021
0.0
1031
0.0
1021
297.0
1031
0.0
1000
FLAGS
1070
     4
  0
ENDSEC
  0
EOF
