  0
SECTION
  2
HEADER
  9
$ACADVER
  1
AC1009
  9
$INSBASE
 10
0.0
 20
0.0
 30
0.0
  9
$EXTMIN
 10
-39.9437449985927628
 20
-22.7509373006398583
 30
0.0
  9
$EXTMAX
 10
97.3898693799999933
 20
47.0
 30
0.0
  9
$LIMMIN
 10
0.0
 20
0.0
  9
$LIMMAX
 10
297.0
 20
210.0
  9
$ORTHOMODE
 70
     1
  9
$REGENMODE
 70
     1
  9
$FILLMODE
 70
     1
  9
$QTEXTMODE
 70
     0
  9
$MIRRTEXT
 70
     1
  9
$DRAGMODE
 70
     2
  9
$LTSCALE
 40
10.0
  9
$OSMODE
 70
   807
  9
$ATTMODE
 70
     1
  9
$TEXTSIZE
 40
3.0
  9
$TRACEWID
 40
1.0
  9
$TEXTSTYLE
  7
YOKO
  9
$CLAYER
  8
240
  9
$CELTYPE
  6
BYLAYER
  9
$CECOLOR
 62
   256
  9
$DIMSCALE
 40
1.0
  9
$DIMASZ
 40
2.2299999999999991
  9
$DIMEXO
 40
0.5
  9
$DIMDLI
 40
7.0
  9
$DIMRND
 40
0.0
  9
$DIMDLE
 40
0.0
  9
$DIMEXE
 40
1.0
  9
$DIMTP
 40
0.0
  9
$DIMTM
 40
0.01
  9
$DIMTXT
 40
2.799999999999998
  9
$DIMCEN
 40
0.0
  9
$DIMTSZ
 40
0.0
  9
$DIMTOL
 70
     0
  9
$DIMLIM
 70
     0
  9
$DIMTIH
 70
     0
  9
$DIMTOH
 70
     0
  9
$DIMSE1
 70
     0
  9
$DIMSE2
 70
     0
  9
$DIMTAD
 70
     3
  9
$DIMZIN
 70
     9
  9
$DIMBLK
  1
OPEN
  9
$DIMASO
 70
     1
  9
$DIMSHO
 70
     1
  9
$DIMPOST
  1

  9
$DIMAPOST
  1

  9
$DIMALT
 70
     0
  9
$DIMALTD
 70
     2
  9
$DIMALTF
 40
25.3999999999999986
  9
$DIMLFAC
 40
1.0
  9
$DIMTOFL
 70
     1
  9
$DIMTVP
 40
0.0
  9
$DIMTIX
 70
     1
  9
$DIMSOXD
 70
     0
  9
$DIMSAH
 70
     0
  9
$DIMBLK1
  1

  9
$DIMBLK2
  1

  9
$DIMSTYLE
  2
BIGT
  9
$DIMCLRD
 70
   256
  9
$DIMCLRE
 70
   256
  9
$DIMCLRT
 70
    40
  9
$DIMTFAC
 40
1.0
  9
$DIMGAP
 40
1.0
  9
$LUNITS
 70
     2
  9
$LUPREC
 70
     6
  9
$SKETCHINC
 40
1.0
  9
$FILLETRAD
 40
0.0
  9
$AUNITS
 70
     0
  9
$AUPREC
 70
     6
  9
$MENU
  1
.
  9
$ELEVATION
 40
0.0
  9
$PELEVATION
 40
0.0
  9
$THICKNESS
 40
0.0
  9
$LIMCHECK
 70
     0
  9
$BLIPMODE
 70
     0
  9
$CHAMFERA
 40
0.2
  9
$CHAMFERB
 40
0.2
  9
$SKPOLY
 70
     0
  9
$TDCREATE
 40
2457732.4221990741789341
  9
$TDUPDATE
 40
2458291.7071874998509884
  9
$TDINDWG
 40
0.0079467708
  9
$TDUSRTIMER
 40
0.0079467361
  9
$USRTIMER
 70
     1
  9
$ANGBASE
 50
0.0
  9
$ANGDIR
 70
     0
  9
$PDMODE
 70
     1
  9
$PDSIZE
 40
0.0
  9
$PLINEWID
 40
0.0
  9
$COORDS
 70
     1
  9
$SPLFRAME
 70
     0
  9
$SPLINETYPE
 70
     6
  9
$SPLINESEGS
 70
     4
  9
$ATTDIA
 70
     1
  9
$ATTREQ
 70
     1
  9
$HANDLING
 70
     1
  9
$HANDSEED
  5
46A5
  9
$SURFTAB1
 70
     6
  9
$SURFTAB2
 70
     6
  9
$SURFTYPE
 70
     6
  9
$SURFU
 70
     6
  9
$SURFV
 70
     6
  9
$UCSNAME
  2

  9
$UCSORG
 10
0.0
 20
0.0
 30
0.0
  9
$UCSXDIR
 10
1.0
 20
0.0
 30
0.0
  9
$UCSYDIR
 10
0.0
 20
1.0
 30
0.0
  9
$PUCSNAME
  2

  9
$PUCSORG
 10
0.0
 20
0.0
 30
0.0
  9
$PUCSXDIR
 10
1.0
 20
0.0
 30
0.0
  9
$PUCSYDIR
 10
0.0
 20
1.0
 30
0.0
  9
$USERI1
 70
     1
  9
$USERI2
 70
     0
  9
$USERI3
 70
     0
  9
$USERI4
 70
     0
  9
$USERI5
 70
     0
  9
$USERR1
 40
0.0
  9
$USERR2
 40
0.0
  9
$USERR3
 40
0.0
  9
$USERR4
 40
0.0
  9
$USERR5
 40
0.0
  9
$WORLDVIEW
 70
     1
  9
$SHADEDGE
 70
     3
  9
$SHADEDIF
 70
    70
  9
$TILEMODE
 70
     1
  9
$MAXACTVP
 70
    16
  9
$PLIMCHECK
 70
     0
  9
$PEXTMIN
 10
1.0000000000000000E+20
 20
1.0000000000000000E+20
 30
1.0000000000000000E+20
  9
$PEXTMAX
 10
-1.0000000000000000E+20
 20
-1.0000000000000000E+20
 30
-1.0000000000000000E+20
  9
$PLIMMIN
 10
0.0
 20
0.0
  9
$PLIMMAX
 10
420.0
 20
297.0
  9
$UNITMODE
 70
     0
  9
$VISRETAIN
 70
     1
  9
$PLINEGEN
 70
     0
  9
$PSLTSCALE
 70
     1
  0
ENDSEC
  0
SECTION
  2
TABLES
  0
TABLE
  2
VPORT
 70
     1
  0
VPORT
  2
*ACTIVE
 70
     0
 10
0.0
 20
0.0
 11
1.0
 21
1.0
 12
55.0374469480490234
 22
7.1423173034184506
 13
0.0
 23
0.0
 14
7.0
 24
7.0
 15
7.0
 25
7.0
 16
0.0
 26
0.0
 36
1.0
 17
0.0
 27
0.0
 37
0.0
 40
145.877658299569589
 41
1.887387387387387
 42
50.0
 43
0.0
 44
0.0
 50
0.0
 51
0.0
 71
     0
 72
  2000
 73
     1
 74
     0
 75
     0
 76
     1
 77
     0
 78
     0
  0
ENDTAB
  0
TABLE
  2
LTYPE
 70
    22
  0
LTYPE
  2
CONTINUOUS
 70
     0
  3
Solid line
 72
    65
 73
     0
 40
0.0
  0
LTYPE
  2
CENTER2
 70
     0
  3
___ _ ___ _ ___ _ ___ _ ___ _ ___ _ ___ _ ___ _
 72
    65
 73
     4
 40
1.125
 49
0.75
 49
-0.125
 49
0.125
 49
-0.125
  0
LTYPE
  2
HIDDEN2
 70
     0
  3
_ _ _ _ _ _ _ _ _ _ _ _ _ _ _ _ _ _ _ _ _ _ _ _
 72
    65
 73
     2
 40
0.1875
 49
0.125
 49
-0.0625
  0
LTYPE
  2
PHANTOM2
 70
     0
  3
___ _ _ ___ _ _ ___ _ _ ___ _ _ ___ _ _ ___ _ _
 72
    65
 73
     6
 40
1.25
 49
0.625
 49
-0.125
 49
0.125
 49
-0.125
 49
0.125
 49
-0.125
  0
LTYPE
  2
AMCONSTR
 70
     0
  3
_______________________
 72
    65
 73
     2
 40
9999.0
 49
9999.0
 49
0.0
  0
LTYPE
  2
HIDDEN
 70
     0
  3
Hidden __ __ __ __ __ __ __ __ __ __ __ __ __ _
 72
    65
 73
     2
 40
0.375
 49
0.25
 49
-0.125
  0
LTYPE
  2
CENTER
 70
     0
  3
Center ____ _ ____ _ ____ _ ____ _ ____ _ ____
 72
    65
 73
     4
 40
2.0
 49
1.25
 49
-0.25
 49
0.25
 49
-0.25
  0
LTYPE
  2
AMZIGZAG2
 70
     0
  3
/\/-/\/-/\/-/\/-/\/-/\/
 72
    65
 73
     2
 40
0.4401
 49
0.0001
 49
-0.4400000000000001
  0
LTYPE
  2
ACANSTGB
 70
     0
  3
__ . . __ . .
 72
    65
 73
     6
 40
0.35433070866
 49
0.15748031496
 49
-0.03937007874
 49
0.03937007874
 49
-0.03937007874
 49
0.03937007874
 49
-0.03937007874
  0
LTYPE
  2
ACANSTGL
 70
     0
  3
_ _ _ _ _
 72
    65
 73
     2
 40
0.11811023622
 49
0.07874015748
 49
-0.03937007874
  0
ENDTAB
  0
TABLE
  2
LAYER
 70
     9
  0
LAYER
  2
0
 70
     0
 62
     7
  6
CONTINUOUS
  0
LAYER
  2
240
 70
     0
 62
     4
  6
CONTINUOUS
  0
LAYER
  2
DEFPOINTS
 70
     0
 62
     7
  6
CONTINUOUS
  0
LAYER
  2
245
 70
     0
 62
     2
  6
CENTER2
  0
LAYER
  2
241
 70
     0
 62
   211
  6
CONTINUOUS
  0
LAYER
  2
242
 70
     0
 62
     3
  6
CONTINUOUS
  0
LAYER
  2
243
 70
     0
 62
   211
  6
HIDDEN2
  0
LAYER
  2
247
 70
     0
 62
    60
  6
CONTINUOUS
  0
LAYER
  2
250
 70
     0
 62
     3
  6
CONTINUOUS
  0
ENDTAB
  0
TABLE
  2
STYLE
 70
    10
  0
STYLE
  2
STANDARD
 70
     0
 40
0.0
 41
1.0
 50
0.0
 71
     0
 42
3.0
  3
romans.shx
  4
extfont.shx
  0
STYLE
  2
YOKO
 70
     0
 40
0.0
 41
1.0
 50
0.0
 71
     0
 42
3.0
  3
romans.shx
  4
extfont.shx
  0
STYLE
  2

 70
     1
 40
0.0
 41
1.0
 50
0.0
 71
     0
 42
3.0
  3
genltshp.shx
  4

  0
STYLE
  2
ACANSGDT
 70
     0
 40
0.0
 41
1.0
 50
0.0
 71
     0
 42
3.0
  3
amgdt.shx
  4

  0
ENDTAB
  0
TABLE
  2
VIEW
 70
     0
  0
ENDTAB
  0
TABLE
  2
UCS
 70
     0
  0
ENDTAB
  0
TABLE
  2
APPID
 70
    39
  0
APPID
  2
ACAD
 70
     0
  0
APPID
  2
ACADANNOTATIVE
 70
     0
  0
APPID
  2
GLOBAL
 70
     0
  0
APPID
  2
DETAIL
 70
     0
  0
APPID
  2
GRPNAME
 70
     0
  0
APPID
  2
GPARA
 70
     0
  0
APPID
  2
MCAD_NO_VIS
 70
     0
  0
APPID
  2
ACAD_TEMP_GRAPHIC
 70
     0
  0
APPID
  2
ACATTRIBSERVICES
 70
     0
  0
APPID
  2
GENIUS_GENSCREG_15
 70
     0
  0
APPID
  2
GENIUS_GENODEF_13
 70
     0
  0
APPID
  2
GENIUS_GENOBJ-N-SDF_13
 70
     0
  0
APPID
  2
GENIUS_GENREC_14
 70
     0
  0
APPID
  2
GENIUS_GENOBJ-N-REC_13
 70
     0
  0
APPID
  2
GENIUS_GENDIMSH_14
 70
     0
  0
APPID
  2
GENIUS_GENOBJ-N-DIM_13
 70
     0
  0
APPID
  2
GENIUS_GENDIM_13
 70
     0
  0
APPID
  2
GENIUS_GENDTOL_13
 70
     0
  0
APPID
  2
GENIUS_GENOLIS_13
 70
     0
  0
APPID
  2
GENIUS_GENOENT_13
 70
     0
  0
APPID
  2
GENIUS_GENOBJ-F-FEM_13
 70
     0
  0
APPID
  2
GENIUS_GENOREF_13
 70
     0
  0
APPID
  2
GENIUS_GEFFEM_13
 70
     0
  0
APPID
  2
GENIUS_GEFFEMP_13
 70
     0
  0
APPID
  2
AD_DRAW
 70
     0
  0
APPID
  2
DESIGNERASSEMBLIES
 70
     0
  0
APPID
  2
ACADM_DIM_EDIT
 70
     0
  0
APPID
  2
AMDT_DM_ADJ
 70
     0
  0
APPID
  2
ITEMNAME
 70
     0
  0
APPID
  2
GENIUS_GENOBJ-N-FIL_13
 70
     0
  0
APPID
  2
GENIUS_GENFIL_13
 70
     0
  0
APPID
  2
GENIUS_GENOBJ-N-CHA_13
 70
     0
  0
APPID
  2
ACAD_NAV_VCDISPLAY
 70
     0
  0
APPID
  2
ACAD_PSEXT
 70
     0
  0
APPID
  2
ACAECLAYERSTANDARD
 70
     0
  0
APPID
  2
ACAD_MLEADERVER
 70
     0
  0
APPID
  2
ACAD_DSTYLE_DIMJAG
 70
     0
  0
APPID
  2
ACAD_DSTYLE_DIMBREAK
 70
     0
  0
APPID
  2
ACAD_EXEMPT_FROM_CAD_STANDARDS
 70
     0
  0
ENDTAB
  0
TABLE
  2
DIMSTYLE
 70
    31
  0
DIMSTYLE
  2
STANDARD
 70
     0
  3

  4

  5

  6

  7

 40
1.0
 41
0.18
 42
0.0625
 43
0.38
 44
0.18
 45
0.0
 46
0.0
 47
0.0
 48
0.0
140
0.18
141
0.09
142
0.0
143
25.3999999999999986
144
1.0
145
0.0
146
1.0
147
0.09
 71
     0
 72
     0
 73
     1
 74
     1
 75
     0
 76
     0
 77
     0
 78
     0
170
     0
171
     2
172
     0
173
     0
174
     0
175
     0
176
     0
177
     0
178
     0
  0
DIMSTYLE
  2
BIGT
 70
     0
  3

  4

  5

  6

  7

 40
1.0
 41
2.2299999999999991
 42
0.5
 43
7.0
 44
1.0
 45
0.0
 46
0.0
 47
0.0
 48
0.01
140
2.799999999999998
141
0.0
142
0.0
143
25.3999999999999986
144
1.0
145
0.0
146
1.0
147
1.0
 71
     0
 72
     0
 73
     0
 74
     0
 75
     0
 76
     0
 77
     3
 78
     9
170
     0
171
     2
172
     1
173
     0
174
     1
175
     0
176
   256
177
   256
178
    40
  0
DIMSTYLE
  2
AM_ANSI
 70
     0
  3

  4
mm
  5

  6

  7

 40
1.0
 41
0.12
 42
0.05
 43
0.5
 44
0.1
 45
0.0
 46
0.0
 47
0.1
 48
0.1
140
0.12
141
0.0
142
0.0
143
25.3999999999999986
144
1.0
145
0.0
146
0.71
147
0.06
 71
     0
 72
     0
 73
     1
 74
     1
 75
     0
 76
     0
 77
     0
 78
     7
170
     0
171
     2
172
     0
173
     0
174
     0
175
     0
176
   256
177
   256
178
     2
  0
DIMSTYLE
  2
AM_ANSI$3
 70
     0
  3

  4
mm
  5

  6

  7

 40
1.0
 41
0.12
 42
0.05
 43
0.5
 44
0.1
 45
0.0
 46
0.0
 47
0.1
 48
0.1
140
0.12
141
0.0
142
0.0
143
25.3999999999999986
144
1.0
145
0.0
146
0.71
147
0.06
 71
     0
 72
     0
 73
     1
 74
     1
 75
     0
 76
     0
 77
     0
 78
     7
170
     0
171
     2
172
     0
173
     0
174
     0
175
     0
176
   256
177
   256
178
     2
  0
DIMSTYLE
  2
AM_ANSI$4
 70
     0
  3

  4
mm
  5

  6

  7

 40
1.0
 41
0.12
 42
0.05
 43
0.5
 44
0.1
 45
0.0
 46
0.0
 47
0.1
 48
0.1
140
0.12
141
0.0
142
0.0
143
25.3999999999999986
144
1.0
145
0.0
146
0.71
147
0.06
 71
     0
 72
     0
 73
     1
 74
     1
 75
     0
 76
     0
 77
     0
 78
     7
170
     0
171
     2
172
     0
173
     0
174
     0
175
     0
176
   256
177
   256
178
     2
  0
DIMSTYLE
  2
AM_ANSI$7
 70
     0
  3

  4
mm
  5

  6

  7

 40
1.0
 41
0.12
 42
0.05
 43
0.5
 44
0.1
 45
0.0
 46
0.0
 47
0.1
 48
0.1
140
0.12
141
0.0
142
0.0
143
25.3999999999999986
144
1.0
145
0.0
146
0.71
147
0.06
 71
     0
 72
     0
 73
     1
 74
     1
 75
     0
 76
     0
 77
     0
 78
     7
170
     0
171
     2
172
     0
173
     0
174
     0
175
     0
176
   256
177
   256
178
     2
  0
DIMSTYLE
  2
AM_ANSI$SF
 70
     0
  3

  4
mm
  5

  6

  7

 40
1.0
 41
0.12
 42
0.05
 43
0.5
 44
0.1
 45
0.0
 46
0.0
 47
0.1
 48
0.1
140
0.12
141
0.0
142
0.0
143
25.3999999999999986
144
1.0
145
0.0
146
0.71
147
0.06
 71
     0
 72
     0
 73
     1
 74
     1
 75
     1
 76
     1
 77
     0
 78
     7
170
     0
171
     2
172
     0
173
     0
174
     0
175
     0
176
   256
177
   256
178
     2
  0
DIMSTYLE
  2
AM_ANSI$SH
 70
     0
  3

  4
mm
  5

  6
GENAXEH
  7

 40
1.0
 41
0.12
 42
0.05
 43
0.5
 44
0.1
 45
0.0
 46
0.0
 47
0.1
 48
0.1
140
0.12
141
0.0
142
0.0
143
25.3999999999999986
144
1.0
145
0.0
146
0.71
147
0.06
 71
     0
 72
     0
 73
     1
 74
     1
 75
     1
 76
     1
 77
     0
 78
     7
170
     0
171
     2
172
     0
173
     1
174
     0
175
     0
176
   256
177
   256
178
     2
  0
ENDTAB
  0
ENDSEC
  0
SECTION
  2
BLOCKS
  0
BLOCK
  8
0
  2
$MODEL_SPACE
 70
     0
 10
0.0
 20
0.0
 30
0.0
  3
$MODEL_SPACE
  1

  0
ENDBLK
  5
4562
  8
0
  0
BLOCK
 67
     1
  8
0
  2
$PAPER_SPACE
 70
     0
 10
0.0
 20
0.0
 30
0.0
  3
$PAPER_SPACE
  1

  0
ENDBLK
  5
455E
 67
     1
  8
0
  0
BLOCK
  8
0
  2
_OPEN
 70
     0
 10
0.0
 20
0.0
 30
0.0
  3
_OPEN
  1

  0
LINE
  5
43EB
  8
0
  6
BYBLOCK
 62
     0
 10
-1.0
 20
0.1666666666666666
 30
0.0
 11
0.0
 21
0.0
 31
0.0
  0
LINE
  5
43EC
  8
0
  6
BYBLOCK
 62
     0
 10
-1.0
 20
-0.1666666666666666
 30
0.0
 11
0.0
 21
0.0
 31
0.0
  0
LINE
  5
43ED
  8
0
  6
BYBLOCK
 62
     0
 10
0.0
 20
0.0
 30
0.0
 11
-1.0
 21
0.0
 31
0.0
  0
ENDBLK
  5
43EE
  8
0
  0
BLOCK
  8
0
  2
GENAXEH
 70
     0
 10
0.0
 20
0.0
 30
0.0
  3
GENAXEH
  1

  0
LINE
  5
4426
  8
0
 10
-1.0
 20
0.0
 30
0.0
 11
1.0
 21
0.0
 31
0.0
  0
ENDBLK
  5
4427
  8
0
  0
BLOCK
  8
0
  2
*U5
 70
     1
 10
0.0
 20
0.0
 30
0.0
  3
*U5
  1

  0
TEXT
  5
44E8
  8
250
 10
86.7232027199999607
 20
32.0411462300000096
 30
0.0
 40
2.799999999999998
  1
CK3
  7
YOKO
  0
ENDBLK
  5
44EA
  8
0
  0
BLOCK
  8
0
  2
_ACMFILLEDHALF
 70
     0
 10
0.0
 20
0.0
 30
0.0
  3
_ACMFILLEDHALF
  1

  0
TRACE
  5
4625
  8
240
 62
     0
 10
-0.8
 20
0.0
 30
0.0
 11
-1.0
 21
0.166666666
 31
0.0
 12
0.0
 22
0.0
 32
0.0
 13
0.0
 23
0.0
 33
0.0
  0
LINE
  5
4626
  8
240
 62
     0
 10
-1.0
 20
0.0
 30
0.0
 11
-0.8
 21
0.0
 31
0.0
  0
ENDBLK
  5
4624
  8
0
  0
ENDSEC
  0
SECTION
  2
ENTITIES
  0
LINE
  5
424D
  8
245
  6
CENTER2
 10
-21.0
 20
0.0
 30
0.0
 11
80.8827644537376642
 21
0.0
 31
0.0
  0
LINE
  5
424E
  8
241
  6
CONTINUOUS
 10
15.0
 20
12.0
 30
0.0
 11
8.0
 21
12.0
 31
0.0
  0
LINE
  5
424F
  8
243
  6
HIDDEN2
 10
20.0
 20
-17.0
 30
0.0
 11
8.0
 21
-17.0
 31
0.0
  0
LINE
  5
4250
  8
240
  6
CONTINUOUS
 10
0.0
 20
-20.0
 30
0.0
 11
13.9792740599999608
 21
-20.0
 31
0.0
  0
LINE
  5
4251
  8
243
  6
HIDDEN2
 10
20.0
 20
17.0
 30
0.0
 11
8.0
 21
17.0
 31
0.0
  0
LINE
  5
4252
  8
240
  6
CONTINUOUS
 10
0.0
 20
20.0
 30
0.0
 11
13.9792740599999608
 21
20.0
 31
0.0
  0
ARC
  5
4253
  8
241
  6
CONTINUOUS
 10
12.4721359499999895
 20
11.5
 30
0.0
 40
4.5
 50
90.0
 51
173.6206297900019138
  0
LINE
  5
4254
  8
240
  6
CONTINUOUS
 10
0.0
 20
-15.1999999999999904
 30
0.0
 11
-20.0
 21
-14.1999999999999904
 31
0.0
  0
LINE
  5
4255
  8
240
  6
CONTINUOUS
 10
-20.0
 20
14.1999999999999904
 30
0.0
 11
-20.0
 21
-14.1999999999999904
 31
0.0
  0
LINE
  5
4256
  8
241
  6
CONTINUOUS
 10
0.0
 20
15.1999999999999904
 30
0.0
 11
0.0000000000000284
 21
-15.2000000000000401
 31
0.0
  0
LINE
  5
4257
  8
240
  6
CONTINUOUS
 10
0.0
 20
-15.1999999999999904
 30
0.0
 11
0.0
 21
-20.0
 31
0.0
  0
LINE
  5
4258
  8
243
  6
HIDDEN2
 10
8.0
 20
-20.0
 30
0.0
 11
8.0
 21
-17.0
 31
0.0
  0
LINE
  5
4259
  8
240
  6
CONTINUOUS
 10
0.0
 20
15.1999999999999904
 30
0.0
 11
-20.0
 21
14.1999999999999904
 31
0.0
  0
LINE
  5
425A
  8
243
  6
HIDDEN2
 10
-11.9973502699999699
 20
10.5
 30
0.0
 11
-20.0
 21
10.5
 31
0.0
  0
LINE
  5
425B
  8
243
  6
HIDDEN2
 10
-16.5
 20
14.375
 30
0.0
 11
-16.5
 21
10.5
 31
0.0
  0
ARC
  5
425C
  8
243
  6
HIDDEN2
 10
-3.932975660000007
 20
7.75
 30
0.0
 40
4.9999999992728812
 50
39.0501225300015093
 51
89.9999999899980594
  0
LINE
  5
425D
  8
243
  6
HIDDEN2
 10
-8.3000000000000114
 20
12.75
 30
0.0
 11
-8.3000000000000114
 21
14.7849999999999593
 31
0.0
1001
GRPNAME
1000
PASTMD1U
  0
LINE
  5
425E
  8
245
  6
CENTER2
 10
-6.0
 20
11.9772432159604705
 30
0.0
 11
-6.0
 21
15.4202969942858807
 31
0.0
1001
GRPNAME
1000
PASTMD1U
  0
LINE
  5
425F
  8
243
  6
HIDDEN2
 10
-3.6999999999999882
 20
12.75
 30
0.0
 11
-3.6999999999999882
 21
15.0149999999999793
 31
0.0
1001
GRPNAME
1000
PASTMD1U
  0
LINE
  5
4260
  8
243
  6
HIDDEN2
 10
-3.932975660000007
 20
12.75
 30
0.0
 11
-10.6983121600000004
 21
12.75
 31
0.0
  0
LINE
  5
4261
  8
243
  6
HIDDEN2
 10
-11.9973502699999699
 20
10.5
 30
0.0
 11
-10.6983121600000004
 21
12.75
 31
0.0
  0
LINE
  5
4262
  8
240
  6
CONTINUOUS
 10
0.0
 20
15.1999999999999904
 30
0.0
 11
0.0
 21
20.0
 31
0.0
  0
LINE
  5
4263
  8
243
  6
HIDDEN2
 10
8.0
 20
17.0
 30
0.0
 11
8.0
 21
20.0
 31
0.0
  0
LINE
  5
4264
  8
241
  6
CONTINUOUS
 10
20.0
 20
-16.8000000000000114
 30
0.0
 11
20.0
 21
16.8000000000000114
 31
0.0
  0
LINE
  5
4265
  8
241
  6
CONTINUOUS
 10
17.0
 20
-17.3999999999999702
 30
0.0
 11
17.0
 21
17.3999999999999702
 31
0.0
  0
LINE
  5
4266
  8
241
  6
CONTINUOUS
 10
15.0
 20
-17.3999999999999702
 30
0.0
 11
15.0
 21
17.3999999999999702
 31
0.0
  0
LINE
  5
4267
  8
241
  6
CONTINUOUS
 10
18.0207259400000304
 20
12.0
 30
0.0
 11
18.0207259400000304
 21
-20.0
 31
0.0
  0
LINE
  5
4268
  8
241
  6
CONTINUOUS
 10
13.9792740599999608
 20
12.0
 30
0.0
 11
13.9792740599999608
 21
-20.0
 31
0.0
  0
LINE
  5
4269
  8
240
  6
CONTINUOUS
 10
20.0
 20
-16.8000000000000114
 30
0.0
 11
34.9999999999917222
 21
-16.8000000000000114
 31
0.0
1001
GRPNAME
1000
PASTMD1U
  0
LINE
  5
426A
  8
240
  6
CONTINUOUS
 10
15.0
 20
-17.3999999999999702
 30
0.0
 11
15.0
 21
-18.2320508100000183
 31
0.0
  0
LINE
  5
426B
  8
240
  6
CONTINUOUS
 10
17.0
 20
-18.2320508100000183
 30
0.0
 11
17.0
 21
-17.3999999999999702
 31
0.0
  0
LINE
  5
426C
  8
240
  6
CONTINUOUS
 10
20.0
 20
-16.8000000000000114
 30
0.0
 11
20.0
 21
-20.0
 31
0.0
  0
LINE
  5
426D
  8
240
  6
CONTINUOUS
 10
15.0
 20
-18.2320508100000183
 30
0.0
 11
13.9792740599999608
 21
-20.0
 31
0.0
  0
LINE
  5
426E
  8
240
  6
CONTINUOUS
 10
17.0
 20
-18.2320508100000183
 30
0.0
 11
18.0207259400000304
 21
-20.0
 31
0.0
  0
LINE
  5
426F
  8
240
  6
CONTINUOUS
 10
18.0207259400000304
 20
-20.0
 30
0.0
 11
20.0
 21
-20.0
 31
0.0
  0
LINE
  5
4270
  8
240
  6
CONTINUOUS
 10
15.0
 20
-17.3999999999999702
 30
0.0
 11
17.0
 21
-17.3999999999999702
 31
0.0
  0
LINE
  5
4271
  8
240
  6
CONTINUOUS
 10
20.0
 20
16.8000000000000114
 30
0.0
 11
34.9999999999917222
 21
16.8000000000000114
 31
0.0
1001
GRPNAME
1000
PASTMD1U
  0
LINE
  5
4272
  8
241
  6
CONTINUOUS
 10
18.0207259400000304
 20
16.0
 30
0.0
 11
17.0
 21
13.0
 31
0.0
  0
LINE
  5
4273
  8
241
  6
CONTINUOUS
 10
15.0
 20
13.0
 30
0.0
 11
13.9792740599999608
 21
16.0
 31
0.0
  0
LINE
  5
4274
  8
241
  6
CONTINUOUS
 10
20.0
 20
12.0
 30
0.0
 11
17.0
 21
12.0
 31
0.0
  0
LINE
  5
4275
  8
240
  6
CONTINUOUS
 10
15.0
 20
17.3999999999999702
 30
0.0
 11
17.0
 21
17.3999999999999702
 31
0.0
  0
LINE
  5
4276
  8
240
  6
CONTINUOUS
 10
15.0
 20
18.2320508100000183
 30
0.0
 11
13.9792740599999608
 21
20.0
 31
0.0
  0
LINE
  5
4277
  8
241
  6
CONTINUOUS
 10
13.9792740599999608
 20
20.0
 30
0.0
 11
13.9792740599999608
 21
16.0
 31
0.0
  0
LINE
  5
4278
  8
241
  6
CONTINUOUS
 10
13.9792740599999608
 20
16.0
 30
0.0
 11
12.4721359499999895
 21
16.0
 31
0.0
  0
LINE
  5
4279
  8
240
  6
CONTINUOUS
 10
15.0
 20
17.3999999999999702
 30
0.0
 11
15.0
 21
18.2320508100000183
 31
0.0
  0
LINE
  5
427A
  8
240
  6
CONTINUOUS
 10
17.0
 20
18.2320508100000183
 30
0.0
 11
18.0207259400000304
 21
20.0
 31
0.0
  0
LINE
  5
427B
  8
240
  6
CONTINUOUS
 10
20.0
 20
16.8000000000000114
 30
0.0
 11
20.0
 21
20.0
 31
0.0
  0
LINE
  5
427C
  8
241
  6
CONTINUOUS
 10
18.0207259400000304
 20
20.0
 30
0.0
 11
18.0207259400000304
 21
16.0
 31
0.0
  0
LINE
  5
427D
  8
240
  6
CONTINUOUS
 10
17.0
 20
18.2320508100000183
 30
0.0
 11
17.0
 21
17.3999999999999702
 31
0.0
  0
LINE
  5
427E
  8
241
  6
CONTINUOUS
 10
20.0
 20
16.0
 30
0.0
 11
18.0207259400000304
 21
16.0
 31
0.0
  0
LINE
  5
427F
  8
240
  6
CONTINUOUS
 10
18.0207259400000304
 20
20.0
 30
0.0
 11
20.0
 21
20.0
 31
0.0
  0
LINE
  5
4280
  8
250
  6
CONTINUOUS
 10
-12.4368727735297302
 20
-16.3954033178579799
 30
0.0
 11
-10.9999999985927808
 21
-14.6500000006397997
 31
0.0
  0
LINE
  5
4281
  8
250
  6
CONTINUOUS
 10
-11.7931272233543005
 20
-16.7670699844743503
 30
0.0
 11
-10.9999999985927808
 21
-14.6500000006397997
 31
0.0
  0
LINE
  5
4282
  8
250
  6
CONTINUOUS
 10
-10.9999999985927808
 20
-14.6500000006397997
 30
0.0
 11
-12.1149999984420393
 21
-16.5812366511661899
 31
0.0
  0
POLYLINE
  5
4283
  8
250
  6
CONTINUOUS
 66
     1
 10
0.0
 20
0.0
 30
0.0
1001
ACAD
1000
DSTYLE
1002
{
1070
     6
1000
OPEN
1070
   343
1005
0
1002
}
  0
VERTEX
  5
4284
  8
250
  6
CONTINUOUS
 10
-12.1149999984420393
 20
-16.5812366511661899
 30
0.0
  0
VERTEX
  5
4285
  8
250
  6
CONTINUOUS
 10
-15.6770783285927493
 20
-22.7509373006398583
 30
0.0
  0
SEQEND
  5
4286
  8
250
  6
CONTINUOUS
  0
LINE
  5
4287
  8
250
  6
CONTINUOUS
 10
-15.6770783285927493
 20
-22.7509373006398583
 30
0.0
 11
-39.9437449985927628
 21
-22.7509373006398583
 31
0.0
1001
ITEMNAME
1000
LNSP2
  0
TEXT
  5
4288
  8
250
  6
CONTINUOUS
 10
-37.6770783319261113
 20
-21.7509373006398583
 30
0.0
 40
2.799999999999998
  1
HSK-A40
  7
YOKO
1001
ITEMNAME
1000
LNSP3
  0
LINE
  5
4289
  8
247
  6
CONTINUOUS
 10
6.4999999999999432
 20
-10.75
 30
0.0
 11
6.5
 21
-6.115384615669992
 31
0.0
  0
LINE
  5
428A
  8
247
  6
CONTINUOUS
 10
4.0
 20
-9.9548934999879748
 30
0.0
 11
6.0999999999160082
 21
-10.5570588100573506
 31
0.0
  0
LINE
  5
428B
  8
247
  6
CONTINUOUS
 10
4.996153846113998
 20
-9.3251514035190421
 30
0.0
 11
4.996153846113998
 21
-10.2405360188670294
 31
0.0
  0
ARC
  5
428C
  8
247
  6
CONTINUOUS
 10
4.3847190672940961
 20
-9.0872634019468101
 30
0.0
 40
0.3876715809326743
 50
72.9978896752921997
 51
172.9241662185135908
  0
ARC
  5
428D
  8
247
  6
CONTINUOUS
 10
4.305223131028014
 20
-9.3824775568041314
 30
0.0
 40
0.693304796535877
 50
4.7429368521989632
 51
73.8492262732667513
1001
GENIUS_GENOBJ-N-FIL_13
1002
{
1000
OWNER
1000
GEN
1002
}
1001
GENIUS_GENODEF_13
1002
{
1000
HIER
1070
     0
1002
}
1002
{
1000
MANEDIT
1070
     0
1002
}
1002
{
1000
NOSEL
1070
     0
1002
}
1002
{
1000
BEHIND
1070
     0
1002
}
1002
{
1000
OTHER
1070
     0
1002
}
1002
{
1000
REACTOR
1002
}
  0
LINE
  5
428E
  8
247
  6
CONTINUOUS
 10
6.0999999999160082
 20
-9.6416741947093634
 30
0.0
 11
6.0999999999160082
 21
-10.5570588100573506
 31
0.0
  0
LINE
  5
428F
  8
247
  6
CONTINUOUS
 10
4.0
 20
-9.9548934999879748
 30
0.0
 11
4.0
 21
-9.0395088846399272
 31
0.0
  0
ARC
  5
4290
  8
247
  6
CONTINUOUS
 10
5.3874169627678707
 20
-9.3783064762668555
 30
0.0
 40
0.394857301075386
 50
65.990941652528889
 51
172.2634434590690944
  0
ARC
  5
4291
  8
247
  6
CONTINUOUS
 10
5.3912003273325659
 20
-9.7124466104269231
 30
0.0
 40
0.7123241612361686
 50
5.7019851642564632
 51
77.2773384368220064
1001
GENIUS_GENOBJ-N-FIL_13
1002
{
1000
OWNER
1000
GEN
1002
}
1001
GENIUS_GENODEF_13
1002
{
1000
HIER
1070
     0
1002
}
1002
{
1000
MANEDIT
1070
     0
1002
}
1002
{
1000
NOSEL
1070
     0
1002
}
1002
{
1000
BEHIND
1070
     0
1002
}
1002
{
1000
OTHER
1070
     0
1002
}
1002
{
1000
REACTOR
1002
}
  0
LINE
  5
4292
  8
247
  6
CONTINUOUS
 10
6.0999999999160082
 20
-8.6839818870633945
 30
0.0
 11
4.0
 21
-8.0818165769939583
 31
0.0
  0
LINE
  5
4293
  8
247
  6
CONTINUOUS
 10
4.0
 20
-6.585662730907984
 30
0.0
 11
4.0
 21
-6.981678364303546
 31
0.0
  0
LINE
  5
4294
  8
247
  6
CONTINUOUS
 10
6.0999999999160082
 20
-7.6087396539439851
 30
0.0
 11
6.0999999999160082
 21
-7.177970423191935
 31
0.0
  0
ARC
  5
4295
  8
247
  6
CONTINUOUS
 10
5.458299595083357
 20
-6.3818165770699684
 30
0.0
 40
1.576855057639547
 50
202.3594881415291127
 51
254.9932485428464872
  0
ARC
  5
4296
  8
247
  6
CONTINUOUS
 10
4.5658188585381341
 20
-6.8475113661332321
 30
0.0
 40
0.6234706797009447
 50
94.9945893190753168
 51
155.1663289573039037
1001
GENIUS_GENOBJ-N-FIL_13
1002
{
1000
OWNER
1000
GEN
1002
}
1001
GENIUS_GENODEF_13
1002
{
1000
HIER
1070
     0
1002
}
1002
{
1000
MANEDIT
1070
     0
1002
}
1002
{
1000
NOSEL
1070
     0
1002
}
1002
{
1000
BEHIND
1070
     0
1002
}
1002
{
1000
OTHER
1070
     0
1002
}
1002
{
1000
REACTOR
1002
}
  0
ARC
  5
4297
  8
247
  6
CONTINUOUS
 10
5.1621021219694381
 20
-7.4441839510327554
 30
0.0
 40
0.9749472149106982
 50
15.8460965557808002
 51
82.325137004169278
  0
ARC
  5
4298
  8
247
  6
CONTINUOUS
 10
5.3714704019710631
 20
-7.0352116387722381
 30
0.0
 40
0.9271945638692008
 50
249.7136016704968995
 51
321.7887456564105264
1001
GENIUS_GENOBJ-N-FIL_13
1002
{
1000
OWNER
1000
GEN
1002
}
1001
GENIUS_GENODEF_13
1002
{
1000
HIER
1070
     0
1002
}
1002
{
1000
MANEDIT
1070
     0
1002
}
1002
{
1000
NOSEL
1070
     0
1002
}
1002
{
1000
BEHIND
1070
     0
1002
}
1002
{
1000
OTHER
1070
     0
1002
}
1002
{
1000
REACTOR
1002
}
  0
LINE
  5
4299
  8
247
  6
CONTINUOUS
 10
5.2923076922559744
 20
-6.9625858078159659
 30
0.0
 11
5.2923076922559744
 21
-6.4779704232199711
 31
0.0
  0
ARC
  5
429A
  8
247
  6
CONTINUOUS
 10
5.25
 20
-10.75
 30
0.0
 40
1.25
 50
180.0
 51
0.0
  0
LINE
  5
429B
  8
247
  6
CONTINUOUS
 10
4.0
 20
-10.75
 30
0.0
 11
4.0
 21
-10.3038461539139803
 31
0.0
  0
ARC
  5
429C
  8
247
  6
CONTINUOUS
 10
5.25
 20
-6.115384615669992
 30
0.0
 40
1.25
 50
0.0
 51
180.0
  0
LINE
  5
429D
  8
243
  6
HIDDEN2
 10
-11.9973502699999699
 20
-10.5
 30
0.0
 11
-20.0
 21
-10.5
 31
0.0
  0
LINE
  5
429E
  8
243
  6
HIDDEN2
 10
-14.0
 20
-14.5
 30
0.0
 11
-14.0
 21
-10.5
 31
0.0
  0
ARC
  5
429F
  8
243
  6
HIDDEN2
 10
-3.932975660000007
 20
-7.75
 30
0.0
 40
4.9999999992728812
 50
270.0000000099984732
 51
320.949877469998512
  0
LINE
  5
42A0
  8
243
  6
HIDDEN2
 10
-8.3000000000000114
 20
-12.75
 30
0.0
 11
-8.3000000000000114
 21
-14.7849999999999593
 31
0.0
1001
GRPNAME
1000
PASTMD1U
  0
LINE
  5
42A1
  8
245
  6
CENTER2
 10
-6.0
 20
-11.9772432159604705
 30
0.0
 11
-6.0
 21
-15.4202969942858807
 31
0.0
1001
GRPNAME
1000
PASTMD1U
  0
LINE
  5
42A2
  8
243
  6
HIDDEN2
 10
-3.6999999999999882
 20
-12.75
 30
0.0
 11
-3.6999999999999882
 21
-15.0149999999999793
 31
0.0
1001
GRPNAME
1000
PASTMD1U
  0
LINE
  5
42A3
  8
243
  6
HIDDEN2
 10
-3.932975660000007
 20
-12.75
 30
0.0
 11
-10.6983121600000004
 21
-12.75
 31
0.0
  0
LINE
  5
42A4
  8
243
  6
HIDDEN2
 10
-11.9973502699999699
 20
-10.5
 30
0.0
 11
-10.6983121600000004
 21
-12.75
 31
0.0
  0
LINE
  5
42BA
  8
240
  6
CONTINUOUS
 10
80.0000000000000142
 20
-15.5
 30
0.0
 11
35.0000000000015135
 21
-15.5
 31
0.0
1001
GRPNAME
1000
PASTMD0R
  0
LINE
  5
42BB
  8
240
  6
CONTINUOUS
 10
80.0000000000000142
 20
15.5
 30
0.0
 11
35.0000000000015135
 21
15.5
 31
0.0
1001
GRPNAME
1000
PASTMD0R
  0
LINE
  5
42BC
  8
243
  6
HIDDEN2
 10
57.9500000000000313
 20
9.0000000000000036
 30
0.0
 11
80.0000000000000142
 21
8.9999999999999982
 31
0.0
1001
GRPNAME
1000
PASTMD0R
  0
LINE
  5
42BF
  8
240
  6
CONTINUOUS
 10
35.0000000000015135
 20
15.5
 30
0.0
 11
34.9999999999917222
 21
16.8000000000000114
 31
0.0
  0
LINE
  5
42C1
  8
240
  6
CONTINUOUS
 10
80.0000000000000142
 20
-15.5
 30
0.0
 11
80.0000000000000142
 21
15.5
 31
0.0
1001
GRPNAME
1000
PASTMD0R
  0
LINE
  5
42C2
  8
243
  6
HIDDEN2
 10
57.9500000000000313
 20
-9.0
 30
0.0
 11
80.0000000000000142
 21
-8.9999999999999982
 31
0.0
1001
GRPNAME
1000
PASTMD0R
  0
LINE
  5
42C3
  8
240
  6
CONTINUOUS
 10
35.0000000000015135
 20
-15.5
 30
0.0
 11
34.9999999999917222
 21
-16.8000000000000114
 31
0.0
  0
LINE
  5
42CA
  8
241
  6
CONTINUOUS
 10
35.0000000000015135
 20
15.5
 30
0.0
 11
35.0000000000015135
 21
-15.5
 31
0.0
  0
TEXT
  5
42F2
  8
241
  6
CONTINUOUS
 10
-19.9999999999999716
 20
42.0
 30
0.0
 40
5.0
  1
HSK-A40-CKB3-80
  7
YOKO
 11
-19.9999999999999716
 21
42.0
 31
0.0
 73
     1
1001
GRPNAME
1000
PASTMD0I
  0
LINE
  5
42F3
  8
250
  6
CONTINUOUS
 10
0.0000000000000142
 20
20.4999999999999787
 30
0.0
 11
0.0000000000000142
 21
29.0
 31
0.0
  0
LINE
  5
42F4
  8
250
  6
CONTINUOUS
 10
80.0000000000000142
 20
15.9999999999999698
 30
0.0
 11
80.0000000000000142
 21
29.0
 31
0.0
  0
LINE
  5
42F5
  8
250
  6
CONTINUOUS
 10
2.230000000000012
 20
28.0
 30
0.0
 11
77.7700000000000244
 21
28.0
 31
0.0
  0
LINE
  5
42F6
  8
250
  6
CONTINUOUS
 10
2.230000000000012
 20
27.6283333333333303
 30
0.0
 11
0.0000000000000142
 21
28.0
 31
0.0
  0
LINE
  5
42F7
  8
250
  6
CONTINUOUS
 10
2.230000000000012
 20
28.371666666666659
 30
0.0
 11
0.0000000000000142
 21
28.0
 31
0.0
  0
LINE
  5
42F8
  8
250
  6
CONTINUOUS
 10
0.0000000000000142
 20
28.0
 30
0.0
 11
2.230000000000012
 21
28.0
 31
0.0
  0
LINE
  5
42F9
  8
250
  6
CONTINUOUS
 10
77.7700000000000244
 20
28.371666666666659
 30
0.0
 11
80.0000000000000142
 21
28.0
 31
0.0
  0
LINE
  5
42FA
  8
250
  6
CONTINUOUS
 10
77.7700000000000244
 20
27.6283333333333303
 30
0.0
 11
80.0000000000000142
 21
28.0
 31
0.0
  0
LINE
  5
42FB
  8
250
  6
CONTINUOUS
 10
80.0000000000000142
 20
28.0
 30
0.0
 11
77.7700000000000244
 21
28.0
 31
0.0
  0
TEXT
  5
42FC
  8
250
  6
CONTINUOUS
 10
37.3333333333333499
 20
29.0
 30
0.0
 40
2.799999999999998
  1
80
1001
ACAD
1000
MTEXTBEGIN
1070
    73
1070
     1
1070
    44
1040
1.0
1070
    74
1070
     0
1000
MTEXTEND
1000
MTEXTBEGIN
1070
    73
1070
     1
1070
    44
1040
1.0
1070
    74
1070
     0
1000
MTEXTEND
  0
LINE
  5
42FD
  8
250
  6
CONTINUOUS
 10
80.5000000000000142
 20
-15.5000000000000195
 30
0.0
 11
91.1429295100000161
 21
-15.5000000000000195
 31
0.0
  0
LINE
  5
42FE
  8
250
  6
CONTINUOUS
 10
80.5000000000000142
 20
15.4999999999999698
 30
0.0
 11
91.1429295100000161
 21
15.4999999999999698
 31
0.0
  0
LINE
  5
42FF
  8
250
  6
CONTINUOUS
 10
90.1429295099999877
 20
-13.2700000000000102
 30
0.0
 11
90.1429295099999877
 21
13.2699999999999605
 31
0.0
  0
LINE
  5
4300
  8
250
  6
CONTINUOUS
 10
90.5145961766666858
 20
-13.2700000000000191
 30
0.0
 11
90.1429295099999877
 21
-15.5000000000000195
 31
0.0
  0
LINE
  5
4301
  8
250
  6
CONTINUOUS
 10
89.7712628433333464
 20
-13.2700000000000191
 30
0.0
 11
90.1429295099999877
 21
-15.5000000000000195
 31
0.0
  0
LINE
  5
4302
  8
250
  6
CONTINUOUS
 10
90.1429295099999877
 20
-15.5000000000000195
 30
0.0
 11
90.1429295099999877
 21
-13.2700000000000191
 31
0.0
  0
LINE
  5
4303
  8
250
  6
CONTINUOUS
 10
89.7712628433333464
 20
13.26999999999998
 30
0.0
 11
90.1429295099999877
 21
15.4999999999999698
 31
0.0
  0
LINE
  5
4304
  8
250
  6
CONTINUOUS
 10
90.5145961766666858
 20
13.26999999999998
 30
0.0
 11
90.1429295099999877
 21
15.4999999999999698
 31
0.0
  0
LINE
  5
4305
  8
250
  6
CONTINUOUS
 10
90.1429295099999877
 20
15.4999999999999698
 30
0.0
 11
90.1429295099999877
 21
13.26999999999998
 31
0.0
  0
TEXT
  5
4306
  8
250
  6
CONTINUOUS
 10
89.1429295099999592
 20
-3.5333333333333541
 30
0.0
 40
2.799999999999998
  1
\U+2205
 50
90.0
1001
ACAD
1000
MTEXTBEGIN
1070
    73
1070
     1
1070
    44
1040
1.0
1070
    74
1070
     0
1000
MTEXTEND
1000
MTEXTBEGIN
1070
    73
1070
     1
1070
    44
1040
1.0
1070
    74
1070
     0
1000
MTEXTEND
  0
TEXT
  5
4307
  8
250
  6
CONTINUOUS
 10
89.1429295099999592
 20
-1.0000000000000231
 30
0.0
 40
2.799999999999998
  1
31
 50
90.0
1001
ACAD
1000
MTEXTBEGIN
1070
    73
1070
     1
1070
    44
1040
1.0
1070
    74
1070
     0
1000
MTEXTEND
1000
MTEXTBEGIN
1070
    73
1070
     1
1070
    44
1040
1.0
1070
    74
1070
     0
1000
MTEXTEND
  0
LINE
  5
4308
  8
250
  6
CONTINUOUS
 10
84.323202720000026
 20
31.041146229999999
 30
0.0
 11
97.3898693799999933
 21
31.041146229999999
 31
0.0
1001
ITEMNAME
1000
LNSP2
  0
LINE
  5
4309
  8
250
  6
CONTINUOUS
 10
76.7873905351232793
 20
17.2454033170647598
 30
0.0
 11
75.3505177600000167
 21
15.5
 31
0.0
  0
LINE
  5
430A
  8
250
  6
CONTINUOUS
 10
76.1436449849875032
 20
17.6170699837498788
 30
0.0
 11
75.3505177600000167
 21
15.5
 31
0.0
  0
LINE
  5
430B
  8
250
  6
CONTINUOUS
 10
75.3505177600000167
 20
15.5
 30
0.0
 11
76.4655177600553912
 21
17.4312366504073317
 31
0.0
  0
POLYLINE
  5
430C
  8
250
  6
CONTINUOUS
 66
     1
 10
0.0
 20
0.0
 30
0.0
1001
ACAD
1000
DSTYLE
1002
{
1070
     6
1000
OPEN
1070
   343
1005
594
1002
}
  0
VERTEX
  5
44E4
  8
250
  6
CONTINUOUS
 10
76.4655177600553912
 20
17.4312366504073317
 30
0.0
  0
VERTEX
  5
44E5
  8
250
  6
CONTINUOUS
 10
84.323202720000026
 20
31.041146229999999
 30
0.0
  0
SEQEND
  5
44E6
  8
250
  6
CONTINUOUS
  0
INSERT
  5
430D
  8
240
  2
*U5
 10
0.0
 20
0.0
 30
0.0
  0
LINE
  5
430E
  8
245
  6
CENTER2
 10
72.0000000000000142
 20
4.099999999999973
 30
0.0
 11
72.0000000000000142
 21
-4.100000000000021
 31
0.0
  0
POLYLINE
  5
430F
  8
241
  6
CONTINUOUS
 66
     1
 10
0.0
 20
0.0
 30
0.0
 70
     1
  0
VERTEX
  5
44EB
  8
241
  6
CONTINUOUS
 10
70.5000000000000142
 20
-0.8660254000000239
 30
0.0
  0
VERTEX
  5
44EC
  8
241
  6
CONTINUOUS
 10
72.0000000000000142
 20
-1.732050810000024
 30
0.0
  0
VERTEX
  5
44ED
  8
241
  6
CONTINUOUS
 10
73.5000000000000142
 20
-0.8660254000000239
 30
0.0
  0
VERTEX
  5
44EE
  8
241
  6
CONTINUOUS
 10
73.5000000000000142
 20
0.866025399999976
 30
0.0
  0
VERTEX
  5
44EF
  8
241
  6
CONTINUOUS
 10
72.0000000000000142
 20
1.7320508099999761
 30
0.0
  0
VERTEX
  5
44F0
  8
241
  6
CONTINUOUS
 10
70.5000000000000142
 20
0.866025399999976
 30
0.0
  0
SEQEND
  5
44F1
  8
241
  6
CONTINUOUS
  0
CIRCLE
  5
4310
  8
241
  6
CONTINUOUS
 10
72.0000000000000142
 20
-0.000000000000024
 30
0.0
 40
3.1000000000000001
  0
CIRCLE
  5
4311
  8
242
 10
72.0000000000000142
 20
-0.000000000000024
 30
0.0
 40
2.649999999999999
  0
VIEWPORT
  5
22
 67
     1
  8
0
 10
261.517699115044195
 20
148.5
 30
0.0
 40
523.0353982300885036
 41
297.0
 68
     1
 69
     1
1001
ACAD
1000
MVIEW
1002
{
1070
    16
1010
0.0
1020
0.0
1030
0.0
1010
0.0
1020
0.0
1030
1.0
1040
0.0
1040
297.0
1040
261.517699115044195
1040
148.5
1040
50.0
1040
0.0
1040
0.0
1070
     0
1070
   100
1070
     1
1070
     1
1070
     0
1070
     0
1070
     0
1070
     0
1040
0.0
1040
0.0
1040
0.0
1040
1.0
1040
1.0
1040
10.0
1040
10.0
1070
     0
1002
{
1002
}
1002
}
1001
GENIUS_GENODEF_13
1002
{
1000
HIER
1070
     0
1002
}
1002
{
1000
MANEDIT
1070
     0
1002
}
1002
{
1000
NOSEL
1070
     0
1002
}
1002
{
1000
BEHIND
1070
     0
1002
}
1002
{
1000
OTHER
1070
     0
1002
}
1002
{
1000
REACTOR
1002
}
1001
GENIUS_GENOBJ-N-SDF_13
1002
{
1000
OWNER
1000
GEN
1002
}
1001
GENIUS_GENSCREG_15
1000
PF
1040
1.0
1000
DF
1040
1.0
1000
MIN
1011
0.0
1021
0.0
1031
0.0
1021
0.0
1031
0.0
1000
MAX
1011
523.0353982300885036
1021
0.0
1031
0.0
1021
297.0
1031
0.0
1000
FLAGS
1070
     4
  0
ENDSEC
  0
EOF
