  0
SECTION
  2
HEADER
  9
$ACADVER
  1
AC1009
  9
$INSBASE
 10
0.0
 20
0.0
 30
0.0
  9
$EXTMIN
 10
-97.238095238095227
 20
-49.999999999999957
 30
0.0
  9
$EXTMAX
 10
274.0
 20
81.000000000000114
 30
0.0
  9
$LIMMIN
 10
0.0
 20
0.0
  9
$LIMMAX
 10
297.0
 20
210.0
  9
$ORTHOMODE
 70
     0
  9
$REGENMODE
 70
     1
  9
$FILLMODE
 70
     1
  9
$QTEXTMODE
 70
     0
  9
$MIRRTEXT
 70
     1
  9
$DRAGMODE
 70
     2
  9
$LTSCALE
 40
10.0
  9
$OSMODE
 70
    61
  9
$ATTMODE
 70
     1
  9
$TEXTSIZE
 40
3.0
  9
$TRACEWID
 40
1.0
  9
$TEXTSTYLE
  7
YOKO
  9
$CLAYER
  8
240
  9
$CELTYPE
  6
BYLAYER
  9
$CECOLOR
 62
   256
  9
$DIMSCALE
 40
1.0
  9
$DIMASZ
 40
2.2299999999999991
  9
$DIMEXO
 40
0.5
  9
$DIMDLI
 40
7.0
  9
$DIMRND
 40
0.0
  9
$DIMDLE
 40
0.0
  9
$DIMEXE
 40
1.0
  9
$DIMTP
 40
0.0
  9
$DIMTM
 40
0.01
  9
$DIMTXT
 40
2.7999999999999989
  9
$DIMCEN
 40
0.0
  9
$DIMTSZ
 40
0.0
  9
$DIMTOL
 70
     0
  9
$DIMLIM
 70
     0
  9
$DIMTIH
 70
     0
  9
$DIMTOH
 70
     0
  9
$DIMSE1
 70
     0
  9
$DIMSE2
 70
     0
  9
$DIMTAD
 70
     3
  9
$DIMZIN
 70
     9
  9
$DIMBLK
  1
OPEN
  9
$DIMASO
 70
     1
  9
$DIMSHO
 70
     1
  9
$DIMPOST
  1

  9
$DIMAPOST
  1

  9
$DIMALT
 70
     0
  9
$DIMALTD
 70
     2
  9
$DIMALTF
 40
25.399999999999999
  9
$DIMLFAC
 40
1.0
  9
$DIMTOFL
 70
     1
  9
$DIMTVP
 40
0.0
  9
$DIMTIX
 70
     1
  9
$DIMSOXD
 70
     0
  9
$DIMSAH
 70
     0
  9
$DIMBLK1
  1

  9
$DIMBLK2
  1

  9
$DIMSTYLE
  2
BIGT
  9
$DIMCLRD
 70
   256
  9
$DIMCLRE
 70
   256
  9
$DIMCLRT
 70
    40
  9
$DIMTFAC
 40
1.0
  9
$DIMGAP
 40
1.0
  9
$LUNITS
 70
     2
  9
$LUPREC
 70
     6
  9
$SKETCHINC
 40
1.0
  9
$FILLETRAD
 40
3.0
  9
$AUNITS
 70
     0
  9
$AUPREC
 70
     6
  9
$MENU
  1
.
  9
$ELEVATION
 40
0.0
  9
$PELEVATION
 40
0.0
  9
$THICKNESS
 40
0.0
  9
$LIMCHECK
 70
     0
  9
$BLIPMODE
 70
     0
  9
$CHAMFERA
 40
0.2
  9
$CHAMFERB
 40
0.2
  9
$SKPOLY
 70
     0
  9
$TDCREATE
 40
2459258.6302429629
  9
$TDUPDATE
 40
2459262.4740661108
  9
$TDINDWG
 40
0.0202575579
  9
$TDUSRTIMER
 40
0.0202574769
  9
$USRTIMER
 70
     1
  9
$ANGBASE
 50
0.0
  9
$ANGDIR
 70
     0
  9
$PDMODE
 70
     1
  9
$PDSIZE
 40
0.0
  9
$PLINEWID
 40
0.0
  9
$COORDS
 70
     1
  9
$SPLFRAME
 70
     0
  9
$SPLINETYPE
 70
     6
  9
$SPLINESEGS
 70
     4
  9
$ATTDIA
 70
     1
  9
$ATTREQ
 70
     1
  9
$HANDLING
 70
     1
  9
$HANDSEED
  5
4CC0
  9
$SURFTAB1
 70
     6
  9
$SURFTAB2
 70
     6
  9
$SURFTYPE
 70
     6
  9
$SURFU
 70
     6
  9
$SURFV
 70
     6
  9
$UCSNAME
  2

  9
$UCSORG
 10
0.0
 20
0.0
 30
0.0
  9
$UCSXDIR
 10
1.0
 20
0.0
 30
0.0
  9
$UCSYDIR
 10
0.0
 20
1.0
 30
0.0
  9
$PUCSNAME
  2

  9
$PUCSORG
 10
0.0
 20
0.0
 30
0.0
  9
$PUCSXDIR
 10
1.0
 20
0.0
 30
0.0
  9
$PUCSYDIR
 10
0.0
 20
1.0
 30
0.0
  9
$USERI1
 70
     1
  9
$USERI2
 70
     0
  9
$USERI3
 70
     0
  9
$USERI4
 70
     0
  9
$USERI5
 70
     0
  9
$USERR1
 40
0.0
  9
$USERR2
 40
0.0
  9
$USERR3
 40
0.0
  9
$USERR4
 40
0.0
  9
$USERR5
 40
0.0
  9
$WORLDVIEW
 70
     1
  9
$SHADEDGE
 70
     3
  9
$SHADEDIF
 70
    70
  9
$TILEMODE
 70
     1
  9
$MAXACTVP
 70
    16
  9
$PLIMCHECK
 70
     0
  9
$PEXTMIN
 10
1.0000000000000000E+020
 20
1.0000000000000000E+020
 30
1.0000000000000000E+020
  9
$PEXTMAX
 10
-1.0000000000000000E+020
 20
-1.0000000000000000E+020
 30
-1.0000000000000000E+020
  9
$PLIMMIN
 10
0.0
 20
0.0
  9
$PLIMMAX
 10
420.0
 20
297.0
  9
$UNITMODE
 70
     0
  9
$VISRETAIN
 70
     1
  9
$PLINEGEN
 70
     0
  9
$PSLTSCALE
 70
     1
  0
ENDSEC
  0
SECTION
  2
TABLES
  0
TABLE
  2
VPORT
 70
     1
  0
VPORT
  2
*ACTIVE
 70
     0
 10
0.0
 20
0.0
 11
1.0
 21
1.0
 12
110.9732466611341
 22
31.470291651769571
 13
0.0
 23
0.0
 14
7.0
 24
7.0
 15
7.0
 25
7.0
 16
0.0
 26
0.0
 36
1.0
 17
0.0
 27
0.0
 37
0.0
 40
248.78298218847951
 41
1.607323232323232
 42
50.0
 43
0.0
 44
0.0
 50
0.0
 51
0.0
 71
     0
 72
  2000
 73
     1
 74
     0
 75
     0
 76
     1
 77
     0
 78
     0
  0
ENDTAB
  0
TABLE
  2
LTYPE
 70
    21
  0
LTYPE
  2
CONTINUOUS
 70
     0
  3
Solid line
 72
    65
 73
     0
 40
0.0
  0
LTYPE
  2
CENTER2
 70
     0
  3
___ _ ___ _ ___ _ ___ _ ___ _ ___ _ ___ _ ___ _
 72
    65
 73
     4
 40
1.125
 49
0.75
 49
-0.125
 49
0.125
 49
-0.125
  0
LTYPE
  2
HIDDEN2
 70
     0
  3
_ _ _ _ _ _ _ _ _ _ _ _ _ _ _ _ _ _ _ _ _ _ _ _
 72
    65
 73
     2
 40
0.1875
 49
0.125
 49
-0.0625
  0
LTYPE
  2
PHANTOM2
 70
     0
  3
___ _ _ ___ _ _ ___ _ _ ___ _ _ ___ _ _ ___ _ _
 72
    65
 73
     6
 40
1.25
 49
0.625
 49
-0.125
 49
0.125
 49
-0.125
 49
0.125
 49
-0.125
  0
LTYPE
  2
AM_ISO02W050
 70
     0
  3
__ __ __ __ __ __ __ __ __ __ __ __ __ __ __
 72
    65
 73
     2
 40
7.5
 49
6.0
 49
-1.5
  0
LTYPE
  2
AMCONSTR
 70
     0
  3
_______________________
 72
    65
 73
     2
 40
9999.0
 49
9999.0
 49
0.0
  0
LTYPE
  2
ACISOWELD
 70
     0
  3
_ _ _ _ _
 72
    65
 73
     2
 40
2.0
 49
2.0
 49
-1.0
  0
LTYPE
  2
ACISOTGB
 70
     0
  3
__ . . __ . .
 72
    65
 73
     6
 40
9.0
 49
4.0
 49
-1.0
 49
1.0
 49
-1.0
 49
1.0
 49
-1.0
  0
LTYPE
  2
ACISOTGL
 70
     0
  3
_ _ _ _ _
 72
    65
 73
     2
 40
3.0
 49
2.0
 49
-1.0
  0
LTYPE
  2
ACJISTGB
 70
     0
  3
__ . . __ . .
 72
    65
 73
     6
 40
9.0
 49
4.0
 49
-1.0
 49
1.0
 49
-1.0
 49
1.0
 49
-1.0
  0
LTYPE
  2
ACJISTGL
 70
     0
  3
_ _ _ _ _
 72
    65
 73
     2
 40
3.0
 49
2.0
 49
-1.0
  0
ENDTAB
  0
TABLE
  2
LAYER
 70
    15
  0
LAYER
  2
0
 70
     0
 62
     7
  6
CONTINUOUS
  0
LAYER
  2
DEFPOINTS
 70
     0
 62
     7
  6
CONTINUOUS
  0
LAYER
  2
245
 70
     0
 62
     2
  6
CENTER2
  0
LAYER
  2
240
 70
     0
 62
     4
  6
CONTINUOUS
  0
LAYER
  2
241
 70
     0
 62
   211
  6
CONTINUOUS
  0
LAYER
  2
242
 70
     0
 62
     3
  6
CONTINUOUS
  0
LAYER
  2
243
 70
     0
 62
   211
  6
HIDDEN2
  0
LAYER
  2
247
 70
     0
 62
    60
  6
CONTINUOUS
  0
LAYER
  2
250
 70
     0
 62
     3
  6
CONTINUOUS
  0
ENDTAB
  0
TABLE
  2
STYLE
 70
     8
  0
STYLE
  2
STANDARD
 70
     0
 40
0.0
 41
1.0
 50
0.0
 71
     0
 42
3.0
  3
romans.shx
  4
extfont.shx
  0
STYLE
  2
ACISOTS
 70
     0
 40
1.0
 41
1.0
 50
0.0
 71
     0
 42
3.0
  3
amgdt.shx
  4
extfont.shx
  0
STYLE
  2
ACISOGDT
 70
     0
 40
0.0
 41
1.0
 50
0.0
 71
     0
 42
3.0
  3
amgdt.shx
  4
extfont.shx
  0
STYLE
  2
ACJISTS
 70
     0
 40
1.0
 41
1.0
 50
0.0
 71
     0
 42
3.0
  3
amgdt.shx
  4
extfont.shx
  0
STYLE
  2
ACJISGDT
 70
     0
 40
0.0
 41
1.0
 50
0.0
 71
     0
 42
3.0
  3
amgdt.shx
  4
extfont.shx
  0
STYLE
  2
YOKO
 70
     0
 40
0.0
 41
1.0
 50
0.0
 71
     0
 42
3.0
  3
romans.shx
  4
extfont.shx
  0
ENDTAB
  0
TABLE
  2
VIEW
 70
     0
  0
ENDTAB
  0
TABLE
  2
UCS
 70
     0
  0
ENDTAB
  0
TABLE
  2
APPID
 70
    36
  0
APPID
  2
ACAD
 70
     0
  0
APPID
  2
GLOBAL
 70
     0
  0
APPID
  2
DETAIL
 70
     0
  0
APPID
  2
GRPNAME
 70
     0
  0
APPID
  2
GPARA
 70
     0
  0
APPID
  2
MCAD_NO_VIS
 70
     0
  0
APPID
  2
ACAD_TEMP_GRAPHIC
 70
     0
  0
APPID
  2
ACATTRIBSERVICES
 70
     0
  0
APPID
  2
GENIUS_GENSCREG_15
 70
     0
  0
APPID
  2
GENIUS_GENODEF_13
 70
     0
  0
APPID
  2
GENIUS_GENOBJ-N-SDF_13
 70
     0
  0
APPID
  2
GENIUS_GENREC_14
 70
     0
  0
APPID
  2
GENIUS_GENOBJ-N-REC_13
 70
     0
  0
APPID
  2
GENIUS_GENDIMSH_14
 70
     0
  0
APPID
  2
GENIUS_GENOBJ-N-DIM_13
 70
     0
  0
APPID
  2
GENIUS_GENDIM_13
 70
     0
  0
APPID
  2
GENIUS_GENDTOL_13
 70
     0
  0
APPID
  2
GENIUS_GENOLIS_13
 70
     0
  0
APPID
  2
GENIUS_GENOENT_13
 70
     0
  0
APPID
  2
GENIUS_GENOBJ-F-FEM_13
 70
     0
  0
APPID
  2
GENIUS_GENOREF_13
 70
     0
  0
APPID
  2
GENIUS_GEFFEM_13
 70
     0
  0
APPID
  2
GENIUS_GEFFEMP_13
 70
     0
  0
APPID
  2
AD_DRAW
 70
     0
  0
APPID
  2
DESIGNERASSEMBLIES
 70
     0
  0
APPID
  2
ACADM_DIM_EDIT
 70
     0
  0
APPID
  2
AMDT_DM_ADJ
 70
     0
  0
APPID
  2
ITEMNAME
 70
     0
  0
APPID
  2
GENIUS_GENOBJ-N-FIL_13
 70
     0
  0
APPID
  2
GENIUS_GENFIL_13
 70
     0
  0
APPID
  2
GENIUS_GENOBJ-N-CHA_13
 70
     0
  0
APPID
  2
ACAD_NAV_VCDISPLAY
 70
     0
  0
APPID
  2
ACAD_DSTYLE_DIMINSPECT
 70
     0
  0
APPID
  2
ACAECLAYERSTANDARD
 70
     0
  0
APPID
  2
ACAD_EXEMPT_FROM_CAD_STANDARDS
 70
     0
  0
APPID
  2
ACAD_MLEADERVER
 70
     0
  0
ENDTAB
  0
TABLE
  2
DIMSTYLE
 70
    32
  0
DIMSTYLE
  2
BIGT
 70
     0
  3

  4

  5
OPEN
  6

  7

 40
1.0
 41
2.2299999999999991
 42
0.5
 43
7.0
 44
1.0
 45
0.0
 46
0.0
 47
0.0
 48
0.01
140
2.7999999999999989
141
0.0
142
0.0
143
25.399999999999999
144
1.0
145
0.0
146
1.0
147
1.0
 71
     0
 72
     0
 73
     0
 74
     0
 75
     0
 76
     0
 77
     3
 78
     9
170
     0
171
     2
172
     1
173
     0
174
     1
175
     0
176
   256
177
   256
178
    40
  0
DIMSTYLE
  2
AM_ISO
 70
     0
  3

  4
"
  5

  6

  7

 40
1.0
 41
2.5
 42
1.0
 43
10.0
 44
1.0
 45
0.0
 46
0.0
 47
0.1
 48
0.1
140
3.5
141
0.0
142
0.0
143
0.0393701
144
1.0
145
0.0
146
0.71
147
1.5
 71
     0
 72
     0
 73
     0
 74
     0
 75
     0
 76
     0
 77
     1
 78
     8
170
     0
171
     2
172
     1
173
     0
174
     0
175
     0
176
   256
177
   256
178
     2
  0
DIMSTYLE
  2
AM_ISO$3
 70
     0
  3

  4
"
  5

  6

  7

 40
1.0
 41
2.5
 42
1.0
 43
10.0
 44
1.0
 45
0.0
 46
0.0
 47
0.1
 48
0.1
140
3.5
141
0.0
142
0.0
143
0.0393701
144
1.0
145
0.0
146
0.71
147
1.5
 71
     0
 72
     0
 73
     0
 74
     1
 75
     0
 76
     0
 77
     1
 78
     8
170
     0
171
     2
172
     0
173
     0
174
     0
175
     0
176
   256
177
   256
178
     2
  0
DIMSTYLE
  2
AM_ISO$4
 70
     0
  3

  4
"
  5

  6

  7

 40
1.0
 41
2.5
 42
1.0
 43
10.0
 44
1.0
 45
0.0
 46
0.0
 47
0.1
 48
0.1
140
3.5
141
0.0
142
0.0
143
0.0393701
144
1.0
145
0.0
146
0.71
147
1.5
 71
     0
 72
     0
 73
     0
 74
     1
 75
     0
 76
     0
 77
     1
 78
     8
170
     0
171
     2
172
     0
173
     0
174
     0
175
     0
176
   256
177
   256
178
     2
  0
DIMSTYLE
  2
AM_ISO$6
 70
     0
  3

  4
"
  5

  6

  7

 40
1.0
 41
2.5
 42
1.0
 43
10.0
 44
1.0
 45
0.0
 46
0.0
 47
0.1
 48
0.1
140
3.5
141
0.0
142
0.0
143
0.0393701
144
1.0
145
0.0
146
0.71
147
1.5
 71
     0
 72
     0
 73
     0
 74
     0
 75
     0
 76
     0
 77
     0
 78
     8
170
     0
171
     2
172
     1
173
     0
174
     0
175
     0
176
   256
177
   256
178
     2
  0
DIMSTYLE
  2
AM_ISO$7
 70
     0
  3

  4
"
  5

  6

  7

 40
1.0
 41
2.5
 42
1.0
 43
10.0
 44
1.0
 45
0.0
 46
0.0
 47
0.1
 48
0.1
140
5.0
141
0.0
142
0.0
143
0.0393701
144
1.0
145
0.0
146
0.71
147
1.5
 71
     0
 72
     0
 73
     0
 74
     0
 75
     0
 76
     0
 77
     1
 78
     8
170
     0
171
     2
172
     1
173
     0
174
     0
175
     0
176
   256
177
   256
178
     2
  0
DIMSTYLE
  2
AM_ISO$SF
 70
     0
  3

  4
"
  5

  6

  7

 40
1.0
 41
2.5
 42
1.0
 43
10.0
 44
1.0
 45
0.0
 46
0.0
 47
0.1
 48
0.1
140
3.5
141
0.0
142
0.0
143
0.0393701
144
1.0
145
0.0
146
0.71
147
1.5
 71
     0
 72
     0
 73
     0
 74
     0
 75
     1
 76
     1
 77
     1
 78
     8
170
     0
171
     2
172
     1
173
     0
174
     0
175
     0
176
   256
177
   256
178
     2
  0
DIMSTYLE
  2
AM_ISO$SH
 70
     0
  3

  4
"
  5

  6
GENAXEH
  7

 40
1.0
 41
2.5
 42
1.0
 43
10.0
 44
1.0
 45
0.0
 46
0.0
 47
0.1
 48
0.1
140
3.5
141
0.0
142
0.0
143
0.0393701
144
2.0
145
0.0
146
0.71
147
1.5
 71
     0
 72
     0
 73
     0
 74
     0
 75
     1
 76
     1
 77
     1
 78
     8
170
     0
171
     2
172
     1
173
     1
174
     0
175
     0
176
   256
177
   256
178
     2
  0
DIMSTYLE
  2
BIGT$2
 70
     0
  3

  4

  5
OPEN
  6

  7

 40
1.0
 41
2.2299999999999991
 42
0.5
 43
7.0
 44
1.0
 45
0.0
 46
0.0
 47
0.0
 48
0.01
140
2.7999999999999989
141
0.0
142
0.0
143
25.399999999999999
144
1.0
145
0.0
146
1.0
147
1.0
 71
     0
 72
     0
 73
     0
 74
     0
 75
     0
 76
     0
 77
     3
 78
     9
170
     0
171
     2
172
     1
173
     0
174
     0
175
     0
176
   256
177
   256
178
    40
  0
DIMSTYLE
  2
BIGT$3
 70
     0
  3

  4

  5
OPEN
  6

  7

 40
1.0
 41
2.2299999999999991
 42
0.5
 43
2.5
 44
1.0
 45
0.0
 46
0.0
 47
0.0
 48
0.01
140
2.7999999999999989
141
0.0
142
0.0
143
25.399999999999999
144
1.0
145
0.0
146
1.0
147
1.0
 71
     0
 72
     0
 73
     0
 74
     0
 75
     0
 76
     0
 77
     3
 78
     9
170
     0
171
     2
172
     1
173
     0
174
     0
175
     0
176
   256
177
   256
178
    40
  0
DIMSTYLE
  2
BIGT$7
 70
     0
  3

  4

  5
OPEN
  6

  7

 40
0.0
 41
2.2299999999999991
 42
0.5
 43
7.0
 44
1.0
 45
0.0
 46
0.0
 47
0.0
 48
0.01
140
2.7999999999999989
141
0.0
142
0.0
143
25.399999999999999
144
1.0
145
0.0
146
1.0
147
1.0
 71
     0
 72
     0
 73
     0
 74
     0
 75
     0
 76
     0
 77
     3
 78
     9
170
     0
171
     2
172
     0
173
     0
174
     0
175
     0
176
   256
177
   256
178
    40
  0
DIMSTYLE
  2
BIGT$6
 70
     0
  3

  4

  5
OPEN
  6

  7

 40
1.0
 41
2.2299999999999991
 42
0.5
 43
2.5
 44
1.0
 45
0.0
 46
0.0
 47
0.0
 48
0.01
140
2.7999999999999989
141
0.0
142
0.0
143
25.399999999999999
144
1.0
145
0.0
146
1.0
147
1.0
 71
     0
 72
     0
 73
     0
 74
     0
 75
     0
 76
     0
 77
     3
 78
     9
170
     0
171
     2
172
     1
173
     0
174
     0
175
     0
176
   256
177
   256
178
    40
  0
DIMSTYLE
  2
BIGT$0
 70
     0
  3

  4

  5
OPEN
  6

  7

 40
1.0
 41
2.2299999999999991
 42
0.5
 43
7.0
 44
1.0
 45
0.0
 46
0.0
 47
0.0
 48
0.01
140
2.7999999999999989
141
0.0
142
0.0
143
25.399999999999999
144
1.0
145
0.0
146
1.0
147
1.0
 71
     0
 72
     0
 73
     0
 74
     0
 75
     0
 76
     0
 77
     3
 78
     9
170
     0
171
     2
172
     1
173
     0
174
     1
175
     0
176
   256
177
   256
178
    40
  0
DIMSTYLE
  2
BIGT$4
 70
     0
  3

  4

  5
OPEN
  6

  7

 40
1.0
 41
2.2299999999999991
 42
0.5
 43
2.5
 44
1.0
 45
0.0
 46
0.0
 47
0.0
 48
0.01
140
2.7999999999999989
141
0.0
142
0.0
143
25.399999999999999
144
1.0
145
0.0
146
1.0
147
1.0
 71
     0
 72
     0
 73
     0
 74
     0
 75
     0
 76
     0
 77
     3
 78
     9
170
     0
171
     2
172
     1
173
     0
174
     0
175
     0
176
   256
177
   256
178
    40
  0
DIMSTYLE
  2
BIGT$SH
 70
     0
  3

  4

  5
OPEN
  6

  7

 40
1.0
 41
2.2299999999999991
 42
0.5
 43
7.0
 44
1.0
 45
0.0
 46
0.0
 47
0.0
 48
0.0
140
2.7999999999999989
141
0.0
142
0.0
143
25.399999999999999
144
1.0
145
0.0
146
1.0
147
1.0
 71
     0
 72
     0
 73
     0
 74
     0
 75
     0
 76
     0
 77
     3
 78
     9
170
     0
171
     2
172
     1
173
     0
174
     0
175
     0
176
   256
177
   256
178
    40
  0
DIMSTYLE
  2
BIGT$SF
 70
     0
  3

  4

  5
OPEN
  6

  7

 40
1.0
 41
2.2299999999999991
 42
0.5
 43
7.0
 44
1.0
 45
0.0
 46
0.0
 47
0.0
 48
0.0
140
2.7999999999999989
141
0.0
142
0.0
143
25.399999999999999
144
1.0
145
0.0
146
1.0
147
1.0
 71
     0
 72
     0
 73
     0
 74
     0
 75
     0
 76
     0
 77
     3
 78
     9
170
     0
171
     2
172
     1
173
     0
174
     0
175
     0
176
   256
177
   256
178
    40
  0
DIMSTYLE
  2
TECHNICAL_OSAKA
 70
     0
  3

  4
"
  5
OPEN30
  6

  7

 40
1.0
 41
2.5
 42
1.0
 43
10.0
 44
1.0
 45
0.0
 46
0.0
 47
0.1
 48
0.1
140
2.7999999999999989
141
0.0
142
0.0
143
0.0393701
144
1.0
145
0.0
146
0.71
147
1.5
 71
     0
 72
     0
 73
     0
 74
     0
 75
     0
 76
     0
 77
     3
 78
     8
170
     0
171
     2
172
     1
173
     0
174
     0
175
     0
176
   256
177
   256
178
    40
  0
DIMSTYLE
  2
TECHNICAL_OSAKA$3
 70
     0
  3

  4
"
  5
OPEN30
  6

  7

 40
1.0
 41
2.5
 42
1.0
 43
10.0
 44
1.0
 45
0.0
 46
0.0
 47
0.1
 48
0.1
140
2.7999999999999989
141
0.0
142
0.0
143
0.0393701
144
1.0
145
0.0
146
0.71
147
1.5
 71
     0
 72
     0
 73
     0
 74
     1
 75
     0
 76
     0
 77
     3
 78
     8
170
     0
171
     2
172
     0
173
     0
174
     0
175
     0
176
   256
177
   256
178
    40
  0
DIMSTYLE
  2
TECHNICAL_OSAKA$4
 70
     0
  3

  4
"
  5
OPEN30
  6

  7

 40
1.0
 41
2.5
 42
1.0
 43
10.0
 44
1.0
 45
0.0
 46
0.0
 47
0.1
 48
0.1
140
2.7999999999999989
141
0.0
142
0.0
143
0.0393701
144
1.0
145
0.0
146
0.71
147
1.5
 71
     0
 72
     0
 73
     0
 74
     1
 75
     0
 76
     0
 77
     3
 78
     8
170
     0
171
     2
172
     0
173
     0
174
     0
175
     0
176
   256
177
   256
178
    40
  0
DIMSTYLE
  2
TECHNICAL_OSAKA$6
 70
     0
  3

  4
"
  5
OPEN30
  6

  7

 40
1.0
 41
2.5
 42
1.0
 43
10.0
 44
1.0
 45
0.0
 46
0.0
 47
0.1
 48
0.1
140
2.7999999999999989
141
0.0
142
0.0
143
0.0393701
144
1.0
145
0.0
146
0.71
147
1.5
 71
     0
 72
     0
 73
     0
 74
     0
 75
     0
 76
     0
 77
     0
 78
     8
170
     0
171
     2
172
     1
173
     0
174
     0
175
     0
176
   256
177
   256
178
    40
  0
DIMSTYLE
  2
TECHNICAL_OSAKA$7
 70
     0
  3

  4
"
  5
OPEN30
  6

  7

 40
1.0
 41
2.5
 42
1.0
 43
10.0
 44
1.0
 45
0.0
 46
0.0
 47
0.1
 48
0.1
140
2.7999999999999989
141
0.0
142
0.0
143
0.0393701
144
1.0
145
0.0
146
0.71
147
1.5
 71
     0
 72
     0
 73
     0
 74
     0
 75
     0
 76
     0
 77
     3
 78
     8
170
     0
171
     2
172
     1
173
     0
174
     0
175
     0
176
   256
177
   256
178
    40
  0
DIMSTYLE
  2
TECHNICAL_OSAKA$SF
 70
     0
  3

  4
"
  5
OPEN30
  6
OPEN30
  7
OPEN30
 40
1.0
 41
2.5
 42
1.0
 43
10.0
 44
1.0
 45
0.0
 46
0.0
 47
0.1
 48
0.1
140
3.5
141
0.0
142
0.0
143
0.0393701
144
1.0
145
0.0
146
0.71
147
1.5
 71
     0
 72
     0
 73
     0
 74
     0
 75
     1
 76
     1
 77
     3
 78
     8
170
     0
171
     2
172
     1
173
     0
174
     0
175
     0
176
   256
177
   256
178
    40
  0
DIMSTYLE
  2
TECHNICAL_OSAKA$SH
 70
     0
  3

  4
"
  5
OPEN30
  6
GENAXEH
  7
OPEN30
 40
1.0
 41
2.5
 42
1.0
 43
10.0
 44
1.0
 45
0.0
 46
0.0
 47
0.1
 48
0.1
140
3.5
141
0.0
142
0.0
143
0.0393701
144
2.0
145
0.0
146
0.71
147
1.5
 71
     0
 72
     0
 73
     0
 74
     0
 75
     1
 76
     1
 77
     3
 78
     8
170
     0
171
     2
172
     1
173
     1
174
     0
175
     0
176
   256
177
   256
178
    40
  0
ENDTAB
  0
ENDSEC
  0
SECTION
  2
BLOCKS
  0
BLOCK
  8
0
  2
$MODEL_SPACE
 70
     0
 10
0.0
 20
0.0
 30
0.0
  3
$MODEL_SPACE
  1

  0
ENDBLK
  5
1C
  8
0
  0
BLOCK
 67
     1
  8
0
  2
$PAPER_SPACE
 70
     0
 10
0.0
 20
0.0
 30
0.0
  3
$PAPER_SPACE
  1

  0
ENDBLK
  5
19
 67
     1
  8
0
  0
BLOCK
  8
0
  2
_OPEN
 70
     0
 10
0.0
 20
0.0
 30
0.0
  3
_OPEN
  1

  0
LINE
  5
4B93
  8
0
  6
BYBLOCK
 62
     0
 10
-1.0
 20
0.1666666666666666
 30
0.0
 11
0.0
 21
0.0
 31
0.0
  0
LINE
  5
4B94
  8
0
  6
BYBLOCK
 62
     0
 10
-1.0
 20
-0.1666666666666666
 30
0.0
 11
0.0
 21
0.0
 31
0.0
  0
LINE
  5
4B95
  8
0
  6
BYBLOCK
 62
     0
 10
0.0
 20
0.0
 30
0.0
 11
-1.0
 21
0.0
 31
0.0
  0
ENDBLK
  5
4B96
  8
0
  0
BLOCK
  8
0
  2
GENAXEH
 70
     0
 10
0.0
 20
0.0
 30
0.0
  3
GENAXEH
  1

  0
LINE
  5
4BCE
  8
0
 10
-1.0
 20
0.0
 30
0.0
 11
1.0
 21
0.0
 31
0.0
  0
ENDBLK
  5
4BCF
  8
0
  0
BLOCK
  8
0
  2
_OPEN30
 70
     0
 10
0.0
 20
0.0
 30
0.0
  3
_OPEN30
  1

  0
LINE
  5
4C0A
  8
0
  6
BYBLOCK
 62
     0
 10
-1.0
 20
0.26794919
 30
0.0
 11
0.0
 21
0.0
 31
0.0
  0
LINE
  5
4C0B
  8
0
  6
BYBLOCK
 62
     0
 10
0.0
 20
0.0
 30
0.0
 11
-1.0
 21
-0.26794919
 31
0.0
  0
LINE
  5
4C0C
  8
0
  6
BYBLOCK
 62
     0
 10
0.0
 20
0.0
 30
0.0
 11
-1.0
 21
0.0
 31
0.0
  0
ENDBLK
  5
4C0D
  8
0
  0
BLOCK
  8
0
  2
*U22
 70
     1
 10
0.0
 20
0.0
 30
0.0
  3
*U22
  1

  0
TEXT
  5
4CAD
  8
240
 62
    40
 10
350.81584736630771
 20
110.157097411035
 30
0.0
 40
2.7999999999999989
  1
45\U+00B0
 50
22.499999999997279
  0
ENDBLK
  5
4CAF
  8
0
  0
BLOCK
  8
0
  2
*U23
 70
     1
 10
0.0
 20
0.0
 30
0.0
  3
*U23
  1

  0
TEXT
  5
4CB1
  8
240
 62
    40
 10
246.01584736630599
 20
-43.842902611492981
 30
0.0
 40
2.7999999999999989
  1
45\U+00B0
 50
22.499999999997279
  0
ENDBLK
  5
4CB3
  8
0
  0
BLOCK
  8
0
  2
*U24
 70
     1
 10
0.0
 20
0.0
 30
0.0
  3
*U24
  1

  0
TEXT
  5
4CB5
  8
240
 62
    40
 10
106.0
 20
64.000000000000014
 30
0.0
 40
2.7999999999999989
  1
220
  0
ENDBLK
  5
4CB7
  8
0
  0
BLOCK
  8
0
  2
*U25
 70
     1
 10
0.0
 20
0.0
 30
0.0
  3
*U25
  1

  0
TEXT
  5
4CB9
  8
240
 62
    40
 10
69.756354826196443
 20
16.333333312308248
 30
0.0
 40
2.7999999999999989
  1
38
 50
90.0
  0
ENDBLK
  5
4CBB
  8
0
  0
BLOCK
  8
0
  2
*U26
 70
     1
 10
0.0
 20
0.0
 30
0.0
  3
*U26
  1

  0
TEXT
  5
4CBD
  8
240
 62
    40
 10
272.00000000000011
 20
-3.93333333344478
 30
0.0
 40
2.7999999999999989
  1
\U+220576
 50
90.0
  0
ENDBLK
  5
4CBF
  8
0
  0
ENDSEC
  0
SECTION
  2
ENTITIES
  0
LINE
  5
424F
  8
245
  6
CENTER2
 10
-51.78893325440162
 20
-0.0000000000000711
 30
0.0
 11
259.85122740275011
 21
-0.0000000000000014
 31
0.0
1001
GRPNAME
1000
PASTMD3W
  0
ARC
  5
4250
  8
243
  6
HIDDEN2
 10
-9.4966925428961986
 20
-19.49999999999995
 30
0.0
 40
11.99999999805476
 50
270.00000005784239
 51
321.92687672764129
1001
GRPNAME
1000
PASTMD0M
  0
LINE
  5
4251
  8
243
  6
HIDDEN2
 10
-9.4966925428961986
 20
-31.499999999999961
 30
0.0
 11
-27.11662432702553
 21
-31.499999999999961
 31
0.0
1001
GRPNAME
1000
PASTMD0M
  0
LINE
  5
4252
  8
243
  6
HIDDEN2
 10
-30.003375672974471
 20
-26.499999999999961
 30
0.0
 11
-50.0
 21
-26.499999999999961
 31
0.0
1001
GRPNAME
1000
PASTMD0M
  0
LINE
  5
4253
  8
243
  6
HIDDEN2
 10
-30.003375672974471
 20
-26.499999999999961
 30
0.0
 11
-27.11662432702553
 21
-31.499999999999961
 31
0.0
1001
GRPNAME
1000
PASTMD0M
  0
LINE
  5
4254
  8
243
  6
HIDDEN2
 10
-35.0
 20
-36.249999999999957
 30
0.0
 11
-35.0
 21
-26.499999999999961
 31
0.0
1001
GRPNAME
1000
PASTMD0M
  0
LINE
  5
4255
  8
243
  6
HIDDEN2
 10
4.9999999999990878
 20
-49.999999999999957
 30
0.0
 11
4.9999999999990878
 21
-43.99999999999995
 31
0.0
1001
GRPNAME
1000
PASTMD0M
  0
LINE
  5
4256
  8
243
  6
HIDDEN2
 10
28.999999999999091
 20
-43.99999999999995
 30
0.0
 11
4.9999999999990878
 21
-43.99999999999995
 31
0.0
1001
GRPNAME
1000
PASTMD0M
  0
ARC
  5
4257
  8
243
  6
HIDDEN2
 10
-9.4966925428961986
 20
19.500000000000039
 30
0.0
 40
11.999999998054779
 50
38.073123330214379
 51
90.0
1001
GRPNAME
1000
PASTMD0M
  0
LINE
  5
4258
  8
243
  6
HIDDEN2
 10
-9.4966925428961986
 20
31.49999999805555
 30
0.0
 11
-27.116624326987509
 21
31.500000000065921
 31
0.0
1001
GRPNAME
1000
PASTMD0M
  0
LINE
  5
4259
  8
243
  6
HIDDEN2
 10
-40.0
 20
26.500000000000039
 30
0.0
 11
-40.0
 21
36.00000000000005
 31
0.0
1001
GRPNAME
1000
PASTMD0M
  0
LINE
  5
425A
  8
243
  6
HIDDEN2
 10
-30.003375672974471
 20
26.500000000000039
 30
0.0
 11
-27.116624326987509
 21
31.500000000065921
 31
0.0
1001
GRPNAME
1000
PASTMD0M
  0
LINE
  5
425B
  8
243
  6
HIDDEN2
 10
-30.003375672974471
 20
26.500000000000039
 30
0.0
 11
-50.0
 21
26.500000000000039
 31
0.0
1001
GRPNAME
1000
PASTMD0M
  0
LINE
  5
425C
  8
241
  6
CONTINUOUS
 10
23.24759526419075
 20
-49.999999999999957
 30
0.0
 11
23.24759526419075
 21
31.500000000000039
 31
0.0
1001
GRPNAME
1000
PASTMD0M
  0
LINE
  5
425D
  8
241
  6
CONTINUOUS
 10
16.752404735808341
 20
-49.999999999999957
 30
0.0
 11
16.752404735807659
 21
31.500000000000039
 31
0.0
1001
GRPNAME
1000
PASTMD0M
  0
LINE
  5
425E
  8
243
  6
HIDDEN2
 10
4.9999999999990878
 20
44.000000000000021
 30
0.0
 11
4.9999999999990878
 21
50.000000000000021
 31
0.0
1001
GRPNAME
1000
PASTMD0M
  0
LINE
  5
425F
  8
243
  6
HIDDEN2
 10
28.999999999999091
 20
44.000000000000021
 30
0.0
 11
4.9999999999990878
 21
44.000000000000021
 31
0.0
1001
GRPNAME
1000
PASTMD0M
  0
LINE
  5
4260
  8
240
  6
CONTINUOUS
 10
16.752404735808341
 20
-49.999999999999957
 30
0.0
 11
0.0
 21
-49.999999999999957
 31
0.0
1001
GRPNAME
1000
PASTMD0M
  0
LINE
  5
4261
  8
240
  6
CONTINUOUS
 10
28.999999999999091
 20
-49.999999999999957
 30
0.0
 11
23.24759526419075
 21
-49.999999999999957
 31
0.0
1001
GRPNAME
1000
PASTMD0M
  0
LINE
  5
4262
  8
240
  6
CONTINUOUS
 10
18.125
 20
-47.622595264191602
 30
0.0
 11
16.752404735808341
 21
-49.999999999999957
 31
0.0
1001
GRPNAME
1000
PASTMD0M
  0
LINE
  5
4263
  8
240
  6
CONTINUOUS
 10
21.87499999999908
 20
-47.622595264191602
 30
0.0
 11
23.24759526419075
 21
-49.999999999999957
 31
0.0
1001
GRPNAME
1000
PASTMD0M
  0
LINE
  5
4264
  8
241
  6
CONTINUOUS
 10
21.874999999999151
 20
31.500000000000039
 30
0.0
 11
21.87499999999898
 21
-45.999999999999957
 31
0.0
1001
GRPNAME
1000
PASTMD0M
  0
LINE
  5
4265
  8
240
  6
CONTINUOUS
 10
21.874999999998799
 20
-45.999999999999957
 30
0.0
 11
21.87499999999908
 21
-47.622595264191602
 31
0.0
1001
GRPNAME
1000
PASTMD0M
  0
LINE
  5
4266
  8
240
  6
CONTINUOUS
 10
21.874999999998799
 20
-45.999999999999957
 30
0.0
 11
18.124999999999702
 21
-45.999999999999957
 31
0.0
1001
GRPNAME
1000
PASTMD0M
  0
LINE
  5
4267
  8
241
  6
CONTINUOUS
 10
18.12500000000006
 20
31.500000000000039
 30
0.0
 11
18.124999999999879
 21
-45.999999999999957
 31
0.0
1001
GRPNAME
1000
PASTMD0M
  0
LINE
  5
4268
  8
240
  6
CONTINUOUS
 10
18.124999999999702
 20
-45.999999999999957
 30
0.0
 11
18.125
 21
-47.622595264191602
 31
0.0
1001
GRPNAME
1000
PASTMD0M
  0
LINE
  5
4269
  8
240
  6
CONTINUOUS
 10
0.0
 20
-49.999999999999957
 30
0.0
 11
0.0
 21
-37.999999999999602
 31
0.0
1001
GRPNAME
1000
PASTMD0M
  0
LINE
  5
426A
  8
241
  6
CONTINUOUS
 10
0.0
 20
-37.999999999999602
 30
0.0
 11
0.0000000000000284
 21
37.999999999999673
 31
0.0
1001
GRPNAME
1000
PASTMD0M
  0
LINE
  5
426B
  8
245
  6
CENTER2
 10
-15.0
 20
-37.899999999999601
 30
0.0
 11
-15.0
 21
-29.577193358162571
 31
0.0
1001
GRPNAME
1000
PASTMD0M
  0
LINE
  5
426C
  8
245
  6
CENTER2
 10
-15.0
 20
29.577193358162489
 30
0.0
 11
-15.0
 21
37.899999999999679
 31
0.0
1001
GRPNAME
1000
PASTMD0M
  0
LINE
  5
426D
  8
243
  6
HIDDEN2
 10
-9.0000000000000568
 20
-37.549999999999621
 30
0.0
 11
-9.0
 21
-31.48971627984352
 31
0.0
1001
GRPNAME
1000
PASTMD0M
  0
LINE
  5
426E
  8
243
  6
HIDDEN2
 10
-9.0
 20
31.489716279843648
 30
0.0
 11
-9.0
 21
37.54999999999967
 31
0.0
1001
GRPNAME
1000
PASTMD0M
  0
LINE
  5
426F
  8
243
  6
HIDDEN2
 10
-21.0
 20
-36.949999999999669
 30
0.0
 11
-21.0
 21
-31.499999999999961
 31
0.0
1001
GRPNAME
1000
PASTMD0M
  0
LINE
  5
4270
  8
243
  6
HIDDEN2
 10
-21.0
 20
31.499999999368061
 30
0.0
 11
-21.0
 21
36.949999999999747
 31
0.0
1001
GRPNAME
1000
PASTMD0M
  0
LINE
  5
4271
  8
240
  6
CONTINUOUS
 10
0.0
 20
-37.999999999999602
 30
0.0
 11
-50.0
 21
-35.49999999999973
 31
0.0
1001
GRPNAME
1000
PASTMD0M
  0
LINE
  5
4272
  8
240
  6
CONTINUOUS
 10
28.999999999999091
 20
-49.999999999999957
 30
0.0
 11
28.999999999999091
 21
-42.50000000000005
 31
0.0
1001
GRPNAME
1000
PASTMD0M
  0
LINE
  5
4273
  8
241
  6
CONTINUOUS
 10
28.999999999999091
 20
-42.499999999998792
 30
0.0
 11
28.999999999999091
 21
42.500000000000021
 31
0.0
1001
GRPNAME
1000
PASTMD0M
  0
ARC
  5
4274
  8
241
  6
CONTINUOUS
 10
14.636897857918941
 20
28.8297566260715
 30
0.0
 40
10.0
 50
90.0
 51
164.51272597362981
  0
LINE
  5
4275
  8
241
  6
CONTINUOUS
 10
4.9999999999990878
 20
31.500000000000039
 30
0.0
 11
28.999999999999091
 21
31.500000000000039
 31
0.0
  0
LINE
  5
4276
  8
241
  6
CONTINUOUS
 10
18.124999999999321
 20
33.50000000000005
 30
0.0
 11
18.124999999999702
 21
46.000000000000043
 31
0.0
1001
GRPNAME
1000
PASTMD0M
  0
LINE
  5
4277
  8
241
  6
CONTINUOUS
 10
18.124999999999321
 20
33.50000000000005
 30
0.0
 11
21.874999999999321
 21
33.50000000000005
 31
0.0
  0
LINE
  5
4278
  8
241
  6
CONTINUOUS
 10
21.874999999999321
 20
33.50000000000005
 30
0.0
 11
21.874999999999321
 21
46.000000000000043
 31
0.0
1001
GRPNAME
1000
PASTMD0M
  0
LINE
  5
4279
  8
241
  6
CONTINUOUS
 10
16.752404735807659
 20
38.8297566260715
 30
0.0
 11
16.752404735807659
 21
50.000000000000021
 31
0.0
1001
GRPNAME
1000
PASTMD0M
  0
LINE
  5
427A
  8
241
  6
CONTINUOUS
 10
23.24759526419075
 20
38.8297566260715
 30
0.0
 11
23.24759526419075
 21
50.000000000000021
 31
0.0
1001
GRPNAME
1000
PASTMD0M
  0
LINE
  5
427B
  8
241
  6
CONTINUOUS
 10
18.124999999999321
 20
36.45235189026338
 30
0.0
 11
16.752404735807879
 21
38.8297566260715
 31
0.0
  0
LINE
  5
427C
  8
241
  6
CONTINUOUS
 10
21.874999999999321
 20
36.452351890263621
 30
0.0
 11
23.24759526419075
 21
38.8297566260715
 31
0.0
  0
LINE
  5
427D
  8
241
  6
CONTINUOUS
 10
14.636897857918941
 20
38.8297566260715
 30
0.0
 11
16.752404735807659
 21
38.8297566260715
 31
0.0
  0
LINE
  5
427E
  8
241
  6
CONTINUOUS
 10
23.24759526419075
 20
38.8297566260715
 30
0.0
 11
28.999999999999091
 21
38.8297566260715
 31
0.0
  0
LINE
  5
427F
  8
240
  6
CONTINUOUS
 10
16.752404735808341
 20
50.000000000000021
 30
0.0
 11
0.0
 21
50.000000000000021
 31
0.0
1001
GRPNAME
1000
PASTMD0M
  0
LINE
  5
4280
  8
240
  6
CONTINUOUS
 10
28.999999999999091
 20
50.000000000000021
 30
0.0
 11
23.24759526419075
 21
50.000000000000021
 31
0.0
1001
GRPNAME
1000
PASTMD0M
  0
LINE
  5
4281
  8
240
  6
CONTINUOUS
 10
18.125
 20
47.622595264191702
 30
0.0
 11
16.752404735808341
 21
50.000000000000021
 31
0.0
1001
GRPNAME
1000
PASTMD0M
  0
LINE
  5
4282
  8
240
  6
CONTINUOUS
 10
21.87499999999908
 20
47.622595264191702
 30
0.0
 11
23.24759526419075
 21
50.000000000000021
 31
0.0
1001
GRPNAME
1000
PASTMD0M
  0
LINE
  5
4283
  8
240
  6
CONTINUOUS
 10
21.874999999998799
 20
46.000000000000043
 30
0.0
 11
21.87499999999908
 21
47.622595264191702
 31
0.0
1001
GRPNAME
1000
PASTMD0M
  0
LINE
  5
4284
  8
240
  6
CONTINUOUS
 10
21.874999999998799
 20
46.000000000000043
 30
0.0
 11
18.124999999999702
 21
46.000000000000043
 31
0.0
1001
GRPNAME
1000
PASTMD0M
  0
LINE
  5
4285
  8
240
  6
CONTINUOUS
 10
18.124999999999702
 20
46.000000000000043
 30
0.0
 11
18.125
 21
47.622595264191702
 31
0.0
1001
GRPNAME
1000
PASTMD0M
  0
LINE
  5
4286
  8
240
  6
CONTINUOUS
 10
-50.0
 20
35.499999999999829
 30
0.0
 11
-50.0
 21
-35.49999999999973
 31
0.0
1001
GRPNAME
1000
PASTMD0M
  0
LINE
  5
4287
  8
240
  6
CONTINUOUS
 10
0.0
 20
50.000000000000021
 30
0.0
 11
0.0
 21
37.999999999999673
 31
0.0
1001
GRPNAME
1000
PASTMD0M
  0
LINE
  5
4288
  8
240
  6
CONTINUOUS
 10
0.0
 20
37.999999999999673
 30
0.0
 11
-50.0
 21
35.499999999999829
 31
0.0
1001
GRPNAME
1000
PASTMD0M
  0
LINE
  5
4289
  8
240
  6
CONTINUOUS
 10
28.999999999999091
 20
50.000000000000021
 30
0.0
 11
28.999999999999091
 21
42.49999999999995
 31
0.0
1001
GRPNAME
1000
PASTMD0M
  0
LINE
  5
428C
  8
247
  6
CONTINUOUS
 10
9.9999999999999432
 20
-26.250000000070049
 30
0.0
 11
9.9999999999999432
 21
-19.557692308030042
 31
0.0
  0
ARC
  5
428D
  8
247
  6
CONTINUOUS
 10
8.2500000000699174
 20
-26.250000000070049
 30
0.0
 40
1.7499999999299991
 50
180.0
 51
0.0
  0
ARC
  5
428E
  8
247
  6
CONTINUOUS
 10
8.2500000000699174
 20
-19.557692308030042
 30
0.0
 40
1.7499999999299991
 50
0.0
 51
180.0
  0
LINE
  5
428F
  8
247
  6
CONTINUOUS
 10
6.5000000001399458
 20
-25.384615384720021
 30
0.0
 11
9.500000000019952
 21
-26.244851541962039
 31
0.0
  0
LINE
  5
4290
  8
247
  6
CONTINUOUS
 10
7.9230769231599529
 20
-24.484983818335841
 30
0.0
 11
7.9230769231599529
 21
-25.792676125975859
 31
0.0
  0
ARC
  5
4291
  8
247
  6
CONTINUOUS
 10
7.049598667702921
 20
-24.145143816089799
 30
0.0
 40
0.5538165441895349
 50
72.99788967529534
 51
172.92416621851359
  0
ARC
  5
4292
  8
247
  6
CONTINUOUS
 10
6.9360330444657139
 20
-24.566878323028799
 30
0.0
 40
0.9904354236226808
 50
4.7429368522022122
 51
73.849226273266424
1001
GENIUS_GENOBJ-N-FIL_13
1002
{
1000
OWNER
1000
GEN
1002
}
1001
GENIUS_GENODEF_13
1002
{
1000
HIER
1070
     0
1002
}
1002
{
1000
MANEDIT
1070
     0
1002
}
1002
{
1000
NOSEL
1070
     0
1002
}
1002
{
1000
BEHIND
1070
     0
1002
}
1002
{
1000
OTHER
1070
     0
1002
}
1002
{
1000
REACTOR
1002
}
  0
LINE
  5
4293
  8
247
  6
CONTINUOUS
 10
9.500000000019952
 20
-24.937159234322021
 30
0.0
 11
9.500000000019952
 21
-26.244851541962039
 31
0.0
  0
LINE
  5
4294
  8
247
  6
CONTINUOUS
 10
6.5000000001399458
 20
-25.384615384720021
 30
0.0
 11
6.5000000001399458
 21
-24.07692307708
 31
0.0
  0
ARC
  5
4295
  8
247
  6
CONTINUOUS
 10
8.4820242326654807
 20
-24.560919636546959
 30
0.0
 40
0.5640818586791229
 50
65.990941652528889
 51
172.26344345906909
  0
ARC
  5
4296
  8
247
  6
CONTINUOUS
 10
8.4874290391865088
 20
-25.03826268534711
 30
0.0
 40
1.0176059446230981
 50
5.7019851642564632
 51
77.277338436822191
1001
GENIUS_GENOBJ-N-FIL_13
1002
{
1000
OWNER
1000
GEN
1002
}
1001
GENIUS_GENODEF_13
1002
{
1000
HIER
1070
     0
1002
}
1002
{
1000
MANEDIT
1070
     0
1002
}
1002
{
1000
NOSEL
1070
     0
1002
}
1002
{
1000
BEHIND
1070
     0
1002
}
1002
{
1000
OTHER
1070
     0
1002
}
1002
{
1000
REACTOR
1002
}
  0
LINE
  5
4297
  8
247
  6
CONTINUOUS
 10
9.500000000019952
 20
-23.28331308054204
 30
0.0
 11
6.5000000001399458
 21
-22.42307692330003
 31
0.0
  0
LINE
  5
4298
  8
247
  6
CONTINUOUS
 10
6.5000000001399458
 20
-20.000000000319989
 30
0.0
 11
6.5000000001399458
 21
-20.56573661945659
 31
0.0
  0
LINE
  5
4299
  8
247
  6
CONTINUOUS
 10
9.500000000019952
 20
-21.4615384618
 30
0.0
 11
9.500000000019952
 21
-20.846153846440028
 31
0.0
  0
ARC
  5
429A
  8
247
  6
CONTINUOUS
 10
8.5832851359733127
 20
-19.708791209122879
 30
0.0
 40
2.2526500823422122
 50
202.3594881415259
 51
254.99324854284609
  0
ARC
  5
429B
  8
247
  6
CONTINUOUS
 10
7.3083126551944702
 20
-20.37406947921324
 30
0.0
 40
0.8906723995727782
 50
94.994589319075374
 51
155.1663289573039
1001
GENIUS_GENOBJ-N-FIL_13
1002
{
1000
OWNER
1000
GEN
1002
}
1001
GENIUS_GENODEF_13
1002
{
1000
HIER
1070
     0
1002
}
1002
{
1000
MANEDIT
1070
     0
1002
}
1002
{
1000
NOSEL
1070
     0
1002
}
1002
{
1000
BEHIND
1070
     0
1002
}
1002
{
1000
OTHER
1070
     0
1002
}
1002
{
1000
REACTOR
1002
}
  0
ARC
  5
429C
  8
247
  6
CONTINUOUS
 10
8.1601458886677278
 20
-21.226458886212601
 30
0.0
 40
1.392781735586712
 50
15.8460965557808
 51
82.325137004169122
  0
ARC
  5
429D
  8
247
  6
CONTINUOUS
 10
8.4592434315272271
 20
-20.642212725840359
 30
0.0
 40
1.324563662670287
 50
249.7136016704969
 51
321.78874565640632
1001
GENIUS_GENOBJ-N-FIL_13
1002
{
1000
OWNER
1000
GEN
1002
}
1001
GENIUS_GENODEF_13
1002
{
1000
HIER
1070
     0
1002
}
1002
{
1000
MANEDIT
1070
     0
1002
}
1002
{
1000
NOSEL
1070
     0
1002
}
1002
{
1000
BEHIND
1070
     0
1002
}
1002
{
1000
OTHER
1070
     0
1002
}
1002
{
1000
REACTOR
1002
}
  0
LINE
  5
429E
  8
247
  6
CONTINUOUS
 10
8.3461538462199201
 20
-20.538461538759989
 30
0.0
 11
8.3461538462199201
 21
-19.846153846479989
 31
0.0
  0
LINE
  5
429F
  8
250
  6
CONTINUOUS
 10
-32.935905670000011
 20
-48.713341000781
 30
0.0
 11
-59.86923900000005
 21
-48.713341000781
 31
0.0
1001
ITEMNAME
1000
LNSP2
  0
TEXT
  5
42A0
  8
250
  6
CONTINUOUS
 10
-57.602572333333342
 20
-47.713341000780993
 30
0.0
 40
2.799999999999998
  1
HSK-A100
  7
YOKO
1001
ITEMNAME
1000
LNSP3
1001
ACAD
1000
MTEXTBEGIN
1070
    73
1070
     1
1070
    44
1040
1.0
1070
    74
1070
     0
1000
MTEXTEND
  0
LINE
  5
42A1
  8
250
  6
CONTINUOUS
 10
-27.000000001057909
 20
-38.432050807739088
 30
0.0
 11
-32.935905670000011
 21
-48.713341000781
 31
0.0
1001
ACAD
1000
DSTYLE
1002
{
1070
     6
1000
OPEN
1070
    41
1040
2.0
1070
    42
1040
2.0
1070
    44
1040
2.0
1070
   140
1040
4.0
1070
   343
1005
0
1002
}
  0
LINE
  5
42A2
  8
250
  6
CONTINUOUS
 10
-27.288675135550928
 20
-38.265384140896131
 30
0.0
 11
-26.0
 21
-36.700000000780967
 31
0.0
  0
LINE
  5
42A3
  8
250
  6
CONTINUOUS
 10
-26.71132486656489
 20
-38.598717474582067
 30
0.0
 11
-26.0
 21
-36.700000000780967
 31
0.0
  0
LINE
  5
42A4
  8
250
  6
CONTINUOUS
 10
-26.0
 20
-36.700000000780967
 30
0.0
 11
-27.000000001057909
 21
-38.432050807739088
 31
0.0
  0
LINE
  5
42A5
  8
247
  6
CONTINUOUS
 10
6.500000000139889
 20
-26.250000000070049
 30
0.0
 11
6.500000000139889
 21
-25.576923077020052
 31
0.0
  0
TEXT
  5
42A6
  8
241
  6
CONTINUOUS
 10
-97.999999999999986
 20
77.000000000000014
 30
0.0
 40
4.0
  1
HSK-A100-SDF57-76-220
  7
YOKO
  0
LINE
  5
4327
  8
240
  6
CONTINUOUS
 10
220.0
 20
37.999999999999993
 30
0.0
 11
220.0
 21
28.499999999999972
 31
0.0
  0
LINE
  5
4328
  8
240
  6
CONTINUOUS
 10
224.0000000000102
 20
-28.500000000001471
 30
0.0
 11
225.5000000000087
 21
-30.00000000000005
 31
0.0
  0
LINE
  5
4329
  8
240
  6
CONTINUOUS
 10
225.5000000000087
 20
-30.000000000000082
 30
0.0
 11
239.20000000001011
 21
-30.00000000000005
 31
0.0
  0
LINE
  5
432A
  8
240
  6
CONTINUOUS
 10
239.20000000001031
 20
-30.00000000000005
 30
0.0
 11
241.0000000000102
 21
-28.200000000000038
 31
0.0
  0
LINE
  5
432B
  8
240
  6
CONTINUOUS
 10
243.0000000000102
 20
-28.200000000000038
 30
0.0
 11
243.30000000001019
 21
-28.50000000000005
 31
0.0
  0
LINE
  5
432C
  8
240
  6
CONTINUOUS
 10
243.30000000001019
 20
-28.50000000000005
 30
0.0
 11
258.00000000001
 21
-28.50000000000005
 31
0.0
  0
LINE
  5
432D
  8
240
  6
CONTINUOUS
 10
220.0000000000102
 20
-28.50000000000005
 30
0.0
 11
224.00000000000881
 21
-28.500000000000071
 31
0.0
  0
LINE
  5
432E
  8
240
  6
CONTINUOUS
 10
224.00000000001049
 20
28.500000000001311
 30
0.0
 11
220.0
 21
28.499999999999972
 31
0.0
  0
LINE
  5
432F
  8
240
  6
CONTINUOUS
 10
241.0000000000102
 20
-28.200000000000038
 30
0.0
 11
243.0000000000102
 21
-28.200000000000038
 31
0.0
  0
LINE
  5
4330
  8
241
  6
CONTINUOUS
 10
225.5000000000087
 20
-30.00000000000005
 30
0.0
 11
225.50000000000881
 21
30.000000000000011
 31
0.0
  0
LINE
  5
4331
  8
241
  6
CONTINUOUS
 10
224.0000000000102
 20
-28.500000000001471
 30
0.0
 11
224.0000000000102
 21
28.500000000001311
 31
0.0
  0
LINE
  5
4332
  8
241
  6
CONTINUOUS
 10
239.20000000001011
 20
-30.00000000000005
 30
0.0
 11
239.20000000001011
 21
30.000000000000028
 31
0.0
  0
LINE
  5
4333
  8
241
  6
CONTINUOUS
 10
241.0000000000102
 20
-28.200000000000038
 30
0.0
 11
241.0000000000102
 21
28.199999999999971
 31
0.0
  0
LINE
  5
4334
  8
240
  6
CONTINUOUS
 10
258.00000000001
 20
28.500000000000028
 30
0.0
 11
258.00000000001
 21
-28.50000000000005
 31
0.0
  0
LINE
  5
4335
  8
241
  6
CONTINUOUS
 10
219.99999999998971
 20
28.499999999999972
 30
0.0
 11
220.0000000000104
 21
-28.50000000000005
 31
0.0
  0
LINE
  5
4336
  8
242
  6
CONTINUOUS
 10
240.20000000001039
 20
-28.999999999999911
 30
0.0
 11
224.50000000000881
 21
-29.000000000000011
 31
0.0
  0
LINE
  5
4337
  8
241
  6
CONTINUOUS
 10
243.0000000000102
 20
-28.200000000001491
 30
0.0
 11
243.0000000000102
 21
28.199999999999971
 31
0.0
  0
LINE
  5
4338
  8
240
  6
CONTINUOUS
 10
243.0000000000102
 20
28.199999999999971
 30
0.0
 11
243.30000000001019
 21
28.500000000000028
 31
0.0
  0
LINE
  5
4339
  8
240
  6
CONTINUOUS
 10
243.30000000001019
 20
28.500000000000028
 30
0.0
 11
258.00000000001
 21
28.500000000000028
 31
0.0
  0
LINE
  5
433A
  8
240
  6
CONTINUOUS
 10
241.0000000000102
 20
28.199999999999971
 30
0.0
 11
243.0000000000102
 21
28.199999999999971
 31
0.0
  0
LINE
  5
433B
  8
242
  6
CONTINUOUS
 10
240.20000000001039
 20
28.999999999999861
 30
0.0
 11
224.50000000000921
 21
29.00000000000006
 31
0.0
  0
LINE
  5
433C
  8
240
  6
CONTINUOUS
 10
224.0000000000102
 20
28.500000000001059
 30
0.0
 11
225.5000000000087
 21
29.999999999999691
 31
0.0
  0
LINE
  5
433D
  8
240
  6
CONTINUOUS
 10
225.50000000000901
 20
30.0
 30
0.0
 11
239.20000000001011
 21
30.000000000000028
 31
0.0
  0
LINE
  5
433E
  8
240
  6
CONTINUOUS
 10
239.20000000001031
 20
30.000000000000028
 30
0.0
 11
241.0000000000102
 21
28.199999999999971
 31
0.0
  0
LINE
  5
4342
  8
240
  6
CONTINUOUS
 10
220.0
 20
-38.000000000000007
 30
0.0
 11
220.0
 21
-28.50000000000005
 31
0.0
  0
LINE
  5
4368
  8
240
  6
CONTINUOUS
 10
36.999999999999872
 20
-41.000000000000043
 30
0.0
 11
36.999999999999872
 21
-42.50000000000005
 31
0.0
  0
LINE
  5
436A
  8
241
  6
CONTINUOUS
 10
36.999999999999872
 20
40.999999866946723
 30
0.0
 11
37.00000014310762
 21
-40.999999821901078
 31
0.0
  0
LINE
  5
436B
  8
240
  6
CONTINUOUS
 10
36.999999999999872
 20
40.99999999999995
 30
0.0
 11
36.999999999999872
 21
42.49999999999995
 31
0.0
  0
LINE
  5
481F
  8
240
  6
CONTINUOUS
 10
28.999999999999091
 20
-42.50000000000005
 30
0.0
 11
36.999999999999872
 21
-42.50000000000005
 31
0.0
1001
GRPNAME
1000
PASTMD3W
  0
LINE
  5
4820
  8
240
  6
CONTINUOUS
 10
28.999999999999091
 20
42.49999999999995
 30
0.0
 11
36.999999999999872
 21
42.49999999999995
 31
0.0
1001
GRPNAME
1000
PASTMD3W
  0
LINE
  5
4821
  8
240
  6
CONTINUOUS
 10
39.999999999999872
 20
-38.00000000000005
 30
0.0
 11
220.0
 21
-38.000000000000007
 31
0.0
1001
GRPNAME
1000
PASTMD3W
  0
LINE
  5
4822
  8
240
  6
CONTINUOUS
 10
39.999999999999872
 20
37.99999999999995
 30
0.0
 11
220.0
 21
37.999999999999993
 31
0.0
1001
GRPNAME
1000
PASTMD3W
  0
ARC
  5
48C7
  8
240
  6
CONTINUOUS
 10
39.999999999999872
 20
40.99999999999995
 30
0.0
 40
3.0
 50
180.0
 51
270.0
1001
GRPNAME
1000
PASTMD3W
1001
GENIUS_GENODEF_13
1002
{
1000
HIER
1070
     0
1002
}
1002
{
1000
MANEDIT
1070
     0
1002
}
1002
{
1000
NOSEL
1070
     0
1002
}
1002
{
1000
BEHIND
1070
     0
1002
}
1002
{
1000
OTHER
1070
     0
1002
}
1002
{
1000
REACTOR
1002
}
1001
GENIUS_GENOBJ-N-FIL_13
1002
{
1000
OWNER
1000
GEN
1002
}
  0
ARC
  5
48C8
  8
240
  6
CONTINUOUS
 10
39.999999999999872
 20
-41.000000000000043
 30
0.0
 40
3.0
 50
90.000000000000028
 51
180.0
1001
GENIUS_GENOBJ-N-FIL_13
1002
{
1000
OWNER
1000
GEN
1002
}
1001
GENIUS_GENODEF_13
1002
{
1000
HIER
1070
     0
1002
}
1002
{
1000
MANEDIT
1070
     0
1002
}
1002
{
1000
NOSEL
1070
     0
1002
}
1002
{
1000
BEHIND
1070
     0
1002
}
1002
{
1000
OTHER
1070
     0
1002
}
1002
{
1000
REACTOR
1002
}
  0
LINE
  5
4ABB
  8
250
  6
CONTINUOUS
 10
220.5
 20
37.999999999777053
 30
0.0
 11
274.0
 21
37.999999999777032
 31
0.0
  0
LINE
  5
4ABC
  8
250
  6
CONTINUOUS
 10
220.5
 20
-38.000000000000007
 30
0.0
 11
274.0
 21
-38.000000000000021
 31
0.0
  0
LINE
  5
4ABD
  8
250
  6
CONTINUOUS
 10
273.0
 20
35.769999999777042
 30
0.0
 11
273.0
 21
-35.770000000000032
 31
0.0
  0
LINE
  5
4AC1
  8
250
  6
CONTINUOUS
 10
0.0
 20
50.500000000000021
 30
0.0
 11
0.0000000000000009
 21
64.0
 31
0.0
  0
LINE
  5
4AC2
  8
250
  6
CONTINUOUS
 10
220.0
 20
38.499999999777039
 30
0.0
 11
220.0
 21
64.0
 31
0.0
  0
LINE
  5
4AC3
  8
250
  6
CONTINUOUS
 10
2.23
 20
63.0
 30
0.0
 11
217.77000000000001
 21
63.0
 31
0.0
  0
TEXT
  5
4AC7
  8
250
  6
CONTINUOUS
 10
272.00000000000011
 20
-3.93333333344478
 30
0.0
 40
2.7999999999999989
  1
\U+220576
 50
90.0
  0
LINE
  5
4AC8
  8
250
  6
CONTINUOUS
 10
273.37166666666673
 20
-35.770000000000032
 30
0.0
 11
273.0
 21
-38.000000000000021
 31
0.0
  0
LINE
  5
4AC9
  8
250
  6
CONTINUOUS
 10
272.62833333333327
 20
-35.770000000000032
 30
0.0
 11
273.0
 21
-38.000000000000021
 31
0.0
  0
LINE
  5
4ACA
  8
250
  6
CONTINUOUS
 10
273.0
 20
-38.000000000000021
 30
0.0
 11
273.0
 21
-35.770000000000032
 31
0.0
  0
LINE
  5
4ACB
  8
250
  6
CONTINUOUS
 10
272.62833333333327
 20
35.769999999777042
 30
0.0
 11
273.0
 21
37.999999999777032
 31
0.0
  0
LINE
  5
4ACC
  8
250
  6
CONTINUOUS
 10
273.37166666666673
 20
35.769999999777042
 30
0.0
 11
273.0
 21
37.999999999777032
 31
0.0
  0
LINE
  5
4ACD
  8
250
  6
CONTINUOUS
 10
273.0
 20
37.999999999777032
 30
0.0
 11
273.0
 21
35.769999999777042
 31
0.0
  0
TEXT
  5
4ACE
  8
250
  6
CONTINUOUS
 10
106.0
 20
64.000000000000014
 30
0.0
 40
2.7999999999999989
  1
220
  0
LINE
  5
4ACF
  8
250
  6
CONTINUOUS
 10
217.77000000000001
 20
63.37166666666667
 30
0.0
 11
220.0
 21
63.0
 31
0.0
  0
LINE
  5
4AD0
  8
250
  6
CONTINUOUS
 10
217.77000000000001
 20
62.62833333333333
 30
0.0
 11
220.0
 21
63.0
 31
0.0
  0
LINE
  5
4AD1
  8
250
  6
CONTINUOUS
 10
220.0
 20
63.0
 30
0.0
 11
217.77000000000001
 21
63.0
 31
0.0
  0
LINE
  5
4AD2
  8
250
  6
CONTINUOUS
 10
2.23
 20
62.62833333333333
 30
0.0
 11
0.0000000000000008
 21
63.0
 31
0.0
  0
LINE
  5
4AD3
  8
250
  6
CONTINUOUS
 10
2.23
 20
63.37166666666667
 30
0.0
 11
0.0000000000000008
 21
63.0
 31
0.0
  0
LINE
  5
4AD4
  8
250
  6
CONTINUOUS
 10
0.0000000000000008
 20
63.0
 30
0.0
 11
2.23
 21
63.0
 31
0.0
  0
VIEWPORT
  5
22
 67
     1
  8
0
 10
261.51769911504419
 20
148.5
 30
0.0
 40
523.0353982300885
 41
297.0
 68
     1
 69
     1
1001
ACAD
1000
MVIEW
1002
{
1070
    16
1010
0.0
1020
0.0
1030
0.0
1010
0.0
1020
0.0
1030
1.0
1040
0.0
1040
297.0
1040
261.51769911504419
1040
148.5
1040
50.0
1040
0.0
1040
0.0
1070
     0
1070
   100
1070
     1
1070
     1
1070
     0
1070
     0
1070
     0
1070
     0
1040
0.0
1040
0.0
1040
0.0
1040
1.0
1040
1.0
1040
10.0
1040
10.0
1070
     0
1002
{
1002
}
1002
}
1001
GENIUS_GENODEF_13
1002
{
1000
HIER
1070
     0
1002
}
1002
{
1000
MANEDIT
1070
     0
1002
}
1002
{
1000
NOSEL
1070
     0
1002
}
1002
{
1000
BEHIND
1070
     0
1002
}
1002
{
1000
OTHER
1070
     0
1002
}
1002
{
1000
REACTOR
1002
}
1001
GENIUS_GENOBJ-N-SDF_13
1002
{
1000
OWNER
1000
GEN
1002
}
1001
GENIUS_GENSCREG_15
1000
PF
1040
1.0
1000
DF
1040
1.0
1000
MIN
1011
0.0
1021
0.0
1031
0.0
1021
0.0
1031
0.0
1000
MAX
1011
523.0353982300885
1021
0.0
1031
0.0
1021
297.0
1031
0.0
1000
FLAGS
1070
     4
  0
ENDSEC
  0
EOF
