  0
SECTION
  2
HEADER
  9
$ACADVER
  1
AC1009
  9
$INSBASE
 10
0.0
 20
0.0
 30
0.0
  9
$EXTMIN
 10
-55.299703690000001
 20
-51.120678005542793
 30
0.0
  9
$EXTMAX
 10
275.0
 20
81.999999999998025
 30
0.0
  9
$LIMMIN
 10
0.0
 20
0.0
  9
$LIMMAX
 10
297.0
 20
210.0
  9
$ORTHOMODE
 70
     1
  9
$REGENMODE
 70
     1
  9
$FILLMODE
 70
     1
  9
$QTEXTMODE
 70
     0
  9
$MIRRTEXT
 70
     1
  9
$DRAGMODE
 70
     2
  9
$LTSCALE
 40
10.0
  9
$OSMODE
 70
    39
  9
$ATTMODE
 70
     1
  9
$TEXTSIZE
 40
3.0
  9
$TRACEWID
 40
1.0
  9
$TEXTSTYLE
  7
YOKO
  9
$CLAYER
  8
240
  9
$CELTYPE
  6
BYLAYER
  9
$CECOLOR
 62
   256
  9
$DIMSCALE
 40
1.0
  9
$DIMASZ
 40
2.2299999999999991
  9
$DIMEXO
 40
0.5
  9
$DIMDLI
 40
7.0
  9
$DIMRND
 40
0.0
  9
$DIMDLE
 40
0.0
  9
$DIMEXE
 40
1.0
  9
$DIMTP
 40
0.0
  9
$DIMTM
 40
0.01
  9
$DIMTXT
 40
2.799999999999998
  9
$DIMCEN
 40
0.0
  9
$DIMTSZ
 40
0.0
  9
$DIMTOL
 70
     0
  9
$DIMLIM
 70
     0
  9
$DIMTIH
 70
     0
  9
$DIMTOH
 70
     0
  9
$DIMSE1
 70
     0
  9
$DIMSE2
 70
     0
  9
$DIMTAD
 70
     3
  9
$DIMZIN
 70
     9
  9
$DIMBLK
  1
OPEN
  9
$DIMASO
 70
     1
  9
$DIMSHO
 70
     1
  9
$DIMPOST
  1

  9
$DIMAPOST
  1

  9
$DIMALT
 70
     0
  9
$DIMALTD
 70
     2
  9
$DIMALTF
 40
25.399999999999999
  9
$DIMLFAC
 40
1.0
  9
$DIMTOFL
 70
     1
  9
$DIMTVP
 40
0.0
  9
$DIMTIX
 70
     1
  9
$DIMSOXD
 70
     0
  9
$DIMSAH
 70
     0
  9
$DIMBLK1
  1

  9
$DIMBLK2
  1

  9
$DIMSTYLE
  2
BIGT
  9
$DIMCLRD
 70
   256
  9
$DIMCLRE
 70
   256
  9
$DIMCLRT
 70
    40
  9
$DIMTFAC
 40
1.0
  9
$DIMGAP
 40
1.0
  9
$LUNITS
 70
     2
  9
$LUPREC
 70
     3
  9
$SKETCHINC
 40
1.0
  9
$FILLETRAD
 40
1.0
  9
$AUNITS
 70
     0
  9
$AUPREC
 70
     3
  9
$MENU
  1
.
  9
$ELEVATION
 40
0.0
  9
$PELEVATION
 40
0.0
  9
$THICKNESS
 40
0.0
  9
$LIMCHECK
 70
     0
  9
$BLIPMODE
 70
     0
  9
$CHAMFERA
 40
0.25
  9
$CHAMFERB
 40
0.25
  9
$SKPOLY
 70
     0
  9
$TDCREATE
 40
2456584.675777188
  9
$TDUPDATE
 40
2456584.6995303128
  9
$TDINDWG
 40
0.0176885185
  9
$TDUSRTIMER
 40
0.0176885185
  9
$USRTIMER
 70
     1
  9
$ANGBASE
 50
0.0
  9
$ANGDIR
 70
     0
  9
$PDMODE
 70
     1
  9
$PDSIZE
 40
0.0
  9
$PLINEWID
 40
0.0
  9
$COORDS
 70
     2
  9
$SPLFRAME
 70
     0
  9
$SPLINETYPE
 70
     6
  9
$SPLINESEGS
 70
     4
  9
$ATTDIA
 70
     1
  9
$ATTREQ
 70
     1
  9
$HANDLING
 70
     1
  9
$HANDSEED
  5
18FE
  9
$SURFTAB1
 70
     6
  9
$SURFTAB2
 70
     6
  9
$SURFTYPE
 70
     6
  9
$SURFU
 70
     6
  9
$SURFV
 70
     6
  9
$UCSNAME
  2

  9
$UCSORG
 10
0.0
 20
0.0
 30
0.0
  9
$UCSXDIR
 10
1.0
 20
0.0
 30
0.0
  9
$UCSYDIR
 10
0.0
 20
1.0
 30
0.0
  9
$PUCSNAME
  2

  9
$PUCSORG
 10
0.0
 20
0.0
 30
0.0
  9
$PUCSXDIR
 10
1.0
 20
0.0
 30
0.0
  9
$PUCSYDIR
 10
0.0
 20
1.0
 30
0.0
  9
$USERI1
 70
     1
  9
$USERI2
 70
     0
  9
$USERI3
 70
     0
  9
$USERI4
 70
     0
  9
$USERI5
 70
     0
  9
$USERR1
 40
0.0
  9
$USERR2
 40
0.0
  9
$USERR3
 40
0.0
  9
$USERR4
 40
0.0
  9
$USERR5
 40
0.0
  9
$WORLDVIEW
 70
     1
  9
$SHADEDGE
 70
     3
  9
$SHADEDIF
 70
    70
  9
$TILEMODE
 70
     1
  9
$MAXACTVP
 70
    16
  9
$PLIMCHECK
 70
     0
  9
$PEXTMIN
 10
1.0000000000000000E+020
 20
1.0000000000000000E+020
 30
1.0000000000000000E+020
  9
$PEXTMAX
 10
-1.0000000000000000E+020
 20
-1.0000000000000000E+020
 30
-1.0000000000000000E+020
  9
$PLIMMIN
 10
0.0
 20
0.0
  9
$PLIMMAX
 10
420.0
 20
297.0
  9
$UNITMODE
 70
     0
  9
$VISRETAIN
 70
     1
  9
$PLINEGEN
 70
     0
  9
$PSLTSCALE
 70
     1
  0
ENDSEC
  0
SECTION
  2
TABLES
  0
TABLE
  2
VPORT
 70
     3
  0
VPORT
  2
*ACTIVE
 70
     0
 10
0.0
 20
0.0
 11
1.0
 21
1.0
 12
109.84323184767641
 22
15.438537982337349
 13
0.0
 23
0.0
 14
7.0
 24
7.0
 15
7.0
 25
7.0
 16
0.0
 26
0.0
 36
1.0
 17
0.0
 27
0.0
 37
0.0
 40
228.61347050507649
 41
1.451685393258427
 42
50.0
 43
0.0
 44
0.0
 50
0.0
 51
0.0
 71
     0
 72
  2000
 73
     1
 74
     0
 75
     0
 76
     0
 77
     0
 78
     0
  0
ENDTAB
  0
TABLE
  2
LTYPE
 70
    21
  0
LTYPE
  2
CONTINUOUS
 70
     0
  3
Solid line
 72
    65
 73
     0
 40
0.0
  0
LTYPE
  2
CENTER2
 70
     0
  3
___ _ ___ _ ___ _ ___ _ ___ _ ___ _ ___ _ ___ _
 72
    65
 73
     4
 40
1.125
 49
0.75
 49
-0.125
 49
0.125
 49
-0.125
  0
LTYPE
  2
HIDDEN2
 70
     0
  3
_ _ _ _ _ _ _ _ _ _ _ _ _ _ _ _ _ _ _ _ _ _ _ _
 72
    65
 73
     2
 40
0.1875
 49
0.125
 49
-0.0625
  0
LTYPE
  2
PHANTOM2
 70
     0
  3
___ _ _ ___ _ _ ___ _ _ ___ _ _ ___ _ _ ___ _ _
 72
    65
 73
     6
 40
1.25
 49
0.625
 49
-0.125
 49
0.125
 49
-0.125
 49
0.125
 49
-0.125
  0
LTYPE
  2
CENTER
 70
     0
  3
____ _ ____ _ ____ _ ____ _ ____ _ ____ _ ____ 
 72
    65
 73
     4
 40
2.0
 49
1.25
 49
-0.25
 49
0.25
 49
-0.25
  0
LTYPE
  2
AMCONSTR
 70
     0
  3
_______________________
 72
    65
 73
     2
 40
9999.0
 49
9999.0
 49
0.0
  0
LTYPE
  2
HIDDEN
 70
     0
  3
Hidden __ __ __ __ __ __ __ __ __ __ __ __ __ _
 72
    65
 73
     2
 40
9.5249999999999986
 49
6.3499999999999979
 49
-3.174999999999998
  0
LTYPE
  2
AMZIGZAG2
 70
     0
  3
/\/-/\/-/\/-/\/-/\/-/\/
 72
    65
 73
     2
 40
0.4401
 49
0.0001
 49
-0.4400000000000001
  0
LTYPE
  2
ACANSTGB
 70
     0
  3
__ . . __ . .
 72
    65
 73
     6
 40
0.35433070866
 49
0.15748031496
 49
-0.03937007874
 49
0.03937007874
 49
-0.03937007874
 49
0.03937007874
 49
-0.03937007874
  0
LTYPE
  2
ACANSTGL
 70
     0
  3
_ _ _ _ _
 72
    65
 73
     2
 40
0.11811023622
 49
0.07874015748
 49
-0.03937007874
  0
ENDTAB
  0
TABLE
  2
LAYER
 70
     8
  0
LAYER
  2
0
 70
     0
 62
     7
  6
CONTINUOUS
  0
LAYER
  2
240
 70
     0
 62
     4
  6
CONTINUOUS
  0
LAYER
  2
DEFPOINTS
 70
     0
 62
     7
  6
CONTINUOUS
  0
LAYER
  2
245
 70
     0
 62
     2
  6
CENTER2
  0
LAYER
  2
241
 70
     0
 62
   211
  6
CONTINUOUS
  0
LAYER
  2
242
 70
     0
 62
     3
  6
CONTINUOUS
  0
LAYER
  2
243
 70
     0
 62
   211
  6
HIDDEN2
  0
LAYER
  2
250
 70
     0
 62
     3
  6
CONTINUOUS
  0
ENDTAB
  0
TABLE
  2
STYLE
 70
     9
  0
STYLE
  2
STANDARD
 70
     0
 40
0.0
 41
1.0
 50
0.0
 71
     0
 42
3.0
  3
romans.shx
  4
extfont.shx
  0
STYLE
  2
YOKO
 70
     0
 40
0.0
 41
1.0
 50
0.0
 71
     0
 42
3.0
  3
romans.shx
  4
extfont.shx
  0
STYLE
  2

 70
     1
 40
0.0
 41
1.0
 50
0.0
 71
     0
 42
3.0
  3
ltypeshp.shx
  4

  0
STYLE
  2
ACANSTS
 70
     0
 40
1.0
 41
1.0
 50
0.0
 71
     0
 42
3.0
  3
romans.shx
  4
extfont.shx
  0
STYLE
  2
ACANSGDT
 70
     0
 40
0.0
 41
1.0
 50
0.0
 71
     0
 42
3.0
  3
amgdtans.shx
  4

  0
ENDTAB
  0
TABLE
  2
VIEW
 70
     0
  0
ENDTAB
  0
TABLE
  2
UCS
 70
     0
  0
ENDTAB
  0
TABLE
  2
APPID
 70
    33
  0
APPID
  2
ACAD
 70
     0
  0
APPID
  2
GLOBAL
 70
     0
  0
APPID
  2
DETAIL
 70
     0
  0
APPID
  2
GRPNAME
 70
     0
  0
APPID
  2
GPARA
 70
     0
  0
APPID
  2
MCAD_NO_VIS
 70
     0
  0
APPID
  2
ACAD_TEMP_GRAPHIC
 70
     0
  0
APPID
  2
ACATTRIBSERVICES
 70
     0
  0
APPID
  2
GENIUS_GENSCREG_15
 70
     0
  0
APPID
  2
GENIUS_GENODEF_13
 70
     0
  0
APPID
  2
GENIUS_GENOBJ-N-SDF_13
 70
     0
  0
APPID
  2
GENIUS_GENREC_14
 70
     0
  0
APPID
  2
GENIUS_GENOBJ-N-REC_13
 70
     0
  0
APPID
  2
GENIUS_GENDIMSH_14
 70
     0
  0
APPID
  2
GENIUS_GENOBJ-N-DIM_13
 70
     0
  0
APPID
  2
GENIUS_GENDIM_13
 70
     0
  0
APPID
  2
GENIUS_GENDTOL_13
 70
     0
  0
APPID
  2
GENIUS_GENOLIS_13
 70
     0
  0
APPID
  2
GENIUS_GENOENT_13
 70
     0
  0
APPID
  2
GENIUS_GENOBJ-F-FEM_13
 70
     0
  0
APPID
  2
GENIUS_GENOREF_13
 70
     0
  0
APPID
  2
GENIUS_GEFFEM_13
 70
     0
  0
APPID
  2
GENIUS_GEFFEMP_13
 70
     0
  0
APPID
  2
AD_DRAW
 70
     0
  0
APPID
  2
DESIGNERASSEMBLIES
 70
     0
  0
APPID
  2
ACADM_DIM_EDIT
 70
     0
  0
APPID
  2
AMDT_DM_ADJ
 70
     0
  0
APPID
  2
GENIUS_GENOBJ-N-FIL_13
 70
     0
  0
APPID
  2
GENIUS_GENFIL_13
 70
     0
  0
APPID
  2
ACAD_PSEXT
 70
     0
  0
APPID
  2
ASKLEADERCHILD
 70
     0
  0
APPID
  2
ASK_MEN_XD
 70
     0
  0
APPID
  2
ITEMNAME
 70
     0
  0
ENDTAB
  0
TABLE
  2
DIMSTYLE
 70
    29
  0
DIMSTYLE
  2
BIGT
 70
     0
  3

  4

  5

  6

  7

 40
1.0
 41
2.2299999999999991
 42
0.5
 43
7.0
 44
1.0
 45
0.0
 46
0.0
 47
0.0
 48
0.01
140
2.799999999999998
141
0.0
142
0.0
143
25.399999999999999
144
1.0
145
0.0
146
1.0
147
1.0
 71
     0
 72
     0
 73
     0
 74
     0
 75
     0
 76
     0
 77
     3
 78
     9
170
     0
171
     2
172
     1
173
     0
174
     1
175
     0
176
   256
177
   256
178
    40
  0
DIMSTYLE
  2
AM_ANSI
 70
     0
  3

  4
mm
  5

  6

  7

 40
1.0
 41
0.1
 42
0.05
 43
0.5
 44
0.1
 45
0.0
 46
0.0
 47
0.1
 48
0.1
140
0.12
141
0.0
142
0.0
143
25.399999999999999
144
1.0
145
0.0
146
0.71
147
0.06
 71
     0
 72
     0
 73
     1
 74
     1
 75
     0
 76
     0
 77
     0
 78
     7
170
     0
171
     2
172
     0
173
     0
174
     0
175
     0
176
   256
177
   256
178
     2
  0
DIMSTYLE
  2
AM_ANSI$3
 70
     0
  3

  4
mm
  5

  6

  7

 40
1.0
 41
0.1
 42
0.05
 43
0.5
 44
0.1
 45
0.0
 46
0.0
 47
0.1
 48
0.1
140
0.12
141
0.0
142
0.0
143
25.399999999999999
144
1.0
145
0.0
146
0.71
147
0.06
 71
     0
 72
     0
 73
     1
 74
     1
 75
     0
 76
     0
 77
     0
 78
     7
170
     0
171
     2
172
     0
173
     0
174
     0
175
     0
176
   256
177
   256
178
     2
  0
DIMSTYLE
  2
AM_ANSI$4
 70
     0
  3

  4
mm
  5

  6

  7

 40
1.0
 41
0.1
 42
0.05
 43
0.5
 44
0.1
 45
0.0
 46
0.0
 47
0.1
 48
0.1
140
0.12
141
0.0
142
0.0
143
25.399999999999999
144
1.0
145
0.0
146
0.71
147
0.06
 71
     0
 72
     0
 73
     1
 74
     1
 75
     0
 76
     0
 77
     0
 78
     7
170
     0
171
     2
172
     0
173
     0
174
     0
175
     0
176
   256
177
   256
178
     2
  0
DIMSTYLE
  2
AM_ANSI$7
 70
     0
  3

  4
mm
  5

  6

  7

 40
1.0
 41
0.1
 42
0.05
 43
0.5
 44
0.1
 45
0.0
 46
0.0
 47
0.1
 48
0.1
140
0.24
141
0.0
142
0.0
143
25.399999999999999
144
1.0
145
0.0
146
0.71
147
0.06
 71
     0
 72
     0
 73
     1
 74
     1
 75
     0
 76
     0
 77
     0
 78
     7
170
     0
171
     2
172
     0
173
     0
174
     0
175
     0
176
   256
177
   256
178
     2
  0
DIMSTYLE
  2
AM_ANSI$SF
 70
     0
  3

  4
mm
  5

  6

  7

 40
1.0
 41
0.1
 42
0.05
 43
0.5
 44
0.1
 45
0.0
 46
0.0
 47
0.1
 48
0.1
140
0.12
141
0.0
142
0.0
143
25.399999999999999
144
1.0
145
0.0
146
0.71
147
0.06
 71
     0
 72
     0
 73
     1
 74
     1
 75
     1
 76
     1
 77
     0
 78
     7
170
     0
171
     2
172
     0
173
     0
174
     0
175
     0
176
   256
177
   256
178
     2
  0
DIMSTYLE
  2
AM_ANSI$SH
 70
     0
  3

  4
mm
  5

  6
GENAXEH
  7

 40
1.0
 41
0.1
 42
0.05
 43
0.5
 44
0.1
 45
0.0
 46
0.0
 47
0.1
 48
0.1
140
0.12
141
0.0
142
0.0
143
25.399999999999999
144
1.0
145
0.0
146
0.71
147
0.06
 71
     0
 72
     0
 73
     1
 74
     1
 75
     1
 76
     1
 77
     0
 78
     7
170
     0
171
     2
172
     0
173
     1
174
     0
175
     0
176
   256
177
   256
178
     2
  0
ENDTAB
  0
ENDSEC
  0
SECTION
  2
BLOCKS
  0
BLOCK
  8
0
  2
$MODEL_SPACE
 70
     0
 10
0.0
 20
0.0
 30
0.0
  3
$MODEL_SPACE
  1

  0
ENDBLK
  5
1800
  8
0
  0
BLOCK
 67
     1
  8
0
  2
$PAPER_SPACE
 70
     0
 10
0.0
 20
0.0
 30
0.0
  3
$PAPER_SPACE
  1

  0
ENDBLK
  5
17FC
 67
     1
  8
0
  0
BLOCK
  8
0
  2
_OPEN
 70
     0
 10
0.0
 20
0.0
 30
0.0
  3
_OPEN
  1

  0
LINE
  5
1773
  8
0
  6
BYBLOCK
 62
     0
 10
-1.0
 20
0.1666666666666666
 30
0.0
 11
0.0
 21
0.0
 31
0.0
  0
LINE
  5
1774
  8
0
  6
BYBLOCK
 62
     0
 10
-1.0
 20
-0.1666666666666666
 30
0.0
 11
0.0
 21
0.0
 31
0.0
  0
LINE
  5
1775
  8
0
  6
BYBLOCK
 62
     0
 10
0.0
 20
0.0
 30
0.0
 11
-1.0
 21
0.0
 31
0.0
  0
ENDBLK
  5
1776
  8
0
  0
BLOCK
  8
0
  2
GENAXEH
 70
     0
 10
0.0
 20
0.0
 30
0.0
  3
GENAXEH
  1

  0
LINE
  5
179E
  8
0
 10
-1.0
 20
0.0
 30
0.0
 11
1.0
 21
0.0
 31
0.0
  0
ENDBLK
  5
179F
  8
0
  0
ENDSEC
  0
SECTION
  2
ENTITIES
  0
LINE
  5
1401
  8
240
 10
220.00000000000011
 20
30.000000000000831
 30
0.0
 11
39.999999999999801
 21
29.999999999999691
 31
0.0
  0
LINE
  5
1402
  8
240
 10
220.00000000000011
 20
-29.999999999999488
 30
0.0
 11
39.999999999999751
 21
-30.000000000000941
 31
0.0
  0
LINE
  5
1405
  8
240
 10
223.0
 20
18.999999999998611
 30
0.0
 11
222.0
 21
17.999999999998611
 31
0.0
  0
LINE
  5
1406
  8
240
 10
222.0
 20
-18.00000000000145
 30
0.0
 11
223.0
 21
-19.00000000000145
 31
0.0
  0
LINE
  5
1407
  8
240
 10
223.0
 20
-19.00000000000145
 30
0.0
 11
239.7000000000001
 21
-19.00000000000145
 31
0.0
  0
LINE
  5
1408
  8
240
 10
239.7000000000001
 20
18.999999999998611
 30
0.0
 11
223.0
 21
18.999999999998611
 31
0.0
  0
LINE
  5
1409
  8
242
 10
240.4499999999999
 20
18.2499999999986
 30
0.0
 11
222.25
 21
18.2499999999986
 31
0.0
  0
LINE
  5
140A
  8
240
 10
239.7000000000001
 20
-19.00000000000145
 30
0.0
 11
241.0
 21
-17.700000000001442
 31
0.0
  0
LINE
  5
140B
  8
240
 10
241.0
 20
17.699999999998582
 30
0.0
 11
239.7000000000001
 21
18.999999999998611
 31
0.0
  0
LINE
  5
140C
  8
240
 10
243.2999999999999
 20
17.999999999998611
 30
0.0
 11
243.0
 21
17.699999999998582
 31
0.0
  0
LINE
  5
140D
  8
240
 10
243.0
 20
-17.700000000001442
 30
0.0
 11
243.2999999999999
 21
-18.00000000000145
 31
0.0
  0
LINE
  5
140E
  8
240
 10
243.2999999999999
 20
-18.00000000000145
 30
0.0
 11
256.99999999999972
 21
-18.00000000000145
 31
0.0
  0
LINE
  5
1410
  8
240
 10
256.99999999999989
 20
17.999999999998611
 30
0.0
 11
243.2999999999999
 21
17.999999999998611
 31
0.0
  0
LINE
  5
1411
  8
240
 10
220.00000000000011
 20
-18.00000000000145
 30
0.0
 11
222.0
 21
-18.00000000000145
 31
0.0
  0
LINE
  5
1412
  8
240
 10
222.0
 20
17.999999999998611
 30
0.0
 11
220.0
 21
17.999999999998611
 31
0.0
  0
LINE
  5
1413
  8
240
 10
241.0
 20
-17.700000000001442
 30
0.0
 11
243.0
 21
-17.700000000001442
 31
0.0
  0
LINE
  5
1414
  8
240
 10
243.0
 20
17.699999999998582
 30
0.0
 11
241.0
 21
17.699999999998582
 31
0.0
  0
LINE
  5
1415
  8
240
 10
220.0
 20
17.999999999998611
 30
0.0
 11
220.00000000000011
 21
30.000000000000831
 31
0.0
  0
LINE
  5
1417
  8
241
 10
223.0
 20
-19.00000000000145
 30
0.0
 11
223.0
 21
19.00000000000145
 31
0.0
  0
LINE
  5
1418
  8
241
 10
222.0
 20
-18.00000000000145
 30
0.0
 11
222.0
 21
18.00000000000145
 31
0.0
  0
LINE
  5
1419
  8
241
 10
239.7000000000001
 20
-19.00000000000145
 30
0.0
 11
239.69999999999979
 21
19.00000000000145
 31
0.0
  0
LINE
  5
141A
  8
241
 10
241.0
 20
-17.700000000001442
 30
0.0
 11
241.0
 21
17.700000000001431
 31
0.0
  0
LINE
  5
141B
  8
240
 10
258.0
 20
16.9999999999986
 30
0.0
 11
257.99999999999972
 21
-17.00000000000145
 31
0.0
  0
LINE
  5
141E
  8
243
 10
257.99999999999989
 20
4.0000000000040643
 30
0.0
 11
28.450000000000049
 21
4.0000000000040643
 31
0.0
  0
LINE
  5
1420
  8
241
 10
219.99999999999989
 20
18.000000000001439
 30
0.0
 11
220.0
 21
-18.00000000000145
 31
0.0
  0
LINE
  5
1421
  8
240
 10
219.99999999999989
 20
-18.00000000000145
 30
0.0
 11
220.00000000000011
 21
-29.999999999999488
 31
0.0
  0
LINE
  5
1422
  8
245
 10
-54.537831398684588
 20
0.0
 30
0.0
 11
260.97667442664351
 21
0.0
 31
0.0
  0
LINE
  5
1427
  8
242
 10
240.44999999999999
 20
-18.249999999998519
 30
0.0
 11
222.25000000000011
 21
-18.249999999998661
 31
0.0
  0
LINE
  5
142D
  8
241
 10
243.0
 20
-17.700000000001442
 30
0.0
 11
243.0
 21
17.700000000001431
 31
0.0
  0
LINE
  5
142F
  8
245
 10
20.0
 20
-51.120678005542793
 30
0.0
 11
20.0
 21
51.120678005542779
 31
0.0
  0
LINE
  5
1443
  8
243
 10
4.9999999999993729
 20
-50.000000000000973
 30
0.0
 11
4.9999999999993729
 21
-44.000000000000981
 31
0.0
1001
GRPNAME
1000
PASTMD0M
  0
LINE
  5
1444
  8
243
 10
28.99999999999989
 20
-44.000000000000981
 30
0.0
 11
4.9999999999993729
 21
-44.000000000000981
 31
0.0
1001
GRPNAME
1000
PASTMD0M
  0
LINE
  5
1446
  8
243
 10
-9.0
 20
31.489716279842561
 30
0.0
 11
-9.0
 21
37.549999999999017
 31
0.0
  0
LINE
  5
1447
  8
243
 10
-21.0
 20
31.499999998053831
 30
0.0
 11
-21.0
 21
36.949999999999037
 31
0.0
  0
ARC
  5
1453
  8
243
 10
-9.4966925428956301
 20
19.499999999999002
 30
0.0
 40
11.999999998054779
 50
38.073123330199742
 51
90.0
1001
GRPNAME
1000
PASTMD0M
  0
LINE
  5
1454
  8
243
 10
-9.4966925428956301
 20
31.499999998053831
 30
0.0
 11
-26.539274057836231
 21
31.499999999999009
 31
0.0
1001
GRPNAME
1000
PASTMD0M
  0
LINE
  5
1455
  8
243
 10
-40.0
 20
26.499999999999009
 30
0.0
 11
-40.0
 21
35.999999999999012
 31
0.0
1001
GRPNAME
1000
PASTMD0M
  0
ARC
  5
1456
  8
243
 10
-26.539274057836231
 20
30.499999999999009
 30
0.0
 40
1.0000000000000551
 50
90.000000077132867
 51
150.00000007713291
1001
GRPNAME
1000
PASTMD0M
  0
LINE
  5
1457
  8
243
 10
-30.003375672974251
 20
26.499999999999009
 30
0.0
 11
-27.40529946162065
 21
30.999999999999051
 31
0.0
1001
GRPNAME
1000
PASTMD0M
  0
LINE
  5
145A
  8
243
 10
-30.003375672974251
 20
26.499999999999009
 30
0.0
 11
-48.5
 21
26.499999999999009
 31
0.0
1001
GRPNAME
1000
PASTMD0M
  0
LINE
  5
145C
  8
243
 10
-50.0
 20
27.366025403783478
 30
0.0
 11
-48.5
 21
26.499999999999059
 31
0.0
1001
GRPNAME
1000
PASTMD0M
  0
LINE
  5
145D
  8
241
 10
28.99999999999989
 20
-42.700000000000983
 30
0.0
 11
28.99999999999989
 21
42.700000000000983
 31
0.0
1001
GRPNAME
1000
PASTMD0M
  0
LINE
  5
145E
  8
241
 10
23.247595264191549
 20
-50.000000000000973
 30
0.0
 11
23.247595264191549
 21
31.499999999998021
 31
0.0
1001
GRPNAME
1000
PASTMD0M
  0
LINE
  5
145F
  8
241
 10
21.875
 20
-46.000000000001002
 30
0.0
 11
21.875
 21
31.499999999998021
 31
0.0
1001
GRPNAME
1000
PASTMD0M
  0
LINE
  5
1460
  8
241
 10
18.125
 20
-46.000000000001002
 30
0.0
 11
18.125
 21
31.499999999998021
 31
0.0
1001
GRPNAME
1000
PASTMD0M
  0
LINE
  5
1461
  8
241
 10
16.752404735808341
 20
-50.000000000000973
 30
0.0
 11
16.752404735808341
 21
31.499999999998021
 31
0.0
1001
GRPNAME
1000
PASTMD0M
  0
LINE
  5
1462
  8
241
 10
0.0
 20
-37.900000000001
 30
0.0
 11
0.0
 21
37.900000000001
 31
0.0
1001
GRPNAME
1000
PASTMD0M
  0
LINE
  5
1464
  8
243
 10
4.9999999999993729
 20
43.999999999998991
 30
0.0
 11
4.9999999999993729
 21
49.999999999998998
 31
0.0
1001
GRPNAME
1000
PASTMD0M
  0
LINE
  5
1465
  8
243
 10
28.99999999999989
 20
43.999999999998991
 30
0.0
 11
4.9999999999993729
 21
43.999999999998991
 31
0.0
1001
GRPNAME
1000
PASTMD0M
  0
LINE
  5
146F
  8
240
 10
0.0
 20
37.899999999999039
 30
0.0
 11
0.0
 21
49.499999999998991
 31
0.0
1001
GRPNAME
1000
PASTMD0M
  0
ARC
  5
1471
  8
240
 10
-48.0
 20
33.59750156054892
 30
0.0
 40
2.0000000000000191
 50
92.862405134174793
 51
179.99999990806609
1001
GRPNAME
1000
PASTMD0M
  0
ARC
  5
1472
  8
240
 10
-48.0
 20
-33.59750156055091
 30
0.0
 40
2.0
 50
179.99999998333121
 51
267.13759475722208
1001
GRPNAME
1000
PASTMD0M
  0
LINE
  5
1475
  8
240
 10
16.752404735808341
 20
-50.000000000000973
 30
0.0
 11
0.5
 21
-50.00000000000103
 31
0.0
1001
GRPNAME
1000
PASTMD0M
  0
LINE
  5
1476
  8
240
 10
28.49999999999989
 20
-50.000000000000973
 30
0.0
 11
23.247595264191659
 21
-50.000000000000973
 31
0.0
1001
GRPNAME
1000
PASTMD0M
  0
LINE
  5
1477
  8
240
 10
18.125
 20
-47.622595264192768
 30
0.0
 11
16.752404735808341
 21
-50.000000000000973
 31
0.0
1001
GRPNAME
1000
PASTMD0M
  0
LINE
  5
1478
  8
240
 10
21.875
 20
-47.622595264192768
 30
0.0
 11
23.247595264191659
 21
-50.000000000000973
 31
0.0
1001
GRPNAME
1000
PASTMD0M
  0
LINE
  5
1479
  8
240
 10
21.875
 20
47.622595264190778
 30
0.0
 11
23.247595264191659
 21
49.999999999998998
 31
0.0
1001
GRPNAME
1000
PASTMD0M
  0
LINE
  5
147A
  8
240
 10
16.752404735808341
 20
49.999999999998998
 30
0.0
 11
0.5
 21
49.999999999998998
 31
0.0
1001
GRPNAME
1000
PASTMD0M
  0
LINE
  5
147B
  8
240
 10
28.5
 20
49.999999999998998
 30
0.0
 11
23.247595264191549
 21
49.999999999998998
 31
0.0
1001
GRPNAME
1000
PASTMD0M
  0
ARC
  5
147C
  8
240
 10
0.5
 20
-49.500000000001023
 30
0.0
 40
0.5
 50
180.00000000257131
 51
270.00000000257302
1001
GRPNAME
1000
PASTMD0M
  0
ARC
  5
147D
  8
240
 10
28.49999999999989
 20
-49.500000000000973
 30
0.0
 40
0.5
 50
269.99999989459411
 51
359.99999989458757
1001
GRPNAME
1000
PASTMD0M
  0
ARC
  5
147E
  8
240
 10
28.5
 20
49.499999999998991
 30
0.0
 40
0.5
 50
0.0000000025729415
 51
90.000000002566367
1001
GRPNAME
1000
PASTMD0M
  0
ARC
  5
147F
  8
240
 10
0.5
 20
49.499999999998991
 30
0.0
 40
0.5
 50
89.999999904879346
 51
179.99999990487279
1001
GRPNAME
1000
PASTMD0M
  0
LINE
  5
1481
  8
240
 10
21.875
 20
45.999999999999012
 30
0.0
 11
21.875
 21
47.622595264190778
 31
0.0
1001
GRPNAME
1000
PASTMD0M
  0
LINE
  5
1482
  8
240
 10
18.125
 20
47.622595264190778
 30
0.0
 11
16.752404735808341
 21
49.999999999998998
 31
0.0
1001
GRPNAME
1000
PASTMD0M
  0
LINE
  5
1483
  8
240
 10
18.125
 20
45.999999999999012
 30
0.0
 11
18.125
 21
47.622595264190778
 31
0.0
1001
GRPNAME
1000
PASTMD0M
  0
LINE
  5
1484
  8
240
 10
21.875
 20
45.999999999999012
 30
0.0
 11
18.125
 21
45.999999999999012
 31
0.0
1001
GRPNAME
1000
PASTMD0M
  0
LINE
  5
1487
  8
240
 10
21.875
 20
-46.000000000001002
 30
0.0
 11
21.875
 21
-47.622595264192768
 31
0.0
1001
GRPNAME
1000
PASTMD0M
  0
LINE
  5
1488
  8
240
 10
21.875
 20
-46.000000000001002
 30
0.0
 11
18.125
 21
-46.000000000001002
 31
0.0
1001
GRPNAME
1000
PASTMD0M
  0
LINE
  5
1489
  8
240
 10
18.125
 20
-46.000000000001002
 30
0.0
 11
18.125
 21
-47.622595264192768
 31
0.0
1001
GRPNAME
1000
PASTMD0M
  0
LINE
  5
148D
  8
240
 10
-50.0
 20
-0.0000000000009948
 30
0.0
 11
-50.0
 21
33.59750156054892
 31
0.0
1001
GRPNAME
1000
PASTMD0M
  0
LINE
  5
148E
  8
240
 10
-50.0
 20
-33.59750156055091
 30
0.0
 11
-50.0
 21
-0.0000000000009948
 31
0.0
1001
GRPNAME
1000
PASTMD0M
  0
LINE
  5
148F
  8
240
 10
0.0
 20
-49.500000000001023
 30
0.0
 11
0.0
 21
-37.900000000001
 31
0.0
1001
GRPNAME
1000
PASTMD0M
  0
LINE
  5
1490
  8
240
 10
-2.0
 20
-37.900000000001
 30
0.0
 11
-48.099875233887701
 21
-35.59500623830661
 31
0.0
1001
GRPNAME
1000
PASTMD0M
  0
LINE
  5
1491
  8
240
 10
28.99999999999989
 20
42.699999999998987
 30
0.0
 11
29.0
 21
49.499999999998991
 31
0.0
1001
GRPNAME
1000
PASTMD0M
  0
LINE
  5
1492
  8
240
 10
28.99999999999989
 20
-49.500000000000973
 30
0.0
 11
28.99999999999989
 21
-42.700000000000983
 31
0.0
1001
GRPNAME
1000
PASTMD0M
  0
LINE
  5
1493
  8
240
 10
-2.0
 20
37.899999999999039
 30
0.0
 11
-48.099875233887701
 21
35.595006238304649
 31
0.0
1001
GRPNAME
1000
PASTMD0M
  0
LINE
  5
1494
  8
240
 10
29.499999999999879
 20
39.734136177053642
 30
0.0
 11
29.499999999999879
 21
42.499999999998991
 31
0.0
  0
LINE
  5
1495
  8
240
 10
29.199999999999829
 20
42.499999999998991
 30
0.0
 11
29.499999999999879
 21
42.499999999998991
 31
0.0
  0
ARC
  5
1496
  8
240
 10
29.199999999999829
 20
42.699999999998987
 30
0.0
 40
0.1999999999999886
 50
180.0
 51
270.0
  0
LINE
  5
1497
  8
241
 10
36.999999999999773
 20
-32.99999999999919
 30
0.0
 11
36.999999999999829
 21
32.99999999999919
 31
0.0
  0
ARC
  5
1498
  8
240
 10
39.999999999999773
 20
32.999999999999801
 30
0.0
 40
3.0
 50
180.0
 51
270.0
1001
ASK_MEN_XD
1005
0
1070
     1
1005
0
1070
     1
  0
ARC
  5
1499
  8
240
 10
29.199999999999861
 20
-42.700000000000998
 30
0.0
 40
0.1999999999999886
 50
90.0
 51
180.0
  0
LINE
  5
149A
  8
240
 10
29.199999999999829
 20
-42.500000000001023
 30
0.0
 11
35.999999999999773
 21
-42.500000000001023
 31
0.0
  0
ARC
  5
149B
  8
240
 10
35.999999999999773
 20
-41.5
 30
0.0
 40
1.0
 50
270.0
 51
0.0
1001
GENIUS_GENOBJ-N-FIL_13
1002
{
1000
OWNER
1000
GEN
1002
}
1001
GENIUS_GENODEF_13
1002
{
1000
HIER
1070
     0
1002
}
1002
{
1000
MANEDIT
1070
     0
1002
}
1002
{
1000
NOSEL
1070
     0
1002
}
1002
{
1000
BEHIND
1070
     0
1002
}
1002
{
1000
OTHER
1070
     0
1002
}
1002
{
1000
REACTOR
1002
}
  0
ARC
  5
149C
  8
240
 10
39.999999999999773
 20
-32.999999999999801
 30
0.0
 40
3.0
 50
90.0
 51
180.0
1001
ASK_MEN_XD
1005
0
1070
     1
1005
0
1070
     0
  0
LINE
  5
149D
  8
240
 10
29.499999999999879
 20
39.734136177053642
 30
0.0
 11
36.999999999999893
 21
39.734136177053642
 31
0.0
  0
LINE
  5
149E
  8
241
 10
29.499999999999879
 20
38.573686210784388
 30
0.0
 11
29.499999999999879
 21
39.734136177053642
 31
0.0
  0
LINE
  5
149F
  8
241
 10
29.499999999999879
 20
38.573686210784388
 30
0.0
 11
36.999999999999893
 21
38.573686210784388
 31
0.0
  0
LINE
  5
14A0
  8
242
 10
36.999999999999893
 20
38.573686210784388
 30
0.0
 11
29.499999999999879
 21
39.734136177053642
 31
0.0
  0
LINE
  5
14A1
  8
242
 10
36.999999999999893
 20
39.734136177053642
 30
0.0
 11
29.499999999999879
 21
38.573686210784388
 31
0.0
  0
LINE
  5
14A2
  8
240
 10
36.999999999999773
 20
32.999999999999801
 30
0.0
 11
36.999999999999773
 21
39.734136177053642
 31
0.0
1001
GRPNAME
1000
PASTMD03
  0
LINE
  5
14A3
  8
240
 10
36.999999999999773
 20
-41.5
 30
0.0
 11
36.999999999999773
 21
-32.999999999999801
 31
0.0
1001
GRPNAME
1000
PASTMD03
  0
LINE
  5
14AE
  8
240
 10
-2.0
 20
37.899999999999039
 30
0.0
 11
0.0
 21
37.899999999999039
 31
0.0
  0
LINE
  5
14B0
  8
240
 10
-2.0
 20
-37.900000000001
 30
0.0
 11
0.0
 21
-37.900000000001
 31
0.0
  0
ARC
  5
14BC
  8
240
 10
256.99999999999989
 20
16.9999999999986
 30
0.0
 40
1.0
 50
359.99999999999972
 51
90.0
1001
GENIUS_GENOBJ-N-FIL_13
1002
{
1000
OWNER
1000
GEN
1002
}
1001
GENIUS_GENODEF_13
1002
{
1000
HIER
1070
     0
1002
}
1002
{
1000
MANEDIT
1070
     0
1002
}
1002
{
1000
NOSEL
1070
     0
1002
}
1002
{
1000
BEHIND
1070
     0
1002
}
1002
{
1000
OTHER
1070
     0
1002
}
1002
{
1000
REACTOR
1002
}
  0
ARC
  5
14BF
  8
240
 10
256.99999999999972
 20
-17.00000000000145
 30
0.0
 40
1.0
 50
270.0
 51
359.99999999999972
1001
GENIUS_GENOBJ-N-FIL_13
1002
{
1000
OWNER
1000
GEN
1002
}
1001
GENIUS_GENODEF_13
1002
{
1000
HIER
1070
     0
1002
}
1002
{
1000
MANEDIT
1070
     0
1002
}
1002
{
1000
NOSEL
1070
     0
1002
}
1002
{
1000
BEHIND
1070
     0
1002
}
1002
{
1000
OTHER
1070
     0
1002
}
1002
{
1000
REACTOR
1002
}
  0
LINE
  5
14CF
  8
241
 10
-2.0
 20
37.900000000000993
 30
0.0
 11
-2.0
 21
-37.900000000001008
 31
0.0
1001
GRPNAME
1000
PASTMD0M
  0
LINE
  5
14D2
  8
243
 10
257.9999999999992
 20
-4.0000000000340332
 30
0.0
 11
28.44999999999942
 21
-4.0000000000059659
 31
0.0
  0
LINE
  5
14FA
  8
241
 10
5.0
 20
31.499999999998021
 30
0.0
 11
29.0
 21
31.499999999998021
 31
0.0
1001
GRPNAME
1000
PASTMD1F
  0
ARC
  5
14FB
  8
241
 10
14.636897859999999
 20
28.82975662999802
 30
0.0
 40
9.9999999999997158
 50
90.000000080000135
 51
164.5127260499998
1001
GRPNAME
1000
PASTMD1F
  0
LINE
  5
14FC
  8
241
 10
21.875
 20
36.45235188999802
 30
0.0
 11
23.247595260000001
 21
38.82975662999803
 31
0.0
1001
GRPNAME
1000
PASTMD1F
  0
LINE
  5
14FD
  8
241
 10
18.125
 20
33.499999999998018
 30
0.0
 11
21.875
 21
33.499999999998018
 31
0.0
1001
GRPNAME
1000
PASTMD1F
  0
LINE
  5
14FE
  8
241
 10
18.125
 20
36.45235188999802
 30
0.0
 11
16.752404739999999
 21
38.82975662999803
 31
0.0
1001
GRPNAME
1000
PASTMD1F
  0
LINE
  5
14FF
  8
241
 10
14.636897859999999
 20
38.82975662999803
 30
0.0
 11
16.752404739999999
 21
38.82975662999803
 31
0.0
1001
GRPNAME
1000
PASTMD1F
  0
LINE
  5
1500
  8
241
 10
23.247595260000001
 20
38.82975662999803
 30
0.0
 11
29.0
 21
38.82975662999803
 31
0.0
1001
GRPNAME
1000
PASTMD1F
  0
TEXT
  5
1501
  8
241
 10
-45.0
 20
76.99999999999801
 30
0.0
 40
5.0
  1
HSK-A100-SDF36-60-220
  7
YOKO
 11
-45.0
 21
76.99999999999801
 31
0.0
 73
     1
1001
GRPNAME
1000
PASTMD0I
  0
LINE
  5
1502
  8
250
 10
-28.366370360000001
 20
-48.971858820001941
 30
0.0
 11
-55.299703690000001
 21
-48.971858820001941
 31
0.0
1001
ITEMNAME
1000
LNSP2
  0
TEXT
  5
1503
  8
250
 10
-53.033037023333321
 20
-47.971858820001898
 30
0.0
 40
2.799999999999998
  1
HSK-A100
  7
YOKO
1001
ITEMNAME
1000
LNSP3
  0
LINE
  5
1504
  8
250
 10
-22.472492000247311
 20
-38.763362050298461
 30
0.0
 11
-28.366370360000001
 21
-48.971858820001941
 31
0.0
1001
ACAD
1000
DSTYLE
1002
{
1070
     6
1000
OPEN
1070
   343
1005
0
1002
}
  0
LINE
  5
1505
  8
250
 10
-22.794364775296721
 20
-38.577528716923887
 30
0.0
 11
-21.357492000000001
 21
-36.832125400001928
 31
0.0
  0
LINE
  5
1506
  8
250
 10
-22.150619225197879
 20
-38.949195383672993
 30
0.0
 11
-21.357492000000001
 21
-36.832125400001928
 31
0.0
  0
LINE
  5
1507
  8
250
 10
-21.357492000000001
 20
-36.832125400001928
 30
0.0
 11
-22.472492000247311
 21
-38.763362050298461
 31
0.0
  0
LINE
  5
1508
  8
241
 10
23.247595264191538
 20
38.82975662999803
 30
0.0
 11
23.247595264191549
 21
50.000000000000973
 31
0.0
1001
GRPNAME
1000
PASTMD0M
  0
LINE
  5
1509
  8
241
 10
21.875
 20
33.499999999998018
 30
0.0
 11
21.875
 21
46.000000000001002
 31
0.0
1001
GRPNAME
1000
PASTMD0M
  0
LINE
  5
150A
  8
241
 10
18.125
 20
33.499999999998018
 30
0.0
 11
18.125
 21
46.000000000001002
 31
0.0
1001
GRPNAME
1000
PASTMD0M
  0
LINE
  5
150B
  8
241
 10
16.752404735808341
 20
38.82975662999803
 30
0.0
 11
16.752404735808341
 21
50.000000000000973
 31
0.0
1001
GRPNAME
1000
PASTMD0M
  0
LINE
  5
15B8
  8
250
 10
220.5
 20
30.000000000000831
 30
0.0
 11
275.0
 21
30.00000000000081
 31
0.0
  0
LINE
  5
15B9
  8
250
 10
220.50000000000011
 20
-29.999999999999488
 30
0.0
 11
275.0
 21
-29.999999999999499
 31
0.0
  0
LINE
  5
15BA
  8
250
 10
274.0
 20
27.77000000000081
 30
0.0
 11
274.0
 21
-27.769999999999492
 31
0.0
  0
LINE
  5
15BE
  8
250
 10
0.0
 20
49.999999999998998
 30
0.0
 11
0.0000000000000009
 21
64.0
 31
0.0
  0
LINE
  5
15BF
  8
250
 10
220.00000000000011
 20
30.500000000000821
 30
0.0
 11
220.00000000000011
 21
64.0
 31
0.0
  0
LINE
  5
15C0
  8
250
 10
2.2299999999999991
 20
63.0
 30
0.0
 11
217.7700000000001
 21
63.0
 31
0.0
  0
TEXT
  5
15C4
  8
250
 10
273.0
 20
-3.799999999999307
 30
0.0
 40
2.799999999999998
  1
\U+220560
 50
90.0
  0
LINE
  5
15C5
  8
250
 10
274.37166666666678
 20
-27.769999999999492
 30
0.0
 11
274.0
 21
-29.999999999999499
 31
0.0
  0
LINE
  5
15C6
  8
250
 10
273.62833333333327
 20
-27.769999999999492
 30
0.0
 11
274.0
 21
-29.999999999999499
 31
0.0
  0
LINE
  5
15C7
  8
250
 10
274.0
 20
-29.999999999999499
 30
0.0
 11
274.0
 21
-27.769999999999492
 31
0.0
  0
LINE
  5
15C8
  8
250
 10
273.62833333333327
 20
27.77000000000081
 30
0.0
 11
274.0
 21
30.00000000000081
 31
0.0
  0
LINE
  5
15C9
  8
250
 10
274.37166666666678
 20
27.77000000000081
 30
0.0
 11
274.0
 21
30.00000000000081
 31
0.0
  0
LINE
  5
15CA
  8
250
 10
274.0
 20
30.00000000000081
 30
0.0
 11
274.0
 21
27.77000000000081
 31
0.0
  0
TEXT
  5
15CB
  8
250
 10
100.66518760716011
 20
64.0
 30
0.0
 40
2.799999999999998
  1
220
  0
LINE
  5
15CC
  8
250
 10
217.7700000000001
 20
63.37166666666667
 30
0.0
 11
220.00000000000011
 21
63.0
 31
0.0
  0
LINE
  5
15CD
  8
250
 10
217.7700000000001
 20
62.62833333333333
 30
0.0
 11
220.00000000000011
 21
63.0
 31
0.0
  0
LINE
  5
15CE
  8
250
 10
220.00000000000011
 20
63.0
 30
0.0
 11
217.7700000000001
 21
63.0
 31
0.0
  0
LINE
  5
15CF
  8
250
 10
2.2299999999999991
 20
62.62833333333333
 30
0.0
 11
0.0000000000000008
 21
63.0
 31
0.0
  0
LINE
  5
15D0
  8
250
 10
2.2299999999999991
 20
63.37166666666667
 30
0.0
 11
0.0000000000000008
 21
63.0
 31
0.0
  0
LINE
  5
15D1
  8
250
 10
0.0000000000000008
 20
63.0
 30
0.0
 11
2.2299999999999991
 21
63.0
 31
0.0
  0
VIEWPORT
  5
22
 67
     1
  8
0
 10
261.51769911504419
 20
148.5
 30
0.0
 40
523.0353982300885
 41
297.0
 68
     1
 69
     1
1001
ACAD
1000
MVIEW
1002
{
1070
    16
1010
0.0
1020
0.0
1030
0.0
1010
0.0
1020
0.0
1030
1.0
1040
0.0
1040
297.0
1040
261.51769911504419
1040
148.5
1040
50.0
1040
0.0
1040
0.0
1070
     0
1070
   100
1070
     1
1070
     1
1070
     0
1070
     0
1070
     0
1070
     0
1040
0.0
1040
0.0
1040
0.0
1040
1.0
1040
1.0
1040
10.0
1040
10.0
1070
     0
1002
{
1002
}
1002
}
1001
GENIUS_GENODEF_13
1002
{
1000
HIER
1070
     0
1002
}
1002
{
1000
MANEDIT
1070
     0
1002
}
1002
{
1000
NOSEL
1070
     0
1002
}
1002
{
1000
BEHIND
1070
     0
1002
}
1002
{
1000
OTHER
1070
     0
1002
}
1002
{
1000
REACTOR
1002
}
1001
GENIUS_GENOBJ-N-SDF_13
1002
{
1000
OWNER
1000
GEN
1002
}
1001
GENIUS_GENSCREG_15
1000
PF
1040
1.0
1000
DF
1040
1.0
1000
MIN
1011
0.0
1021
1.1189772823996623E+087
1031
9.8381454161909707E+025
1021
0.0
1031
0.0
1000
MAX
1011
523.0353982300885
1021
1.1189772823996623E+087
1031
9.8381454161909707E+025
1021
297.0
1031
0.0
1000
FLAGS
1070
     2
  0
ENDSEC
  0
EOF
