  0
SECTION
  2
HEADER
  9
$ACADVER
  1
AC1009
  9
$INSBASE
 10
0.0
 20
0.0
 30
0.0
  9
$EXTMIN
 10
-73.660022038573402
 20
-108.6265500181733
 30
0.0
  9
$EXTMAX
 10
350.87364589073292
 20
89.127644347845404
 30
0.0
  9
$LIMMIN
 10
0.0
 20
0.0
  9
$LIMMAX
 10
297.0
 20
210.0
  9
$ORTHOMODE
 70
     0
  9
$REGENMODE
 70
     1
  9
$FILLMODE
 70
     1
  9
$QTEXTMODE
 70
     0
  9
$MIRRTEXT
 70
     1
  9
$DRAGMODE
 70
     2
  9
$LTSCALE
 40
10.0
  9
$OSMODE
 70
    39
  9
$ATTMODE
 70
     1
  9
$TEXTSIZE
 40
3.0
  9
$TRACEWID
 40
1.0
  9
$TEXTSTYLE
  7
YOKO
  9
$CLAYER
  8
240
  9
$CELTYPE
  6
BYLAYER
  9
$CECOLOR
 62
   256
  9
$DIMSCALE
 40
1.0
  9
$DIMASZ
 40
2.2299999999999991
  9
$DIMEXO
 40
0.5
  9
$DIMDLI
 40
7.0
  9
$DIMRND
 40
0.0
  9
$DIMDLE
 40
0.0
  9
$DIMEXE
 40
1.0
  9
$DIMTP
 40
0.0
  9
$DIMTM
 40
0.01
  9
$DIMTXT
 40
2.7999999999999989
  9
$DIMCEN
 40
0.0
  9
$DIMTSZ
 40
0.0
  9
$DIMTOL
 70
     0
  9
$DIMLIM
 70
     0
  9
$DIMTIH
 70
     0
  9
$DIMTOH
 70
     0
  9
$DIMSE1
 70
     0
  9
$DIMSE2
 70
     0
  9
$DIMTAD
 70
     3
  9
$DIMZIN
 70
     9
  9
$DIMBLK
  1
OPEN
  9
$DIMASO
 70
     1
  9
$DIMSHO
 70
     1
  9
$DIMPOST
  1

  9
$DIMAPOST
  1

  9
$DIMALT
 70
     0
  9
$DIMALTD
 70
     2
  9
$DIMALTF
 40
25.399999999999999
  9
$DIMLFAC
 40
1.0
  9
$DIMTOFL
 70
     1
  9
$DIMTVP
 40
0.0
  9
$DIMTIX
 70
     1
  9
$DIMSOXD
 70
     0
  9
$DIMSAH
 70
     0
  9
$DIMBLK1
  1

  9
$DIMBLK2
  1

  9
$DIMSTYLE
  2
BIGT
  9
$DIMCLRD
 70
   256
  9
$DIMCLRE
 70
   256
  9
$DIMCLRT
 70
    40
  9
$DIMTFAC
 40
1.0
  9
$DIMGAP
 40
1.0
  9
$LUNITS
 70
     2
  9
$LUPREC
 70
     3
  9
$SKETCHINC
 40
1.0
  9
$FILLETRAD
 40
0.0
  9
$AUNITS
 70
     0
  9
$AUPREC
 70
     3
  9
$MENU
  1
.
  9
$ELEVATION
 40
0.0
  9
$PELEVATION
 40
0.0
  9
$THICKNESS
 40
0.0
  9
$LIMCHECK
 70
     0
  9
$BLIPMODE
 70
     0
  9
$CHAMFERA
 40
0.25
  9
$CHAMFERB
 40
0.25
  9
$SKPOLY
 70
     0
  9
$TDCREATE
 40
2456266.3964723609
  9
$TDUPDATE
 40
2456266.4069876969
  9
$TDINDWG
 40
0.0081491319
  9
$TDUSRTIMER
 40
0.0081491319
  9
$USRTIMER
 70
     1
  9
$ANGBASE
 50
0.0
  9
$ANGDIR
 70
     0
  9
$PDMODE
 70
     1
  9
$PDSIZE
 40
0.0
  9
$PLINEWID
 40
0.0
  9
$COORDS
 70
     0
  9
$SPLFRAME
 70
     0
  9
$SPLINETYPE
 70
     6
  9
$SPLINESEGS
 70
     4
  9
$ATTDIA
 70
     1
  9
$ATTREQ
 70
     1
  9
$HANDLING
 70
     1
  9
$HANDSEED
  5
258F
  9
$SURFTAB1
 70
     6
  9
$SURFTAB2
 70
     6
  9
$SURFTYPE
 70
     6
  9
$SURFU
 70
     6
  9
$SURFV
 70
     6
  9
$UCSNAME
  2

  9
$UCSORG
 10
0.0
 20
0.0
 30
0.0
  9
$UCSXDIR
 10
1.0
 20
0.0
 30
0.0
  9
$UCSYDIR
 10
0.0
 20
1.0
 30
0.0
  9
$PUCSNAME
  2

  9
$PUCSORG
 10
0.0
 20
0.0
 30
0.0
  9
$PUCSXDIR
 10
1.0
 20
0.0
 30
0.0
  9
$PUCSYDIR
 10
0.0
 20
1.0
 30
0.0
  9
$USERI1
 70
     1
  9
$USERI2
 70
     0
  9
$USERI3
 70
     0
  9
$USERI4
 70
     0
  9
$USERI5
 70
     0
  9
$USERR1
 40
0.0
  9
$USERR2
 40
0.0
  9
$USERR3
 40
0.0
  9
$USERR4
 40
0.0
  9
$USERR5
 40
0.0
  9
$WORLDVIEW
 70
     1
  9
$SHADEDGE
 70
     3
  9
$SHADEDIF
 70
    70
  9
$TILEMODE
 70
     1
  9
$MAXACTVP
 70
    16
  9
$PLIMCHECK
 70
     0
  9
$PEXTMIN
 10
1.0000000000000000E+020
 20
1.0000000000000000E+020
 30
1.0000000000000000E+020
  9
$PEXTMAX
 10
-1.0000000000000000E+020
 20
-1.0000000000000000E+020
 30
-1.0000000000000000E+020
  9
$PLIMMIN
 10
0.0
 20
0.0
  9
$PLIMMAX
 10
420.0
 20
297.0
  9
$UNITMODE
 70
     0
  9
$VISRETAIN
 70
     1
  9
$PLINEGEN
 70
     0
  9
$PSLTSCALE
 70
     1
  0
ENDSEC
  0
SECTION
  2
TABLES
  0
TABLE
  2
VPORT
 70
     3
  0
VPORT
  2
*ACTIVE
 70
     0
 10
0.0
 20
0.0
 11
1.0
 21
1.0
 12
100.59704560339679
 22
-2.2061729096502058
 13
0.0
 23
0.0
 14
7.0
 24
7.0
 15
7.0
 25
7.0
 16
0.0
 26
0.0
 36
1.0
 17
0.0
 27
0.0
 37
0.0
 40
331.93438017914502
 41
1.47986577181208
 42
50.0
 43
0.0
 44
0.0
 50
0.0
 51
0.0
 71
     0
 72
  2000
 73
     1
 74
     0
 75
     0
 76
     1
 77
     0
 78
     0
  0
ENDTAB
  0
TABLE
  2
LTYPE
 70
    16
  0
LTYPE
  2
CONTINUOUS
 70
     0
  3
Solid line
 72
    65
 73
     0
 40
0.0
  0
LTYPE
  2
CENTER2
 70
     0
  3
___ _ ___ _ ___ _ ___ _ ___ _ ___ _ ___ _ ___ _
 72
    65
 73
     4
 40
1.125
 49
0.75
 49
-0.125
 49
0.125
 49
-0.125
  0
LTYPE
  2
HIDDEN2
 70
     0
  3
_ _ _ _ _ _ _ _ _ _ _ _ _ _ _ _ _ _ _ _ _ _ _ _
 72
    65
 73
     2
 40
0.1875
 49
0.125
 49
-0.0625
  0
LTYPE
  2
PHANTOM2
 70
     0
  3
___ _ _ ___ _ _ ___ _ _ ___ _ _ ___ _ _ ___ _ _
 72
    65
 73
     6
 40
1.25
 49
0.625
 49
-0.125
 49
0.125
 49
-0.125
 49
0.125
 49
-0.125
  0
LTYPE
  2
CENTER
 70
     0
  3
____ _ ____ _ ____ _ ____ _ ____ _ ____ _ ____ 
 72
    65
 73
     4
 40
2.0
 49
1.25
 49
-0.25
 49
0.25
 49
-0.25
  0
LTYPE
  2
AM_ISO02W050
 70
     0
  3
__ __ __ __ __ __ __ __ __ __ __ __ __ __ __
 72
    65
 73
     2
 40
7.5
 49
6.0
 49
-1.5
  0
LTYPE
  2
AMCONSTR
 70
     0
  3
_______________________
 72
    65
 73
     2
 40
9999.0
 49
9999.0
 49
0.0
  0
LTYPE
  2
ACISOWELD
 70
     0
  3
_ _ _ _ _
 72
    65
 73
     2
 40
2.0
 49
2.0
 49
-1.0
  0
LTYPE
  2
ACISOTGB
 70
     0
  3
__ . . __ . .
 72
    65
 73
     6
 40
9.0
 49
4.0
 49
-1.0
 49
1.0
 49
-1.0
 49
1.0
 49
-1.0
  0
LTYPE
  2
ACISOTGL
 70
     0
  3
_ _ _ _ _
 72
    65
 73
     2
 40
3.0
 49
2.0
 49
-1.0
  0
LTYPE
  2
ACJISTGB
 70
     0
  3
__ . . __ . .
 72
    65
 73
     6
 40
9.0
 49
4.0
 49
-1.0
 49
1.0
 49
-1.0
 49
1.0
 49
-1.0
  0
LTYPE
  2
ACJISTGL
 70
     0
  3
_ _ _ _ _
 72
    65
 73
     2
 40
3.0
 49
2.0
 49
-1.0
  0
LTYPE
  2
HIDDEN
 70
     0
  3
Hidden __ __ __ __ __ __ __ __ __ __ __ __ __ _
 72
    65
 73
     2
 40
9.5249999999999986
 49
6.3499999999999988
 49
-3.1749999999999989
  0
LTYPE
  2
AMZIGZAG2
 70
     0
  3
/\/-/\/-/\/-/\/-/\/-/\/
 72
    65
 73
     2
 40
0.4401
 49
0.0001
 49
-0.4400000000000001
  0
LTYPE
  2
ACANSTGB
 70
     0
  3
__ . . __ . .
 72
    65
 73
     6
 40
0.35433070866
 49
0.15748031496
 49
-0.03937007874
 49
0.03937007874
 49
-0.03937007874
 49
0.03937007874
 49
-0.03937007874
  0
LTYPE
  2
ACANSTGL
 70
     0
  3
_ _ _ _ _
 72
    65
 73
     2
 40
0.11811023622
 49
0.07874015748
 49
-0.03937007874
  0
ENDTAB
  0
TABLE
  2
LAYER
 70
    22
  0
LAYER
  2
0
 70
     0
 62
     7
  6
CONTINUOUS
  0
LAYER
  2
DEFPOINTS
 70
     0
 62
     7
  6
CONTINUOUS
  0
LAYER
  2
245
 70
     0
 62
     2
  6
CENTER2
  0
LAYER
  2
240
 70
     0
 62
     4
  6
CONTINUOUS
  0
LAYER
  2
241
 70
     0
 62
   211
  6
CONTINUOUS
  0
LAYER
  2
242
 70
     0
 62
     3
  6
CONTINUOUS
  0
LAYER
  2
243
 70
     0
 62
   211
  6
HIDDEN2
  0
LAYER
  2
244
 70
     0
 62
     3
  6
HIDDEN2
  0
LAYER
  2
246
 70
     0
 62
     3
  6
PHANTOM2
  0
LAYER
  2
247
 70
     0
 62
    60
  6
CONTINUOUS
  0
LAYER
  2
248
 70
     0
 62
    60
  6
HIDDEN2
  0
LAYER
  2
250
 70
     0
 62
     3
  6
CONTINUOUS
  0
LAYER
  2
251
 70
     0
 62
    40
  6
CONTINUOUS
  0
LAYER
  2
AM_5
 70
     0
 62
     3
  6
CONTINUOUS
  0
LAYER
  2
AM_0
 70
     0
 62
     4
  6
CONTINUOUS
  0
LAYER
  2
AM_1
 70
     0
 62
   211
  6
CONTINUOUS
  0
LAYER
  2
AM_2
 70
     0
 62
     3
  6
CONTINUOUS
  0
LAYER
  2
AM_3
 70
     0
 62
   211
  6
HIDDEN2
  0
LAYER
  2
AM_7
 70
     0
 62
     2
  6
CENTER2
  0
LAYER
  2
AM_8
 70
     0
 62
     3
  6
CONTINUOUS
  0
LAYER
  2
AM_11
 70
     0
 62
     3
  6
PHANTOM2
  0
LAYER
  2
AM_13
 70
     0
 62
     3
  6
HIDDEN2
  0
ENDTAB
  0
TABLE
  2
STYLE
 70
     9
  0
STYLE
  2
STANDARD
 70
     0
 40
0.0
 41
1.0
 50
0.0
 71
     0
 42
3.0
  3
romans.shx
  4
extfont.shx
  0
STYLE
  2
ACISOTS
 70
     0
 40
1.0
 41
1.0
 50
0.0
 71
     0
 42
3.0
  3
amgdt.shx
  4
extfont.shx
  0
STYLE
  2
ACISOGDT
 70
     0
 40
0.0
 41
1.0
 50
0.0
 71
     0
 42
3.0
  3
amgdt.shx
  4
extfont.shx
  0
STYLE
  2
ACJISTS
 70
     0
 40
1.0
 41
1.0
 50
0.0
 71
     0
 42
3.0
  3
amgdt.shx
  4
extfont.shx
  0
STYLE
  2
ACJISGDT
 70
     0
 40
0.0
 41
1.0
 50
0.0
 71
     0
 42
3.0
  3
amgdt.shx
  4
extfont.shx
  0
STYLE
  2
YOKO
 70
     0
 40
0.0
 41
1.0
 50
0.0
 71
     0
 42
3.0
  3
romans.shx
  4
extfont.shx
  0
STYLE
  2

 70
     1
 40
0.0
 41
1.0
 50
0.0
 71
     0
 42
3.0
  3
ltypeshp.shx
  4

  0
STYLE
  2
ACANSTS
 70
     0
 40
1.0
 41
1.0
 50
0.0
 71
     0
 42
3.0
  3
romans.shx
  4
extfont.shx
  0
STYLE
  2
ACANSGDT
 70
     0
 40
0.0
 41
1.0
 50
0.0
 71
     0
 42
3.0
  3
amgdtans.shx
  4

  0
ENDTAB
  0
TABLE
  2
VIEW
 70
     0
  0
ENDTAB
  0
TABLE
  2
UCS
 70
     0
  0
ENDTAB
  0
TABLE
  2
APPID
 70
    34
  0
APPID
  2
ACAD
 70
     0
  0
APPID
  2
GLOBAL
 70
     0
  0
APPID
  2
DETAIL
 70
     0
  0
APPID
  2
GRPNAME
 70
     0
  0
APPID
  2
GPARA
 70
     0
  0
APPID
  2
MCAD_NO_VIS
 70
     0
  0
APPID
  2
ACAD_TEMP_GRAPHIC
 70
     0
  0
APPID
  2
ACATTRIBSERVICES
 70
     0
  0
APPID
  2
GENIUS_GENSCREG_15
 70
     0
  0
APPID
  2
GENIUS_GENODEF_13
 70
     0
  0
APPID
  2
GENIUS_GENOBJ-N-SDF_13
 70
     0
  0
APPID
  2
GENIUS_GENREC_14
 70
     0
  0
APPID
  2
GENIUS_GENOBJ-N-REC_13
 70
     0
  0
APPID
  2
GENIUS_GENDIMSH_14
 70
     0
  0
APPID
  2
GENIUS_GENOBJ-N-DIM_13
 70
     0
  0
APPID
  2
GENIUS_GENDIM_13
 70
     0
  0
APPID
  2
GENIUS_GENDTOL_13
 70
     0
  0
APPID
  2
GENIUS_GENOLIS_13
 70
     0
  0
APPID
  2
GENIUS_GENOENT_13
 70
     0
  0
APPID
  2
GENIUS_GENOBJ-F-FEM_13
 70
     0
  0
APPID
  2
GENIUS_GENOREF_13
 70
     0
  0
APPID
  2
GENIUS_GEFFEM_13
 70
     0
  0
APPID
  2
GENIUS_GEFFEMP_13
 70
     0
  0
APPID
  2
AD_DRAW
 70
     0
  0
APPID
  2
DESIGNERASSEMBLIES
 70
     0
  0
APPID
  2
ACADM_DIM_EDIT
 70
     0
  0
APPID
  2
AMDT_DM_ADJ
 70
     0
  0
APPID
  2
GENIUS_GENFIL_13
 70
     0
  0
APPID
  2
GENIUS_GENOBJ-N-CHA_13
 70
     0
  0
APPID
  2
GENIUS_GENOBJ-N-HTC_13
 70
     0
  0
APPID
  2
GENIUS_GENHATCH_13
 70
     0
  0
APPID
  2
ACAD_DSTYLE_DIMINSPECT
 70
     0
  0
APPID
  2
ACAD_DSTYLE_DIMRADIAL_EXTENSION
 70
     0
  0
APPID
  2
ACAD_PSEXT
 70
     0
  0
ENDTAB
  0
TABLE
  2
DIMSTYLE
 70
    30
  0
DIMSTYLE
  2
BIGT
 70
     0
  3

  4

  5
OPEN
  6

  7

 40
1.0
 41
2.2299999999999991
 42
0.5
 43
7.0
 44
1.0
 45
0.0
 46
0.0
 47
0.0
 48
0.01
140
2.7999999999999989
141
0.0
142
0.0
143
25.399999999999999
144
1.0
145
0.0
146
1.0
147
1.0
 71
     0
 72
     0
 73
     0
 74
     0
 75
     0
 76
     0
 77
     3
 78
     9
170
     0
171
     2
172
     1
173
     0
174
     1
175
     0
176
   256
177
   256
178
    40
  0
DIMSTYLE
  2
AM_ISO
 70
     0
  3

  4
"
  5

  6

  7

 40
1.0
 41
2.5
 42
1.0
 43
10.0
 44
1.0
 45
0.0
 46
0.0
 47
0.1
 48
0.1
140
3.5
141
0.0
142
0.0
143
0.0393701
144
1.0
145
0.0
146
0.71
147
1.5
 71
     0
 72
     0
 73
     0
 74
     0
 75
     0
 76
     0
 77
     1
 78
     8
170
     0
171
     2
172
     1
173
     0
174
     0
175
     0
176
   256
177
   256
178
     2
  0
DIMSTYLE
  2
AM_ISO$3
 70
     0
  3

  4
"
  5

  6

  7

 40
1.0
 41
2.5
 42
1.0
 43
10.0
 44
1.0
 45
0.0
 46
0.0
 47
0.1
 48
0.1
140
3.5
141
0.0
142
0.0
143
0.0393701
144
1.0
145
0.0
146
0.71
147
1.5
 71
     0
 72
     0
 73
     0
 74
     1
 75
     0
 76
     0
 77
     1
 78
     8
170
     0
171
     2
172
     0
173
     0
174
     0
175
     0
176
   256
177
   256
178
     2
  0
DIMSTYLE
  2
AM_ISO$4
 70
     0
  3

  4
"
  5

  6

  7

 40
1.0
 41
2.5
 42
1.0
 43
10.0
 44
1.0
 45
0.0
 46
0.0
 47
0.1
 48
0.1
140
3.5
141
0.0
142
0.0
143
0.0393701
144
1.0
145
0.0
146
0.71
147
1.5
 71
     0
 72
     0
 73
     0
 74
     1
 75
     0
 76
     0
 77
     1
 78
     8
170
     0
171
     2
172
     0
173
     0
174
     0
175
     0
176
   256
177
   256
178
     2
  0
DIMSTYLE
  2
AM_ISO$6
 70
     0
  3

  4
"
  5

  6

  7

 40
1.0
 41
2.5
 42
1.0
 43
10.0
 44
1.0
 45
0.0
 46
0.0
 47
0.1
 48
0.1
140
3.5
141
0.0
142
0.0
143
0.0393701
144
1.0
145
0.0
146
0.71
147
1.5
 71
     0
 72
     0
 73
     0
 74
     0
 75
     0
 76
     0
 77
     0
 78
     8
170
     0
171
     2
172
     1
173
     0
174
     0
175
     0
176
   256
177
   256
178
     2
  0
DIMSTYLE
  2
AM_ISO$7
 70
     0
  3

  4
"
  5

  6

  7

 40
1.0
 41
2.5
 42
1.0
 43
10.0
 44
1.0
 45
0.0
 46
0.0
 47
0.1
 48
0.1
140
5.0
141
0.0
142
0.0
143
0.0393701
144
1.0
145
0.0
146
0.71
147
1.5
 71
     0
 72
     0
 73
     0
 74
     0
 75
     0
 76
     0
 77
     1
 78
     8
170
     0
171
     2
172
     1
173
     0
174
     0
175
     0
176
   256
177
   256
178
     2
  0
DIMSTYLE
  2
AM_ISO$SF
 70
     0
  3

  4
"
  5

  6

  7

 40
1.0
 41
2.5
 42
1.0
 43
10.0
 44
1.0
 45
0.0
 46
0.0
 47
0.1
 48
0.1
140
3.5
141
0.0
142
0.0
143
0.0393701
144
1.0
145
0.0
146
0.71
147
1.5
 71
     0
 72
     0
 73
     0
 74
     0
 75
     1
 76
     1
 77
     1
 78
     8
170
     0
171
     2
172
     1
173
     0
174
     0
175
     0
176
   256
177
   256
178
     2
  0
DIMSTYLE
  2
AM_ISO$SH
 70
     0
  3

  4
"
  5

  6
GENAXEH
  7

 40
1.0
 41
2.5
 42
1.0
 43
10.0
 44
1.0
 45
0.0
 46
0.0
 47
0.1
 48
0.1
140
3.5
141
0.0
142
0.0
143
0.0393701
144
2.0
145
0.0
146
0.71
147
1.5
 71
     0
 72
     0
 73
     0
 74
     0
 75
     1
 76
     1
 77
     1
 78
     8
170
     0
171
     2
172
     1
173
     1
174
     0
175
     0
176
   256
177
   256
178
     2
  0
DIMSTYLE
  2
BIGT$2
 70
     0
  3

  4

  5
OPEN
  6

  7

 40
1.0
 41
2.2299999999999991
 42
0.5
 43
7.0
 44
1.0
 45
0.0
 46
0.0
 47
0.0
 48
0.01
140
2.7999999999999989
141
0.0
142
0.0
143
25.399999999999999
144
1.0
145
0.0
146
1.0
147
1.0
 71
     0
 72
     0
 73
     0
 74
     0
 75
     0
 76
     0
 77
     3
 78
     9
170
     0
171
     2
172
     1
173
     0
174
     0
175
     0
176
   256
177
   256
178
    40
  0
DIMSTYLE
  2
BIGT$3
 70
     0
  3

  4

  5
OPEN
  6

  7

 40
1.0
 41
2.2299999999999991
 42
0.5
 43
2.5
 44
1.0
 45
0.0
 46
0.0
 47
0.0
 48
0.01
140
2.7999999999999989
141
0.0
142
0.0
143
25.399999999999999
144
1.0
145
0.0
146
1.0
147
1.0
 71
     0
 72
     0
 73
     0
 74
     0
 75
     0
 76
     0
 77
     3
 78
     9
170
     0
171
     2
172
     1
173
     0
174
     0
175
     0
176
   256
177
   256
178
    40
  0
DIMSTYLE
  2
BIGT$7
 70
     0
  3

  4

  5
OPEN
  6

  7

 40
0.0
 41
2.2299999999999991
 42
0.5
 43
7.0
 44
1.0
 45
0.0
 46
0.0
 47
0.0
 48
0.01
140
2.7999999999999989
141
0.0
142
0.0
143
25.399999999999999
144
1.0
145
0.0
146
1.0
147
1.0
 71
     0
 72
     0
 73
     0
 74
     0
 75
     0
 76
     0
 77
     3
 78
     9
170
     0
171
     2
172
     0
173
     0
174
     0
175
     0
176
   256
177
   256
178
    40
  0
DIMSTYLE
  2
BIGT$6
 70
     0
  3

  4

  5
OPEN
  6

  7

 40
1.0
 41
2.2299999999999991
 42
0.5
 43
2.5
 44
1.0
 45
0.0
 46
0.0
 47
0.0
 48
0.01
140
2.7999999999999989
141
0.0
142
0.0
143
25.399999999999999
144
1.0
145
0.0
146
1.0
147
1.0
 71
     0
 72
     0
 73
     0
 74
     0
 75
     0
 76
     0
 77
     3
 78
     9
170
     0
171
     2
172
     1
173
     0
174
     0
175
     0
176
   256
177
   256
178
    40
  0
DIMSTYLE
  2
BIGT$0
 70
     0
  3

  4

  5
OPEN
  6

  7

 40
1.0
 41
2.2299999999999991
 42
0.5
 43
7.0
 44
1.0
 45
0.0
 46
0.0
 47
0.0
 48
0.01
140
2.7999999999999989
141
0.0
142
0.0
143
25.399999999999999
144
1.0
145
0.0
146
1.0
147
1.0
 71
     0
 72
     0
 73
     0
 74
     0
 75
     0
 76
     0
 77
     3
 78
     9
170
     0
171
     2
172
     1
173
     0
174
     0
175
     0
176
   256
177
   256
178
    40
  0
DIMSTYLE
  2
BIGT$4
 70
     0
  3

  4

  5
OPEN
  6

  7

 40
1.0
 41
2.2299999999999991
 42
0.5
 43
2.5
 44
1.0
 45
0.0
 46
0.0
 47
0.0
 48
0.01
140
2.7999999999999989
141
0.0
142
0.0
143
25.399999999999999
144
1.0
145
0.0
146
1.0
147
1.0
 71
     0
 72
     0
 73
     0
 74
     0
 75
     0
 76
     0
 77
     3
 78
     9
170
     0
171
     2
172
     1
173
     0
174
     0
175
     0
176
   256
177
   256
178
    40
  0
DIMSTYLE
  2
BIGT$SH
 70
     0
  3

  4

  5
OPEN
  6

  7

 40
1.0
 41
2.2299999999999991
 42
0.5
 43
7.0
 44
1.0
 45
0.0
 46
0.0
 47
0.0
 48
0.0
140
2.7999999999999989
141
0.0
142
0.0
143
25.399999999999999
144
1.0
145
0.0
146
1.0
147
1.0
 71
     0
 72
     0
 73
     0
 74
     0
 75
     0
 76
     0
 77
     3
 78
     9
170
     0
171
     2
172
     1
173
     0
174
     0
175
     0
176
   256
177
   256
178
    40
  0
DIMSTYLE
  2
BIGT$SF
 70
     0
  3

  4

  5
OPEN
  6

  7

 40
1.0
 41
2.2299999999999991
 42
0.5
 43
7.0
 44
1.0
 45
0.0
 46
0.0
 47
0.0
 48
0.0
140
2.7999999999999989
141
0.0
142
0.0
143
25.399999999999999
144
1.0
145
0.0
146
1.0
147
1.0
 71
     0
 72
     0
 73
     0
 74
     0
 75
     0
 76
     0
 77
     3
 78
     9
170
     0
171
     2
172
     1
173
     0
174
     0
175
     0
176
   256
177
   256
178
    40
  0
DIMSTYLE
  2
TECHNICAL_OSAKA
 70
     0
  3

  4
"
  5
OPEN30
  6

  7

 40
1.0
 41
2.5
 42
1.0
 43
10.0
 44
1.0
 45
0.0
 46
0.0
 47
0.1
 48
0.1
140
2.7999999999999989
141
0.0
142
0.0
143
0.0393701
144
1.0
145
0.0
146
0.71
147
1.5
 71
     0
 72
     0
 73
     0
 74
     0
 75
     0
 76
     0
 77
     3
 78
     8
170
     0
171
     2
172
     1
173
     0
174
     0
175
     0
176
   256
177
   256
178
    40
  0
DIMSTYLE
  2
TECHNICAL_OSAKA$3
 70
     0
  3

  4
"
  5
OPEN30
  6

  7

 40
1.0
 41
2.5
 42
1.0
 43
10.0
 44
1.0
 45
0.0
 46
0.0
 47
0.1
 48
0.1
140
2.7999999999999989
141
0.0
142
0.0
143
0.0393701
144
1.0
145
0.0
146
0.71
147
1.5
 71
     0
 72
     0
 73
     0
 74
     1
 75
     0
 76
     0
 77
     3
 78
     8
170
     0
171
     2
172
     0
173
     0
174
     0
175
     0
176
   256
177
   256
178
    40
  0
DIMSTYLE
  2
TECHNICAL_OSAKA$4
 70
     0
  3

  4
"
  5
OPEN30
  6

  7

 40
1.0
 41
2.5
 42
1.0
 43
10.0
 44
1.0
 45
0.0
 46
0.0
 47
0.1
 48
0.1
140
2.7999999999999989
141
0.0
142
0.0
143
0.0393701
144
1.0
145
0.0
146
0.71
147
1.5
 71
     0
 72
     0
 73
     0
 74
     1
 75
     0
 76
     0
 77
     3
 78
     8
170
     0
171
     2
172
     0
173
     0
174
     0
175
     0
176
   256
177
   256
178
    40
  0
DIMSTYLE
  2
TECHNICAL_OSAKA$6
 70
     0
  3

  4
"
  5
OPEN30
  6

  7

 40
1.0
 41
2.5
 42
1.0
 43
10.0
 44
1.0
 45
0.0
 46
0.0
 47
0.1
 48
0.1
140
2.7999999999999989
141
0.0
142
0.0
143
0.0393701
144
1.0
145
0.0
146
0.71
147
1.5
 71
     0
 72
     0
 73
     0
 74
     0
 75
     0
 76
     0
 77
     0
 78
     8
170
     0
171
     2
172
     1
173
     0
174
     0
175
     0
176
   256
177
   256
178
    40
  0
DIMSTYLE
  2
TECHNICAL_OSAKA$7
 70
     0
  3

  4
"
  5
OPEN30
  6

  7

 40
1.0
 41
2.5
 42
1.0
 43
10.0
 44
1.0
 45
0.0
 46
0.0
 47
0.1
 48
0.1
140
2.7999999999999989
141
0.0
142
0.0
143
0.0393701
144
1.0
145
0.0
146
0.71
147
1.5
 71
     0
 72
     0
 73
     0
 74
     0
 75
     0
 76
     0
 77
     3
 78
     8
170
     0
171
     2
172
     1
173
     0
174
     0
175
     0
176
   256
177
   256
178
    40
  0
DIMSTYLE
  2
TECHNICAL_OSAKA$SF
 70
     0
  3

  4
"
  5
OPEN30
  6
OPEN30
  7
OPEN30
 40
1.0
 41
2.5
 42
1.0
 43
10.0
 44
1.0
 45
0.0
 46
0.0
 47
0.1
 48
0.1
140
3.5
141
0.0
142
0.0
143
0.0393701
144
1.0
145
0.0
146
0.71
147
1.5
 71
     0
 72
     0
 73
     0
 74
     0
 75
     1
 76
     1
 77
     3
 78
     8
170
     0
171
     2
172
     1
173
     0
174
     0
175
     0
176
   256
177
   256
178
    40
  0
DIMSTYLE
  2
TECHNICAL_OSAKA$SH
 70
     0
  3

  4
"
  5
OPEN30
  6
GENAXEH
  7
OPEN30
 40
1.0
 41
2.5
 42
1.0
 43
10.0
 44
1.0
 45
0.0
 46
0.0
 47
0.1
 48
0.1
140
3.5
141
0.0
142
0.0
143
0.0393701
144
2.0
145
0.0
146
0.71
147
1.5
 71
     0
 72
     0
 73
     0
 74
     0
 75
     1
 76
     1
 77
     3
 78
     8
170
     0
171
     2
172
     1
173
     1
174
     0
175
     0
176
   256
177
   256
178
    40
  0
DIMSTYLE
  2
AM_JIS
 70
     0
  3

  4
"
  5
OPEN30
  6
OPEN30
  7
OPEN30
 40
1.0
 41
2.5
 42
1.0
 43
10.0
 44
1.0
 45
0.0
 46
0.0
 47
0.1
 48
0.1
140
3.5
141
0.0
142
0.0
143
0.0393701
144
1.0
145
0.0
146
0.71
147
1.5
 71
     0
 72
     0
 73
     0
 74
     0
 75
     0
 76
     0
 77
     3
 78
     8
170
     0
171
     2
172
     1
173
     0
174
     0
175
     0
176
   256
177
   256
178
     2
  0
DIMSTYLE
  2
AM_ANSI
 70
     0
  3

  4
mm
  5

  6

  7

 40
1.0
 41
0.1
 42
0.05
 43
0.5
 44
0.1
 45
0.0
 46
0.0
 47
0.1
 48
0.1
140
0.12
141
0.0
142
0.0
143
25.399999999999999
144
1.0
145
0.0
146
0.71
147
0.06
 71
     0
 72
     0
 73
     1
 74
     1
 75
     0
 76
     0
 77
     0
 78
     7
170
     0
171
     2
172
     0
173
     0
174
     0
175
     0
176
   256
177
   256
178
     2
  0
DIMSTYLE
  2
AM_ANSI$3
 70
     0
  3

  4
mm
  5

  6

  7

 40
1.0
 41
0.1
 42
0.05
 43
0.5
 44
0.1
 45
0.0
 46
0.0
 47
0.1
 48
0.1
140
0.12
141
0.0
142
0.0
143
25.399999999999999
144
1.0
145
0.0
146
0.71
147
0.06
 71
     0
 72
     0
 73
     1
 74
     1
 75
     0
 76
     0
 77
     0
 78
     7
170
     0
171
     2
172
     0
173
     0
174
     0
175
     0
176
   256
177
   256
178
     2
  0
DIMSTYLE
  2
AM_ANSI$4
 70
     0
  3

  4
mm
  5

  6

  7

 40
1.0
 41
0.1
 42
0.05
 43
0.5
 44
0.1
 45
0.0
 46
0.0
 47
0.1
 48
0.1
140
0.12
141
0.0
142
0.0
143
25.399999999999999
144
1.0
145
0.0
146
0.71
147
0.06
 71
     0
 72
     0
 73
     1
 74
     1
 75
     0
 76
     0
 77
     0
 78
     7
170
     0
171
     2
172
     0
173
     0
174
     0
175
     0
176
   256
177
   256
178
     2
  0
DIMSTYLE
  2
AM_ANSI$7
 70
     0
  3

  4
mm
  5

  6

  7

 40
1.0
 41
0.1
 42
0.05
 43
0.5
 44
0.1
 45
0.0
 46
0.0
 47
0.1
 48
0.1
140
0.24
141
0.0
142
0.0
143
25.399999999999999
144
1.0
145
0.0
146
0.71
147
0.06
 71
     0
 72
     0
 73
     1
 74
     1
 75
     0
 76
     0
 77
     0
 78
     7
170
     0
171
     2
172
     0
173
     0
174
     0
175
     0
176
   256
177
   256
178
     2
  0
DIMSTYLE
  2
AM_ANSI$SF
 70
     0
  3

  4
mm
  5

  6

  7

 40
1.0
 41
0.1
 42
0.05
 43
0.5
 44
0.1
 45
0.0
 46
0.0
 47
0.1
 48
0.1
140
0.12
141
0.0
142
0.0
143
25.399999999999999
144
1.0
145
0.0
146
0.71
147
0.06
 71
     0
 72
     0
 73
     1
 74
     1
 75
     1
 76
     1
 77
     0
 78
     7
170
     0
171
     2
172
     0
173
     0
174
     0
175
     0
176
   256
177
   256
178
     2
  0
DIMSTYLE
  2
AM_ANSI$SH
 70
     0
  3

  4
mm
  5

  6
GENAXEH
  7

 40
1.0
 41
0.1
 42
0.05
 43
0.5
 44
0.1
 45
0.0
 46
0.0
 47
0.1
 48
0.1
140
0.12
141
0.0
142
0.0
143
25.399999999999999
144
1.0
145
0.0
146
0.71
147
0.06
 71
     0
 72
     0
 73
     1
 74
     1
 75
     1
 76
     1
 77
     0
 78
     7
170
     0
171
     2
172
     0
173
     1
174
     0
175
     0
176
   256
177
   256
178
     2
  0
ENDTAB
  0
ENDSEC
  0
SECTION
  2
BLOCKS
  0
BLOCK
  8
0
  2
$MODEL_SPACE
 70
     0
 10
0.0
 20
0.0
 30
0.0
  3
$MODEL_SPACE
  1

  0
ENDBLK
  5
1C
  8
0
  0
BLOCK
 67
     1
  8
0
  2
$PAPER_SPACE
 70
     0
 10
0.0
 20
0.0
 30
0.0
  3
$PAPER_SPACE
  1

  0
ENDBLK
  5
19
 67
     1
  8
0
  0
BLOCK
  8
0
  2
_OPEN
 70
     0
 10
0.0
 20
0.0
 30
0.0
  3
_OPEN
  1

  0
LINE
  5
21DD
  8
0
  6
BYBLOCK
 62
     0
 10
-1.0
 20
0.1666666666666666
 30
0.0
 11
0.0
 21
0.0
 31
0.0
  0
LINE
  5
21DE
  8
0
  6
BYBLOCK
 62
     0
 10
-1.0
 20
-0.1666666666666666
 30
0.0
 11
0.0
 21
0.0
 31
0.0
  0
LINE
  5
21DF
  8
0
  6
BYBLOCK
 62
     0
 10
0.0
 20
0.0
 30
0.0
 11
-1.0
 21
0.0
 31
0.0
  0
ENDBLK
  5
21E0
  8
0
  0
BLOCK
  8
0
  2
GENAXEH
 70
     0
 10
0.0
 20
0.0
 30
0.0
  3
GENAXEH
  1

  0
LINE
  5
2208
  8
0
 10
-1.0
 20
0.0
 30
0.0
 11
1.0
 21
0.0
 31
0.0
  0
ENDBLK
  5
2209
  8
0
  0
BLOCK
  8
0
  2
_OPEN30
 70
     0
 10
0.0
 20
0.0
 30
0.0
  3
_OPEN30
  1

  0
LINE
  5
222D
  8
0
  6
BYBLOCK
 62
     0
 10
-1.0
 20
0.26794919
 30
0.0
 11
0.0
 21
0.0
 31
0.0
  0
LINE
  5
222E
  8
0
  6
BYBLOCK
 62
     0
 10
0.0
 20
0.0
 30
0.0
 11
-1.0
 21
-0.26794919
 31
0.0
  0
LINE
  5
222F
  8
0
  6
BYBLOCK
 62
     0
 10
0.0
 20
0.0
 30
0.0
 11
-1.0
 21
0.0
 31
0.0
  0
ENDBLK
  5
2230
  8
0
  0
BLOCK
  8
0
  2
_NONE
 70
     0
 10
0.0
 20
0.0
 30
0.0
  3
_NONE
  1

  0
ENDBLK
  5
13EE
  8
0
  0
BLOCK
  8
0
  2
*U88
 70
     1
 10
0.0
 20
0.0
 30
0.0
  3
*U88
  1

  0
TEXT
  5
2248
  8
AM_5
 62
    40
 10
306.13414271033128
 20
253.6770569402953
 30
0.0
 40
3.75
  1
Max.\U+22054
 50
90.0
  0
ENDBLK
  5
224A
  8
0
  0
BLOCK
  8
0
  2
*U89
 70
     1
 10
0.0
 20
0.0
 30
0.0
  3
*U89
  1

  0
TEXT
  5
224C
  8
AM_5
 62
    40
 10
314.88414271033139
 20
240.4770569402952
 30
0.0
 40
3.75
  1
\U+220512
 50
90.0
  0
ENDBLK
  5
224E
  8
0
  0
BLOCK
  8
0
  2
*U90
 70
     1
 10
0.0
 20
0.0
 30
0.0
  3
*U90
  1

  0
TEXT
  5
2250
  8
AM_5
 62
    40
 10
323.63414271033139
 20
240.4770569402952
 30
0.0
 40
3.75
  1
\U+220527
 50
90.0
  0
ENDBLK
  5
2252
  8
0
  0
BLOCK
  8
0
  2
*U91
 70
     1
 10
0.0
 20
0.0
 30
0.0
  3
*U91
  1

  0
TEXT
  5
2254
  8
AM_5
 62
    40
 10
332.38414271032531
 20
240.4770569402952
 30
0.0
 40
3.75
  1
\U+220582
 50
90.0
  0
ENDBLK
  5
2256
  8
0
  0
BLOCK
  8
0
  2
*U92
 70
     1
 10
0.0
 20
0.0
 30
0.0
  3
*U92
  1

  0
TEXT
  5
2258
  8
AM_5
 62
    40
 10
286.79485691302727
 20
308.77419340855869
 30
0.0
 40
3.75
  1
16
  0
ENDBLK
  5
225A
  8
0
  0
BLOCK
  8
0
  2
*U93
 70
     1
 10
0.0
 20
0.0
 30
0.0
  3
*U93
  1

  0
TEXT
  5
225C
  8
AM_5
 62
    40
 10
277.75914254429352
 20
308.77419340855857
 30
0.0
 40
3.75
  1
6
  0
ENDBLK
  5
225E
  8
0
  0
BLOCK
  8
0
  2
*U94
 70
     1
 10
0.0
 20
0.0
 30
0.0
  3
*U94
  1

  0
TEXT
  5
2260
  8
AM_5
 62
    40
 10
260.54485483851101
 20
326.2741934085588
 30
0.0
 40
3.75
  1
63.5
  0
ENDBLK
  5
2262
  8
0
  0
BLOCK
  8
0
  2
*U95
 70
     1
 10
0.0
 20
0.0
 30
0.0
  3
*U95
  1

  0
TEXT
  5
2264
  8
AM_5
 62
    40
 10
270.65199985318827
 20
189.12329718127
 30
0.0
 40
3.75
  1
49
  0
ENDBLK
  5
2266
  8
0
  0
BLOCK
  8
0
  2
*U96
 70
     1
 10
0.0
 20
0.0
 30
0.0
  3
*U96
  1

  0
TEXT
  5
2268
  8
AM_5
 62
    40
 10
264.63414055279833
 20
136.19528909678939
 30
0.0
 40
3.75
  1
55.5
  0
ENDBLK
  5
226A
  8
0
  0
BLOCK
  8
0
  2
*U97
 70
     1
 10
0.0
 20
0.0
 30
0.0
  3
*U97
  1

  0
TEXT
  5
226C
  8
AM_5
 62
    40
 10
205.54485289006459
 20
136.19528909678911
 30
0.0
 40
3.75
  1
62.5
  0
ENDBLK
  5
226E
  8
0
  0
BLOCK
  8
0
  2
*U98
 70
     1
 10
0.0
 20
0.0
 30
0.0
  3
*U98
  1

  0
TEXT
  5
2270
  8
AM_5
 62
    40
 10
155.65215201855901
 20
160.4770569402952
 30
0.0
 40
3.75
  1
\U+220518
 50
90.0
  0
ENDBLK
  5
2272
  8
0
  0
BLOCK
  8
0
  2
*U99
 70
     1
 10
0.0
 20
0.0
 30
0.0
  3
*U99
  1

  0
TEXT
  5
2274
  8
AM_5
 62
    40
 10
244.21628195752351
 20
251.94982257437761
 30
0.0
 40
3.75
  1
\U+220596
 50
90.0
  0
ENDBLK
  5
2276
  8
0
  0
BLOCK
  8
0
  2
*U100
 70
     1
 10
0.0
 20
0.0
 30
0.0
  3
*U100
  1

  0
TEXT
  5
2278
  8
AM_5
 62
    40
 10
201.51845908750991
 20
252.72566168861059
 30
0.0
 40
3.75
  1
\U+2205100
 50
90.0
  0
ENDBLK
  5
227A
  8
0
  0
BLOCK
  8
0
  2
*U101
 70
     1
 10
0.0
 20
0.0
 30
0.0
  3
*U101
  1

  0
TEXT
  5
227C
  8
AM_5
 62
    40
 10
141.4377100977282
 20
184.48510897850829
 30
0.0
 40
3.75
  1
9
  0
ENDBLK
  5
227E
  8
0
  0
BLOCK
  8
0
  2
*U102
 70
     1
 10
0.0
 20
0.0
 30
0.0
  3
*U102
  1

  0
TEXT
  5
2280
  8
AM_5
 62
    40
 10
145.45913866915691
 20
136.195289096789
 30
0.0
 40
3.75
  1
作動量6
  0
ENDBLK
  5
2282
  8
0
  0
BLOCK
  8
0
  2
*U103
 70
     1
 10
0.0
 20
0.0
 30
0.0
  3
*U103
  1

  0
TEXT
  5
2284
  8
AM_5
 62
    40
 10
284.06271405588302
 20
317.52419340855857
 30
0.0
 40
3.75
  1
22
  0
ENDBLK
  5
2286
  8
0
  0
BLOCK
  8
0
  2
*U104
 70
     1
 10
0.0
 20
0.0
 30
0.0
  3
*U104
  1

  0
TEXT
  5
2288
  8
AM_5
 62
    40
 10
260.53756198574382
 20
317.52419340855852
 30
0.0
 40
3.75
  1
25
  0
ENDBLK
  5
228A
  8
0
  0
BLOCK
  8
0
  2
*U105
 70
     1
 10
0.0
 20
0.0
 30
0.0
  3
*U105
  1

  0
TEXT
  5
228C
  8
AM_5
 62
    40
 10
155.96333831147749
 20
247.00227659496099
 30
0.0
 40
3.0
  1
\U+220585
 50
90.0
  0
ENDBLK
  5
228E
  8
0
  0
BLOCK
  8
0
  2
*U106
 70
     1
 10
0.0
 20
0.0
 30
0.0
  3
*U106
  1

  0
TEXT
  5
2290
  8
AM_5
 62
    40
 10
43.927761445345489
 20
240.06634265458101
 30
0.0
 40
3.0
  1
\U+2205
 50
90.0
  0
TEXT
  5
2291
  8
AM_5
 62
    40
 10
43.927761445345489
 20
242.7806283688667
 30
0.0
 40
3.0
  1
100
 50
90.0
  0
ENDBLK
  5
2293
  8
0
  0
BLOCK
  8
0
  2
*U107
 70
     1
 10
0.0
 20
0.0
 30
0.0
  3
*U107
  1

  0
TEXT
  5
2295
  8
AM_5
 62
    40
 10
52.427761445345503
 20
246.98694859305351
 30
0.0
 40
3.75
  1
\U+220575
 50
90.0
  0
ENDBLK
  5
2297
  8
0
  0
BLOCK
  8
0
  2
*U108
 70
     1
 10
0.0
 20
0.0
 30
0.0
  3
*U108
  1

  0
TEXT
  5
2299
  8
AM_5
 62
    40
 10
151.7948569960453
 20
317.52419340855857
 30
0.0
 40
3.75
  1
16
  0
ENDBLK
  5
229B
  8
0
  0
BLOCK
  8
0
  2
*U109
 70
     1
 10
0.0
 20
0.0
 30
0.0
  3
*U109
  1

  0
TEXT
  5
229D
  8
AM_5
 62
    40
 10
129.6519998531883
 20
317.52419340855857
 30
0.0
 40
3.75
  1
29
  0
ENDBLK
  5
229F
  8
0
  0
BLOCK
  8
0
  2
*U110
 70
     1
 10
0.0
 20
0.0
 30
0.0
  3
*U110
  1

  0
TEXT
  5
22A1
  8
AM_5
 62
    40
 10
168.58056912422461
 20
326.27419340855852
 30
0.0
 40
3.75
  1
116.5
  0
ENDBLK
  5
22A3
  8
0
  0
BLOCK
  8
0
  2
*U111
 70
     1
 10
0.0
 20
0.0
 30
0.0
  3
*U111
  1

  0
TEXT
  5
22A5
  8
AM_5
 62
    40
 10
203.0091427103311
 20
335.0241934085584
 30
0.0
 40
3.75
  1
180
  0
ENDBLK
  5
22A7
  8
0
  0
BLOCK
  8
0
  2
*U112
 70
     1
 10
0.0
 20
0.0
 30
0.0
  3
*U112
  1

  0
TEXT
  5
22A9
  8
AM_5
 62
    40
 10
90.062714138902578
 20
335.02419340855829
 30
0.0
 40
3.75
  1
50
  0
ENDBLK
  5
22AB
  8
0
  0
BLOCK
  8
0
  2
*U113
 70
     1
 10
0.0
 20
0.0
 30
0.0
  3
*U113
  1

  0
TEXT
  5
22AD
  8
AM_5
 62
    40
 10
178.2769998531883
 20
343.77419340855829
 30
0.0
 40
3.75
  1
230
  0
ENDBLK
  5
22AF
  8
0
  0
BLOCK
  8
0
  2
*U114
 70
     1
 10
0.0
 20
0.0
 30
0.0
  3
*U114
  1

  0
TEXT
  5
22B1
  8
AM_5
 62
    40
 10
87.632356996045445
 20
326.27419340855818
 30
0.0
 40
3.75
  1
G.L.10
  0
ENDBLK
  5
22B3
  8
0
  0
BLOCK
  8
0
  2
*U115
 70
     1
 10
0.0
 20
0.0
 30
0.0
  3
*U115
  1

  0
TEXT
  5
22B5
  8
AM_5
 62
    40
 10
145.9734264761689
 20
191.38965359119601
 30
0.0
 40
3.75
  1
62
  0
ENDBLK
  5
22B7
  8
0
  0
BLOCK
  8
0
  2
*U116
 70
     1
 10
0.0
 20
0.0
 30
0.0
  3
*U116
  1

  0
TEXT
  5
22B9
  8
AM_5
 62
    40
 10
438.22568191098031
 20
137.06634164458089
 30
0.0
 40
3.75
  1
42
  0
ENDBLK
  5
22BB
  8
0
  0
BLOCK
  8
0
  2
*U117
 70
     1
 10
0.0
 20
0.0
 30
0.0
  3
*U117
  1

  0
TEXT
  5
22BD
  8
AM_5
 62
    40
 10
438.31496762526621
 20
128.31634164458049
 30
0.0
 40
3.75
  1
59
  0
ENDBLK
  5
22BF
  8
0
  0
BLOCK
  8
0
  2
*U118
 70
     1
 10
0.0
 20
0.0
 30
0.0
  3
*U118
  1

  0
TEXT
  5
22C1
  8
AM_5
 62
    40
 10
400.03770158128651
 20
138.69727367617909
 30
0.0
 40
3.75
  1
R21
 50
34.20071028260984
  0
ENDBLK
  5
22C3
  8
0
  0
BLOCK
  8
0
  2
*U119
 70
     1
 10
0.0
 20
0.0
 30
0.0
  3
*U119
  1

  0
TEXT
  5
22C5
  8
AM_5
 62
    40
 10
374.47928950661162
 20
212.58609430767959
 30
0.0
 40
3.75
  1
(54)
 50
90.0
  0
ENDBLK
  5
22C7
  8
0
  0
BLOCK
  8
0
  2
*U120
 70
     1
 10
0.0
 20
0.0
 30
0.0
  3
*U120
  1

  0
TEXT
  5
22C9
  8
AM_5
 62
    40
 10
367.33643236375451
 20
201.99491408315231
 30
0.0
 40
3.75
  1
80
 50
90.0
  0
ENDBLK
  5
22CB
  8
0
  0
BLOCK
  8
0
  2
*U121
 70
     1
 10
0.0
 20
0.0
 30
0.0
  3
*U121
  1

  0
TEXT
  5
22CD
  8
AM_5
 62
    40
 10
410.27534897832982
 20
293.02077798085782
 30
0.0
 40
3.75
  1
20
 50
29.999999999999918
  0
ENDBLK
  5
22CF
  8
0
  0
BLOCK
  8
0
  2
*U122
 70
     1
 10
0.0
 20
0.0
 30
0.0
  3
*U122
  1

  0
TEXT
  5
22D1
  8
AM_5
 62
    40
 10
474.07452051586228
 20
182.51737139704909
 30
0.0
 40
3.75
  1
22
 50
29.999999999999961
  0
ENDBLK
  5
22D3
  8
0
  0
BLOCK
  8
0
  2
*U123
 70
     1
 10
0.0
 20
0.0
 30
0.0
  3
*U123
  1

  0
TEXT
  5
22D5
  8
AM_5
 62
    40
 10
77.054512879313279
 20
138.81479263640759
 30
0.0
 40
3.75
  1
位置決めブロック
  0
ENDBLK
  5
22D7
  8
0
  0
BLOCK
  8
0
  2
*U124
 70
     1
 10
0.0
 20
0.0
 30
0.0
  3
*U124
  1

  0
TEXT
  5
22D9
  8
AM_5
 62
    40
 10
310.65951989193479
 20
192.80822117974321
 30
0.0
 40
3.75
  1
マイクロコレット
  0
TEXT
  5
22DA
  8
AM_5
 62
    40
 10
310.65951989193479
 20
186.55822117974321
 30
0.0
 40
3.75
  1
（別売品）
  0
ENDBLK
  5
22DC
  8
0
  0
BLOCK
  8
0
  2
*U125
 70
     1
 10
0.0
 20
0.0
 30
0.0
  3
*U125
  1

  0
TEXT
  5
22DE
  8
AM_5
 62
    40
 10
204.9521323790724
 20
252.28828472676739
 30
0.0
 40
3.75
  1
エア排気口
  0
ENDBLK
  5
22E0
  8
0
  0
BLOCK
  8
0
  2
*U126
 70
     1
 10
0.0
 20
0.0
 30
0.0
  3
*U126
  1

  0
TEXT
  5
22E2
  8
AM_5
 62
    40
 10
34.736820925746017
 20
187.5224695270835
 30
0.0
 40
3.75
  1
HSK-A100
  0
ENDBLK
  5
22E4
  8
0
  0
BLOCK
  8
0
  2
*U127
 70
     1
 10
0.0
 20
0.0
 30
0.0
  3
*U127
  1

  0
TEXT
  5
22E6
  8
AM_5
 62
    40
 10
341.51879847492472
 20
273.48734034339179
 30
0.0
 40
3.75
  1
エア排気口
  0
TEXT
  5
22E7
  8
AM_5
 62
    40
 10
340.98308418921039
 20
267.23734034339179
 30
0.0
 40
3.75
  1
90°毎4方向調整可
  0
ENDBLK
  5
22E9
  8
0
  0
BLOCK
  8
0
  2
*U128
 70
     1
 10
0.0
 20
0.0
 30
0.0
  3
*U128
  1

  0
TEXT
  5
22EB
  8
250
 10
271.166793598683
 20
61.79873164417846
 30
0.0
 40
4.5
  1
+θ°
 50
15.000000000000011
  0
ENDBLK
  5
22ED
  8
0
  0
BLOCK
  8
0
  2
*U129
 70
     1
 10
0.0
 20
0.0
 30
0.0
  3
*U129
  1

  0
TEXT
  5
22EF
  8
AM_5
 62
    40
 10
187.50000000000011
 20
8.7714285714286291
 30
0.0
 40
3.5
  1
Max.\U+22054
 50
90.0
  0
ENDBLK
  5
22F1
  8
0
  0
BLOCK
  8
0
  2
*U130
 70
     1
 10
0.0
 20
0.0
 30
0.0
  3
*U130
  1

  0
TEXT
  5
22F3
  8
AM_5
 62
    40
 10
196.2500000000002
 20
-4.7499999999999982
 30
0.0
 40
3.5
  1
\U+220512
 50
90.0
  0
ENDBLK
  5
22F5
  8
0
  0
BLOCK
  8
0
  2
*U131
 70
     1
 10
0.0
 20
0.0
 30
0.0
  3
*U131
  1

  0
TEXT
  5
22F7
  8
AM_5
 62
    40
 10
205.00000000000031
 20
-4.7500000000000053
 30
0.0
 40
3.5
  1
\U+220527
 50
90.0
  0
ENDBLK
  5
22F9
  8
0
  0
BLOCK
  8
0
  2
*U132
 70
     1
 10
0.0
 20
0.0
 30
0.0
  3
*U132
  1

  0
TEXT
  5
22FB
  8
AM_5
 62
    40
 10
213.7499999999942
 20
-4.7500000000000728
 30
0.0
 40
3.5
  1
\U+220582
 50
90.0
  0
ENDBLK
  5
22FD
  8
0
  0
BLOCK
  8
0
  2
*U133
 70
     1
 10
0.0
 20
0.0
 30
0.0
  3
*U133
  1

  0
TEXT
  5
22FF
  8
AM_5
 62
    40
 10
168.41666658364849
 20
63.207850753977738
 30
0.0
 40
3.5
  1
16
  0
ENDBLK
  5
2301
  8
0
  0
BLOCK
  8
0
  2
*U134
 70
     1
 10
0.0
 20
0.0
 30
0.0
  3
*U134
  1

  0
TEXT
  5
2303
  8
AM_5
 62
    40
 10
159.24999983396231
 20
63.207850753977617
 30
0.0
 40
3.5
  1
6
  0
ENDBLK
  5
2305
  8
0
  0
BLOCK
  8
0
  2
*U135
 70
     1
 10
0.0
 20
0.0
 30
0.0
  3
*U135
  1

  0
TEXT
  5
2307
  8
AM_5
 62
    40
 10
142.33333117579889
 20
80.707850753977795
 30
0.0
 40
3.5
  1
63.5
  0
ENDBLK
  5
2309
  8
0
  0
BLOCK
  8
0
  2
*U136
 70
     1
 10
0.0
 20
0.0
 30
0.0
  3
*U136
  1

  0
TEXT
  5
230B
  8
AM_5
 62
    40
 10
152.25
 20
-56.443045473310953
 30
0.0
 40
3.5
  1
49
  0
ENDBLK
  5
230D
  8
0
  0
BLOCK
  8
0
  2
*U137
 70
     1
 10
0.0
 20
0.0
 30
0.0
  3
*U137
  1

  0
TEXT
  5
230F
  8
AM_5
 62
    40
 10
146.4166645091338
 20
-109.3710535577915
 30
0.0
 40
3.5
  1
55.5
  0
ENDBLK
  5
2311
  8
0
  0
BLOCK
  8
0
  2
*U138
 70
     1
 10
0.0
 20
0.0
 30
0.0
  3
*U138
  1

  0
TEXT
  5
2313
  8
AM_5
 62
    40
 10
87.333329227352451
 20
-109.3710535577918
 30
0.0
 40
3.5
  1
62.5
  0
ENDBLK
  5
2315
  8
0
  0
BLOCK
  8
0
  2
*U139
 70
     1
 10
0.0
 20
0.0
 30
0.0
  3
*U139
  1

  0
TEXT
  5
2317
  8
AM_5
 62
    40
 10
37.018009308227889
 20
-84.750000000000014
 30
0.0
 40
3.5
  1
\U+220518
 50
90.0
  0
ENDBLK
  5
2319
  8
0
  0
BLOCK
  8
0
  2
*U140
 70
     1
 10
0.0
 20
0.0
 30
0.0
  3
*U140
  1

  0
TEXT
  5
231B
  8
AM_5
 62
    40
 10
125.5821392471923
 20
6.7227656340823794
 30
0.0
 40
3.5
  1
\U+220596
 50
90.0
  0
ENDBLK
  5
231D
  8
0
  0
BLOCK
  8
0
  2
*U141
 70
     1
 10
0.0
 20
0.0
 30
0.0
  3
*U141
  1

  0
TEXT
  5
231F
  8
AM_5
 62
    40
 10
82.884316377178749
 20
7.6176523673629992
 30
0.0
 40
3.5
  1
\U+2205100
 50
90.0
  0
ENDBLK
  5
2321
  8
0
  0
BLOCK
  8
0
  2
*U142
 70
     1
 10
0.0
 20
0.0
 30
0.0
  3
*U142
  1

  0
TEXT
  5
2323
  8
AM_5
 62
    40
 10
26.82499595882571
 20
-109.3710535577919
 30
0.0
 40
3.5
  1
作動量6
  0
ENDBLK
  5
2325
  8
0
  0
BLOCK
  8
0
  2
*U143
 70
     1
 10
0.0
 20
0.0
 30
0.0
  3
*U143
  1

  0
TEXT
  5
2327
  8
AM_5
 62
    40
 10
165.6666665836471
 20
71.957850753977624
 30
0.0
 40
3.5
  1
22
  0
ENDBLK
  5
2329
  8
0
  0
BLOCK
  8
0
  2
*U144
 70
     1
 10
0.0
 20
0.0
 30
0.0
  3
*U144
  1

  0
TEXT
  5
232B
  8
AM_5
 62
    40
 10
142.14151451350779
 20
71.95785075397751
 30
0.0
 40
3.5
  1
25
  0
ENDBLK
  5
232D
  8
0
  0
BLOCK
  8
0
  2
*U145
 70
     1
 10
0.0
 20
0.0
 30
0.0
  3
*U145
  1

  0
TEXT
  5
232F
  8
AM_5
 62
    40
 10
-74.706381264985623
 20
-5.4999999999999591
 30
0.0
 40
3.0
  1
\U+2205
 50
90.0
  0
TEXT
  5
2330
  8
AM_5
 62
    40
 10
-74.706381264985623
 20
-2.7857142857142452
 30
0.0
 40
3.0
  1
100
 50
90.0
  0
ENDBLK
  5
2332
  8
0
  0
BLOCK
  8
0
  2
*U146
 70
     1
 10
0.0
 20
0.0
 30
0.0
  3
*U146
  1

  0
TEXT
  5
2334
  8
AM_5
 62
    40
 10
37.329195601146353
 20
1.7073625118085669
 30
0.0
 40
2.7999999999999989
  1
\U+220585
 50
90.0
  0
ENDBLK
  5
2336
  8
0
  0
BLOCK
  8
0
  2
*U147
 70
     1
 10
0.0
 20
0.0
 30
0.0
  3
*U147
  1

  0
TEXT
  5
2338
  8
AM_5
 62
    40
 10
-66.206381264985623
 20
1.75989165275827
 30
0.0
 40
3.5
  1
\U+220575
 50
90.0
  0
ENDBLK
  5
233A
  8
0
  0
BLOCK
  8
0
  2
*U148
 70
     1
 10
0.0
 20
0.0
 30
0.0
  3
*U148
  1

  0
TEXT
  5
233C
  8
AM_5
 62
    40
 10
33.416666666666572
 20
71.957850753977681
 30
0.0
 40
3.5
  1
16
  0
ENDBLK
  5
233E
  8
0
  0
BLOCK
  8
0
  2
*U149
 70
     1
 10
0.0
 20
0.0
 30
0.0
  3
*U149
  1

  0
TEXT
  5
2340
  8
AM_5
 62
    40
 10
11.250000000000011
 20
71.957850753977624
 30
0.0
 40
3.5
  1
29
  0
ENDBLK
  5
2342
  8
0
  0
BLOCK
  8
0
  2
*U150
 70
     1
 10
0.0
 20
0.0
 30
0.0
  3
*U150
  1

  0
TEXT
  5
2344
  8
AM_5
 62
    40
 10
50.4999978424649
 20
80.707850753977553
 30
0.0
 40
3.5
  1
116.5
  0
ENDBLK
  5
2346
  8
0
  0
BLOCK
  8
0
  2
*U151
 70
     1
 10
0.0
 20
0.0
 30
0.0
  3
*U151
  1

  0
TEXT
  5
2348
  8
AM_5
 62
    40
 10
-28.333333333333339
 20
89.457850753977354
 30
0.0
 40
3.5
  1
50
  0
ENDBLK
  5
234A
  8
0
  0
BLOCK
  8
0
  2
*U152
 70
     1
 10
0.0
 20
0.0
 30
0.0
  3
*U152
  1

  0
TEXT
  5
234C
  8
AM_5
 62
    40
 10
60.000000000000028
 20
98.207850753977354
 30
0.0
 40
3.5
  1
230
  0
ENDBLK
  5
234E
  8
0
  0
BLOCK
  8
0
  2
*U153
 70
     1
 10
0.0
 20
0.0
 30
0.0
  3
*U153
  1

  0
TEXT
  5
2350
  8
AM_5
 62
    40
 10
-29.87083333333333
 20
80.707850753977269
 30
0.0
 40
3.5
  1
G.L.10
  0
ENDBLK
  5
2352
  8
0
  0
BLOCK
  8
0
  2
*U154
 70
     1
 10
0.0
 20
0.0
 30
0.0
  3
*U154
  1

  0
TEXT
  5
2354
  8
AM_5
 62
    40
 10
27.58333138488538
 20
-54.176689063384877
 30
0.0
 40
3.5
  1
62
  0
ENDBLK
  5
2356
  8
0
  0
BLOCK
  8
0
  2
*U155
 70
     1
 10
0.0
 20
0.0
 30
0.0
  3
*U155
  1

  0
TEXT
  5
2358
  8
AM_5
 62
    40
 10
319.82963443874439
 20
-108.50000101000001
 30
0.0
 40
3.5
  1
42
  0
ENDBLK
  5
235A
  8
0
  0
BLOCK
  8
0
  2
*U156
 70
     1
 10
0.0
 20
0.0
 30
0.0
  3
*U156
  1

  0
TEXT
  5
235C
  8
AM_5
 62
    40
 10
319.91296777207788
 20
-117.2500010100004
 30
0.0
 40
3.5
  1
59
  0
ENDBLK
  5
235E
  8
0
  0
BLOCK
  8
0
  2
*U157
 70
     1
 10
0.0
 20
0.0
 30
0.0
  3
*U157
  1

  0
TEXT
  5
2360
  8
AM_5
 62
    40
 10
281.6792500730196
 20
-106.6817044347562
 30
0.0
 40
3.5
  1
R21
 50
34.20071028260984
  0
ENDBLK
  5
2362
  8
0
  0
BLOCK
  8
0
  2
*U158
 70
     1
 10
0.0
 20
0.0
 30
0.0
  3
*U158
  1

  0
TEXT
  5
2364
  8
AM_5
 62
    40
 10
255.95228965342341
 20
-32.575486442139443
 30
0.0
 40
3.5
  1
(54)
 50
90.0
  0
ENDBLK
  5
2366
  8
0
  0
BLOCK
  8
0
  2
*U159
 70
     1
 10
0.0
 20
0.0
 30
0.0
  3
*U159
  1

  0
TEXT
  5
2368
  8
AM_5
 62
    40
 10
248.70228965342341
 20
-43.333333333333421
 30
0.0
 40
3.5
  1
80
 50
90.0
  0
ENDBLK
  5
236A
  8
0
  0
BLOCK
  8
0
  2
*U160
 70
     1
 10
0.0
 20
0.0
 30
0.0
  3
*U160
  1

  0
TEXT
  5
236C
  8
AM_5
 62
    40
 10
291.84740279270932
 20
47.5734829453245
 30
0.0
 40
3.5
  1
20
 50
29.999999999999918
  0
ENDBLK
  5
236E
  8
0
  0
BLOCK
  8
0
  2
*U161
 70
     1
 10
0.0
 20
0.0
 30
0.0
  3
*U161
  1

  0
TEXT
  5
2370
  8
AM_5
 62
    40
 10
355.64657433024172
 20
-62.929923638484233
 30
0.0
 40
3.5
  1
22
 50
29.999999999999961
  0
ENDBLK
  5
2372
  8
0
  0
BLOCK
  8
0
  2
*U162
 70
     1
 10
0.0
 20
0.0
 30
0.0
  3
*U162
  1

  0
TEXT
  5
2374
  8
AM_5
 62
    40
 10
22.91666262549229
 20
-57.930970833388891
 30
0.0
 40
3.5
  1
9
  0
ENDBLK
  5
2376
  8
0
  0
BLOCK
  8
0
  2
*U163
 70
     1
 10
0.0
 20
0.0
 30
0.0
  3
*U163
  1

  0
TEXT
  5
2378
  8
250
 10
-74.37430775285911
 20
-47.375227769276918
 30
0.0
 40
3.75
  1
HSK-A100
  0
ENDBLK
  5
237A
  8
0
  0
BLOCK
  8
0
  2
*U164
 70
     1
 10
0.0
 20
0.0
 30
0.0
  3
*U164
  1

  0
TEXT
  5
237C
  8
AM_5
 62
    40
 10
84.750000000000028
 20
71.25
 30
0.0
 40
3.5
  1
180
  0
ENDBLK
  5
237E
  8
0
  0
BLOCK
  8
0
  2
*U165
 70
     1
 10
0.0
 20
0.0
 30
0.0
  3
*U165
  1

  0
TEXT
  5
2380
  8
AM_5
 62
    40
 10
152.25
 20
64.0
 30
0.0
 40
3.5
  1
49
  0
ENDBLK
  5
2382
  8
0
  0
BLOCK
  8
0
  2
*U166
 70
     1
 10
0.0
 20
0.0
 30
0.0
  3
*U166
  1

  0
TEXT
  5
2384
  8
AM_5
 62
    40
 10
213.01959045480999
 20
-6.4166666666666838
 30
0.0
 40
3.5
  1
\U+2205100
 50
90.0
  0
ENDBLK
  5
2386
  8
0
  0
ENDSEC
  0
SECTION
  2
ENTITIES
  0
LINE
  5
1923
  8
AM_0
 10
76.999996103103953
 20
-101.0
 30
0.0
 11
113.49999568493411
 21
-101.0
 31
0.0
1001
GRPNAME
1000
0000006C
  0
LINE
  5
1924
  8
AM_0
 10
22.99999595882548
 20
-70.974428914871993
 30
0.0
 11
60.99999568493115
 21
-71.000000000000028
 31
0.0
1001
GRPNAME
1000
0000000A
  0
LINE
  5
1925
  8
AM_0
 10
22.99999595882548
 20
-88.974428914871993
 30
0.0
 11
60.99999568493115
 21
-89.000000000000028
 31
0.0
1001
GRPNAME
1000
0000000A
  0
LINE
  5
1926
  8
AM_1
 10
74.999996103104081
 20
-65.000000000000028
 30
0.0
 11
74.999996103104081
 21
-64.000000000000028
 31
0.0
1001
GRPNAME
1000
0000006C
  0
LINE
  5
1927
  8
AM_0
 10
70.99999568493422
 20
-57.500000000000249
 30
0.0
 11
70.99999568493422
 21
-44.000000000000263
 31
0.0
1001
GRPNAME
1000
0000002V
  0
ARC
  5
1928
  8
AM_0
 10
76.999996103103953
 20
-99.000000000000028
 30
0.0
 40
2.0
 50
180.0
 51
270.0
1001
GRPNAME
1000
0000006C
  0
LINE
  5
1929
  8
AM_0
 10
19.9999959588257
 20
-87.403254349599734
 30
0.0
 11
19.9999959588257
 21
-79.974428914871993
 31
0.0
1001
GRPNAME
1000
0000000A
  0
LINE
  5
192A
  8
AM_0
 10
20.741176913723159
 20
-88.369180175888829
 30
0.0
 11
22.99999595882548
 21
-88.974428914871993
 31
0.0
1001
GRPNAME
1000
0000000A
  0
ARC
  5
192B
  8
AM_0
 10
20.999995958825711
 20
-87.403254349599507
 30
0.0
 40
1.0
 50
179.9999999652816
 51
254.99999996528649
1001
GRPNAME
1000
0000000A
  0
LINE
  5
192C
  8
AM_0
 10
19.9999959588257
 20
-72.545603480144479
 30
0.0
 11
19.9999959588257
 21
-79.974428914871993
 31
0.0
1001
GRPNAME
1000
0000000A
  0
LINE
  5
192D
  8
AM_0
 10
20.741176913723159
 20
-71.579677653855384
 30
0.0
 11
22.99999595882548
 21
-70.974428914871993
 31
0.0
1001
GRPNAME
1000
0000000A
  0
ARC
  5
192E
  8
AM_0
 10
20.999995958825711
 20
-72.545603480144479
 30
0.0
 40
1.0000000000001841
 50
105.00000003471349
 51
180.0000000347184
1001
GRPNAME
1000
0000000A
  0
LINE
  5
192F
  8
AM_0
 10
62.999996103103847
 20
-101.0000000000001
 30
0.0
 11
74.699996103103899
 21
-101.0000000000002
 31
0.0
1001
GRPNAME
1000
0000003G
  0
LINE
  5
1930
  8
AM_1
 10
60.999995684931029
 20
-80.000000000000028
 30
0.0
 11
60.999995684931029
 21
-89.000000000000028
 31
0.0
1001
GRPNAME
1000
0000002V
  0
LINE
  5
1931
  8
AM_0
 10
61.999996103103847
 20
-100.0
 30
0.0
 11
61.999996103103847
 21
-93.577350510621969
 31
0.0
1001
GRPNAME
1000
0000003G
  0
LINE
  5
1932
  8
AM_0
 10
62.999996103103847
 20
-101.0000000000001
 30
0.0
 11
61.999996103103847
 21
-100.0
 31
0.0
1001
GRPNAME
1000
0000003G
  0
LINE
  5
1933
  8
AM_0
 10
60.999995684931029
 20
-93.000000000000256
 30
0.0
 11
61.999996103103847
 21
-93.577350510621969
 31
0.0
1001
GRPNAME
1000
0000002V
  0
LINE
  5
1934
  8
AM_1
 10
74.999996103103953
 20
-99.000000000000028
 30
0.0
 11
74.999996103103953
 21
-95.000000000000028
 31
0.0
1001
GRPNAME
1000
0000006C
  0
LINE
  5
1935
  8
AM_0
 10
74.999996103103953
 20
-100.7000000000002
 30
0.0
 11
74.999996103103953
 21
-99.000000000000028
 31
0.0
1001
GRPNAME
1000
0000003G
  0
LINE
  5
1936
  8
AM_0
 10
74.699996103103899
 20
-101.0000000000002
 30
0.0
 11
74.999996103103953
 21
-100.7000000000002
 31
0.0
1001
GRPNAME
1000
0000003G
  0
LINE
  5
1937
  8
AM_0
 10
60.999995684931029
 20
-67.000000000000256
 30
0.0
 11
60.999995684931029
 21
-71.000000000000028
 31
0.0
1001
GRPNAME
1000
0000002V
  0
LINE
  5
1938
  8
AM_0
 10
61.999996103104202
 20
-63.000000000000142
 30
0.0
 11
62.999996103104543
 21
-61.999999999999801
 31
0.0
1001
GRPNAME
1000
0000003G
  0
LINE
  5
1939
  8
AM_0
 10
60.999995684931029
 20
-67.000000000000256
 30
0.0
 11
61.99999610310374
 21
-66.422649489378529
 31
0.0
1001
GRPNAME
1000
0000002V
  0
LINE
  5
193A
  8
AM_1
 10
61.999996103102831
 20
-80.000000000000028
 30
0.0
 11
61.999996103103847
 21
-66.249444408621486
 31
0.0
1001
GRPNAME
1000
0000003G
  0
LINE
  5
193B
  8
AM_0
 10
72.999996103104309
 20
-62.000000000000249
 30
0.0
 11
74.999996103104309
 21
-64.000000000000256
 31
0.0
1001
GRPNAME
1000
0000003G
  0
LINE
  5
193C
  8
AM_0
 10
70.99999568493422
 20
-57.500000000000249
 30
0.0
 11
71.99999568493422
 21
-57.500000000000249
 31
0.0
1001
GRPNAME
1000
0000002V
  0
LINE
  5
193D
  8
AM_0
 10
62.999996103104543
 20
-61.999999999999801
 30
0.0
 11
65.99999568493422
 21
-61.999999999999922
 31
0.0
1001
GRPNAME
1000
0000003G
  0
LINE
  5
193E
  8
AM_1
 10
74.999996103103172
 20
-80.000000000000028
 30
0.0
 11
74.999996103104309
 21
-64.000000000000256
 31
0.0
1001
GRPNAME
1000
0000003G
  0
LINE
  5
193F
  8
AM_1
 10
51.999996103101473
 20
-40.600000000000158
 30
0.0
 11
51.999996103101473
 21
-48.699999999999612
 31
0.0
1001
GRPNAME
1000
0000000K
  0
LINE
  5
1940
  8
AM_1
 10
51.999996103101353
 20
-48.700000000000081
 30
0.0
 11
51.999996103101353
 21
-0.0000000000000284
 31
0.0
1001
GRPNAME
1000
0000001N
  0
LINE
  5
1941
  8
AM_0
 10
63.999996103101118
 20
-48.500000000000028
 30
0.0
 11
63.999996103101118
 21
-41.303265717640457
 31
0.0
1001
GRPNAME
1000
0000001N
  0
LINE
  5
1942
  8
AM_0
 10
52.2999961031013
 20
-49.000000000000028
 30
0.0
 11
63.499996103101132
 21
-49.000000000000028
 31
0.0
1001
GRPNAME
1000
0000001N
  0
LINE
  5
1943
  8
AM_0
 10
52.2999961031013
 20
-49.000000000000028
 30
0.0
 11
51.999996103101353
 21
-48.700000000000081
 31
0.0
1001
GRPNAME
1000
0000001N
  0
LINE
  5
1944
  8
AM_0
 10
63.499996103101132
 20
-49.000000000000028
 30
0.0
 11
63.999996103101118
 21
-48.500000000000028
 31
0.0
1001
GRPNAME
1000
0000001N
  0
LINE
  5
1945
  8
AM_1
 10
66.49999568493422
 20
-50.500000000000249
 30
0.0
 11
70.49999568493422
 21
-50.500000000000249
 31
0.0
1001
GRPNAME
1000
0000002V
  0
LINE
  5
1946
  8
AM_1
 10
66.49999568493422
 20
-50.500000000000249
 30
0.0
 11
65.99999568493422
 21
-51.000000000000263
 31
0.0
1001
GRPNAME
1000
0000002V
  0
LINE
  5
1947
  8
AM_1
 10
70.49999568493422
 20
-50.500000000000249
 30
0.0
 11
70.99999568493422
 21
-51.000000000000263
 31
0.0
1001
GRPNAME
1000
0000002V
  0
LINE
  5
1948
  8
AM_0
 10
70.49999568493422
 20
-43.500000000000249
 30
0.0
 11
66.499995684931037
 21
-43.500000000000249
 31
0.0
1001
GRPNAME
1000
0000002V
  0
LINE
  5
1949
  8
AM_0
 10
66.499995684931037
 20
-43.500000000000249
 30
0.0
 11
65.999995684931037
 21
-44.000000000000263
 31
0.0
1001
GRPNAME
1000
0000002V
  0
LINE
  5
194A
  8
AM_0
 10
70.49999568493422
 20
-43.500000000000249
 30
0.0
 11
70.99999568493422
 21
-44.000000000000263
 31
0.0
1001
GRPNAME
1000
0000002V
  0
LINE
  5
194B
  8
AM_1
 10
51.999996103101473
 20
40.599999999999881
 30
0.0
 11
51.999996103101473
 21
48.699999999999449
 31
0.0
1001
GRPNAME
1000
0000000K
  0
LINE
  5
194C
  8
AM_1
 10
51.999996103101353
 20
48.69999999999979
 30
0.0
 11
51.999996103101353
 21
-0.0000000000001421
 31
0.0
1001
GRPNAME
1000
0000001N
  0
LINE
  5
194D
  8
AM_0
 10
63.999996103101118
 20
48.499999999999737
 30
0.0
 11
63.999996103101118
 21
41.264231062359578
 31
0.0
1001
GRPNAME
1000
0000001N
  0
LINE
  5
194E
  8
AM_0
 10
52.2999961031013
 20
48.999999999999737
 30
0.0
 11
63.499996103101132
 21
48.999999999999737
 31
0.0
1001
GRPNAME
1000
0000001N
  0
LINE
  5
194F
  8
AM_0
 10
52.2999961031013
 20
48.999999999999737
 30
0.0
 11
51.999996103101353
 21
48.69999999999979
 31
0.0
1001
GRPNAME
1000
0000001N
  0
LINE
  5
1950
  8
AM_0
 10
63.499996103101132
 20
48.999999999999737
 30
0.0
 11
63.999996103101118
 21
48.499999999999737
 31
0.0
1001
GRPNAME
1000
0000001N
  0
LINE
  5
1951
  8
AM_0
 10
115.49999568493421
 20
-63.500000000000028
 30
0.0
 11
115.49999568493421
 21
-49.68125003862977
 31
0.0
1001
GRPNAME
1000
0000006C
  0
ARC
  5
1952
  8
AM_0
 10
113.49999568493411
 20
-99.000000000000028
 30
0.0
 40
2.0
 50
270.0
 51
0.0
1001
GRPNAME
1000
0000006C
  0
LINE
  5
1954
  8
AM_0
 10
124.4999956849344
 20
-70.828427124746355
 30
0.0
 11
124.4999956849344
 21
-80.000000000000028
 31
0.0
1001
GRPNAME
1000
0000000W
  0
ARC
  5
1955
  8
AM_0
 10
122.4999956849344
 20
-89.171572875253702
 30
0.0
 40
1.999999999999915
 50
315.00000000257251
 51
0.0000000025729415
1001
GRPNAME
1000
0000000W
  0
LINE
  5
1956
  8
AM_0
 10
123.9142092473075
 20
-90.585786437626808
 30
0.0
 11
117.79288890374769
 21
-96.707106781186468
 31
0.0
1001
GRPNAME
1000
0000000W
  0
LINE
  5
1957
  8
AM_0
 10
115.49999568493411
 20
-99.000000000000028
 30
0.0
 11
115.49999568493411
 21
-96.499999999999915
 31
0.0
1001
GRPNAME
1000
0000006C
  0
LINE
  5
1958
  8
AM_1
 10
115.49999568493421
 20
-80.000000000000028
 30
0.0
 11
115.49999568493421
 21
-96.500000000000028
 31
0.0
1001
GRPNAME
1000
0000000W
  0
ARC
  5
1959
  8
AM_0
 10
117.0857821225611
 20
-96.000000000000028
 30
0.0
 40
1.000000000000014
 50
270.00000003726859
 51
315.00000003726598
1001
GRPNAME
1000
0000000W
  0
LINE
  5
195A
  8
AM_0
 10
115.99999568493421
 20
-97.000000000000014
 30
0.0
 11
115.49999568493421
 21
-96.500000000000028
 31
0.0
1001
GRPNAME
1000
0000000W
  0
LINE
  5
195B
  8
AM_0
 10
115.99999568493421
 20
-97.000000000000014
 30
0.0
 11
117.0857821225611
 21
-97.000000000000014
 31
0.0
1001
GRPNAME
1000
0000000W
  0
LINE
  5
195C
  8
AM_0
 10
124.4999956849344
 20
-89.171572875253702
 30
0.0
 11
124.4999956849344
 21
-80.000000000000028
 31
0.0
1001
GRPNAME
1000
0000000W
  0
LINE
  5
195D
  8
AM_0
 10
123.9142092473075
 20
-69.414213562373249
 30
0.0
 11
117.79288890374769
 21
-63.292893218813589
 31
0.0
1001
GRPNAME
1000
0000000W
  0
ARC
  5
195E
  8
AM_0
 10
122.4999956849344
 20
-70.828427124746355
 30
0.0
 40
1.9999999999998861
 50
359.99999998713861
 51
44.999999987135617
1001
GRPNAME
1000
0000000W
  0
ARC
  5
195F
  8
AM_0
 10
117.0857821225611
 20
-64.000000000000028
 30
0.0
 40
0.9999999999999879
 50
44.999999952443723
 51
89.999999952442934
1001
GRPNAME
1000
0000000W
  0
LINE
  5
1960
  8
AM_1
 10
115.49999568493421
 20
-80.000000000000028
 30
0.0
 11
115.49999568493421
 21
-63.500000000000028
 31
0.0
1001
GRPNAME
1000
0000000W
  0
LINE
  5
1961
  8
AM_0
 10
115.99999568493421
 20
-63.000000000000028
 30
0.0
 11
115.49999568493421
 21
-63.500000000000028
 31
0.0
1001
GRPNAME
1000
0000000W
  0
LINE
  5
1962
  8
AM_0
 10
115.99999568493421
 20
-63.000000000000028
 30
0.0
 11
117.0857821225611
 21
-63.000000000000028
 31
0.0
1001
GRPNAME
1000
0000000W
  0
POLYLINE
  5
1965
  8
AM_2
 10
77.999996103099818
 20
-56.745273946307783
 30
0.0
 66
     1
 70
     8
  0
VERTEX
  8
AM_2
  5
2387
 10
78.0000
 20
-56.7453
 30
0.000000
  70
    32
  0
VERTEX
  8
AM_2
  5
2388
 10
78.0042
 20
-56.8124
 30
0.000000
  70
    32
  0
VERTEX
  8
AM_2
  5
2389
 10
78.0168
 20
-56.8793
 30
0.000000
  70
    32
  0
VERTEX
  8
AM_2
  5
238A
 10
78.0379
 20
-56.9459
 30
0.000000
  70
    32
  0
VERTEX
  8
AM_2
  5
238B
 10
78.0672
 20
-57.0121
 30
0.000000
  70
    32
  0
VERTEX
  8
AM_2
  5
238C
 10
78.1049
 20
-57.0776
 30
0.000000
  70
    32
  0
VERTEX
  8
AM_2
  5
238D
 10
78.1507
 20
-57.1423
 30
0.000000
  70
    32
  0
VERTEX
  8
AM_2
  5
238E
 10
78.2046
 20
-57.2060
 30
0.000000
  70
    32
  0
VERTEX
  8
AM_2
  5
238F
 10
78.2664
 20
-57.2686
 30
0.000000
  70
    32
  0
VERTEX
  8
AM_2
  5
2390
 10
78.3360
 20
-57.3300
 30
0.000000
  70
    32
  0
VERTEX
  8
AM_2
  5
2391
 10
78.4133
 20
-57.3899
 30
0.000000
  70
    32
  0
VERTEX
  8
AM_2
  5
2392
 10
78.4979
 20
-57.4483
 30
0.000000
  70
    32
  0
VERTEX
  8
AM_2
  5
2393
 10
78.5899
 20
-57.5050
 30
0.000000
  70
    32
  0
VERTEX
  8
AM_2
  5
2394
 10
78.6888
 20
-57.5599
 30
0.000000
  70
    32
  0
VERTEX
  8
AM_2
  5
2395
 10
78.7945
 20
-57.6128
 30
0.000000
  70
    32
  0
VERTEX
  8
AM_2
  5
2396
 10
78.9067
 20
-57.6637
 30
0.000000
  70
    32
  0
VERTEX
  8
AM_2
  5
2397
 10
79.0251
 20
-57.7123
 30
0.000000
  70
    32
  0
VERTEX
  8
AM_2
  5
2398
 10
79.1495
 20
-57.7586
 30
0.000000
  70
    32
  0
VERTEX
  8
AM_2
  5
2399
 10
79.2796
 20
-57.8024
 30
0.000000
  70
    32
  0
VERTEX
  8
AM_2
  5
239A
 10
79.4150
 20
-57.8437
 30
0.000000
  70
    32
  0
VERTEX
  8
AM_2
  5
239B
 10
79.5555
 20
-57.8824
 30
0.000000
  70
    32
  0
VERTEX
  8
AM_2
  5
239C
 10
79.7006
 20
-57.9183
 30
0.000000
  70
    32
  0
VERTEX
  8
AM_2
  5
239D
 10
79.8501
 20
-57.9514
 30
0.000000
  70
    32
  0
VERTEX
  8
AM_2
  5
239E
 10
80.0036
 20
-57.9815
 30
0.000000
  70
    32
  0
VERTEX
  8
AM_2
  5
239F
 10
80.1606
 20
-58.0087
 30
0.000000
  70
    32
  0
VERTEX
  8
AM_2
  5
23A0
 10
80.3209
 20
-58.0329
 30
0.000000
  70
    32
  0
VERTEX
  8
AM_2
  5
23A1
 10
80.4840
 20
-58.0539
 30
0.000000
  70
    32
  0
VERTEX
  8
AM_2
  5
23A2
 10
80.6496
 20
-58.0718
 30
0.000000
  70
    32
  0
VERTEX
  8
AM_2
  5
23A3
 10
80.8172
 20
-58.0866
 30
0.000000
  70
    32
  0
VERTEX
  8
AM_2
  5
23A4
 10
80.9864
 20
-58.0980
 30
0.000000
  70
    32
  0
VERTEX
  8
AM_2
  5
23A5
 10
81.1569
 20
-58.1062
 30
0.000000
  70
    32
  0
VERTEX
  8
AM_2
  5
23A6
 10
81.3283
 20
-58.1112
 30
0.000000
  70
    32
  0
VERTEX
  8
AM_2
  5
23A7
 10
81.5000
 20
-58.1128
 30
0.000000
  70
    32
  0
VERTEX
  8
AM_2
  5
23A8
 10
81.6717
 20
-58.1112
 30
0.000000
  70
    32
  0
VERTEX
  8
AM_2
  5
23A9
 10
81.8431
 20
-58.1062
 30
0.000000
  70
    32
  0
VERTEX
  8
AM_2
  5
23AA
 10
82.0136
 20
-58.0980
 30
0.000000
  70
    32
  0
VERTEX
  8
AM_2
  5
23AB
 10
82.1828
 20
-58.0866
 30
0.000000
  70
    32
  0
VERTEX
  8
AM_2
  5
23AC
 10
82.3504
 20
-58.0718
 30
0.000000
  70
    32
  0
VERTEX
  8
AM_2
  5
23AD
 10
82.5160
 20
-58.0539
 30
0.000000
  70
    32
  0
VERTEX
  8
AM_2
  5
23AE
 10
82.6791
 20
-58.0329
 30
0.000000
  70
    32
  0
VERTEX
  8
AM_2
  5
23AF
 10
82.8394
 20
-58.0087
 30
0.000000
  70
    32
  0
VERTEX
  8
AM_2
  5
23B0
 10
82.9964
 20
-57.9815
 30
0.000000
  70
    32
  0
VERTEX
  8
AM_2
  5
23B1
 10
83.1499
 20
-57.9514
 30
0.000000
  70
    32
  0
VERTEX
  8
AM_2
  5
23B2
 10
83.2994
 20
-57.9183
 30
0.000000
  70
    32
  0
VERTEX
  8
AM_2
  5
23B3
 10
83.4445
 20
-57.8824
 30
0.000000
  70
    32
  0
VERTEX
  8
AM_2
  5
23B4
 10
83.5849
 20
-57.8437
 30
0.000000
  70
    32
  0
VERTEX
  8
AM_2
  5
23B5
 10
83.7204
 20
-57.8024
 30
0.000000
  70
    32
  0
VERTEX
  8
AM_2
  5
23B6
 10
83.8505
 20
-57.7586
 30
0.000000
  70
    32
  0
VERTEX
  8
AM_2
  5
23B7
 10
83.9749
 20
-57.7123
 30
0.000000
  70
    32
  0
VERTEX
  8
AM_2
  5
23B8
 10
84.0933
 20
-57.6637
 30
0.000000
  70
    32
  0
VERTEX
  8
AM_2
  5
23B9
 10
84.2055
 20
-57.6128
 30
0.000000
  70
    32
  0
VERTEX
  8
AM_2
  5
23BA
 10
84.3112
 20
-57.5599
 30
0.000000
  70
    32
  0
VERTEX
  8
AM_2
  5
23BB
 10
84.4101
 20
-57.5050
 30
0.000000
  70
    32
  0
VERTEX
  8
AM_2
  5
23BC
 10
84.5020
 20
-57.4483
 30
0.000000
  70
    32
  0
VERTEX
  8
AM_2
  5
23BD
 10
84.5867
 20
-57.3899
 30
0.000000
  70
    32
  0
VERTEX
  8
AM_2
  5
23BE
 10
84.6640
 20
-57.3300
 30
0.000000
  70
    32
  0
VERTEX
  8
AM_2
  5
23BF
 10
84.7336
 20
-57.2686
 30
0.000000
  70
    32
  0
VERTEX
  8
AM_2
  5
23C0
 10
84.7954
 20
-57.2060
 30
0.000000
  70
    32
  0
VERTEX
  8
AM_2
  5
23C1
 10
84.8493
 20
-57.1423
 30
0.000000
  70
    32
  0
VERTEX
  8
AM_2
  5
23C2
 10
84.8951
 20
-57.0776
 30
0.000000
  70
    32
  0
VERTEX
  8
AM_2
  5
23C3
 10
84.9327
 20
-57.0121
 30
0.000000
  70
    32
  0
VERTEX
  8
AM_2
  5
23C4
 10
84.9621
 20
-56.9459
 30
0.000000
  70
    32
  0
VERTEX
  8
AM_2
  5
23C5
 10
84.9831
 20
-56.8793
 30
0.000000
  70
    32
  0
VERTEX
  8
AM_2
  5
23C6
 10
84.9958
 20
-56.8124
 30
0.000000
  70
    32
  0
VERTEX
  8
AM_2
  5
23C7
 10
85.0000
 20
-56.7453
 30
0.000000
  70
    32
  0
VERTEX
  8
AM_2
  5
23C8
 10
84.9958
 20
-56.6782
 30
0.000000
  70
    32
  0
VERTEX
  8
AM_2
  5
23C9
 10
84.9831
 20
-56.6112
 30
0.000000
  70
    32
  0
VERTEX
  8
AM_2
  5
23CA
 10
84.9621
 20
-56.5446
 30
0.000000
  70
    32
  0
VERTEX
  8
AM_2
  5
23CB
 10
84.9327
 20
-56.4785
 30
0.000000
  70
    32
  0
VERTEX
  8
AM_2
  5
23CC
 10
84.8951
 20
-56.4130
 30
0.000000
  70
    32
  0
VERTEX
  8
AM_2
  5
23CD
 10
84.8493
 20
-56.3483
 30
0.000000
  70
    32
  0
VERTEX
  8
AM_2
  5
23CE
 10
84.7954
 20
-56.2846
 30
0.000000
  70
    32
  0
VERTEX
  8
AM_2
  5
23CF
 10
84.7336
 20
-56.2219
 30
0.000000
  70
    32
  0
VERTEX
  8
AM_2
  5
23D0
 10
84.6640
 20
-56.1606
 30
0.000000
  70
    32
  0
VERTEX
  8
AM_2
  5
23D1
 10
84.5867
 20
-56.1006
 30
0.000000
  70
    32
  0
VERTEX
  8
AM_2
  5
23D2
 10
84.5020
 20
-56.0422
 30
0.000000
  70
    32
  0
VERTEX
  8
AM_2
  5
23D3
 10
84.4101
 20
-55.9855
 30
0.000000
  70
    32
  0
VERTEX
  8
AM_2
  5
23D4
 10
84.3112
 20
-55.9306
 30
0.000000
  70
    32
  0
VERTEX
  8
AM_2
  5
23D5
 10
84.2055
 20
-55.8777
 30
0.000000
  70
    32
  0
VERTEX
  8
AM_2
  5
23D6
 10
84.0933
 20
-55.8269
 30
0.000000
  70
    32
  0
VERTEX
  8
AM_2
  5
23D7
 10
83.9749
 20
-55.7783
 30
0.000000
  70
    32
  0
VERTEX
  8
AM_2
  5
23D8
 10
83.8505
 20
-55.7320
 30
0.000000
  70
    32
  0
VERTEX
  8
AM_2
  5
23D9
 10
83.7204
 20
-55.6881
 30
0.000000
  70
    32
  0
VERTEX
  8
AM_2
  5
23DA
 10
83.5849
 20
-55.6468
 30
0.000000
  70
    32
  0
VERTEX
  8
AM_2
  5
23DB
 10
83.4445
 20
-55.6082
 30
0.000000
  70
    32
  0
VERTEX
  8
AM_2
  5
23DC
 10
83.2994
 20
-55.5723
 30
0.000000
  70
    32
  0
VERTEX
  8
AM_2
  5
23DD
 10
83.1499
 20
-55.5392
 30
0.000000
  70
    32
  0
VERTEX
  8
AM_2
  5
23DE
 10
82.9964
 20
-55.5090
 30
0.000000
  70
    32
  0
VERTEX
  8
AM_2
  5
23DF
 10
82.8394
 20
-55.4818
 30
0.000000
  70
    32
  0
VERTEX
  8
AM_2
  5
23E0
 10
82.6791
 20
-55.4577
 30
0.000000
  70
    32
  0
VERTEX
  8
AM_2
  5
23E1
 10
82.5160
 20
-55.4366
 30
0.000000
  70
    32
  0
VERTEX
  8
AM_2
  5
23E2
 10
82.3504
 20
-55.4187
 30
0.000000
  70
    32
  0
VERTEX
  8
AM_2
  5
23E3
 10
82.1828
 20
-55.4040
 30
0.000000
  70
    32
  0
VERTEX
  8
AM_2
  5
23E4
 10
82.0136
 20
-55.3925
 30
0.000000
  70
    32
  0
VERTEX
  8
AM_2
  5
23E5
 10
81.8431
 20
-55.3843
 30
0.000000
  70
    32
  0
VERTEX
  8
AM_2
  5
23E6
 10
81.6717
 20
-55.3794
 30
0.000000
  70
    32
  0
VERTEX
  8
AM_2
  5
23E7
 10
81.5000
 20
-55.3777
 30
0.000000
  70
    32
  0
VERTEX
  8
AM_2
  5
23E8
 10
81.3283
 20
-55.3794
 30
0.000000
  70
    32
  0
VERTEX
  8
AM_2
  5
23E9
 10
81.1569
 20
-55.3843
 30
0.000000
  70
    32
  0
VERTEX
  8
AM_2
  5
23EA
 10
80.9864
 20
-55.3925
 30
0.000000
  70
    32
  0
VERTEX
  8
AM_2
  5
23EB
 10
80.8172
 20
-55.4040
 30
0.000000
  70
    32
  0
VERTEX
  8
AM_2
  5
23EC
 10
80.6496
 20
-55.4187
 30
0.000000
  70
    32
  0
VERTEX
  8
AM_2
  5
23ED
 10
80.4840
 20
-55.4366
 30
0.000000
  70
    32
  0
VERTEX
  8
AM_2
  5
23EE
 10
80.3209
 20
-55.4577
 30
0.000000
  70
    32
  0
VERTEX
  8
AM_2
  5
23EF
 10
80.1606
 20
-55.4818
 30
0.000000
  70
    32
  0
VERTEX
  8
AM_2
  5
23F0
 10
80.0036
 20
-55.5090
 30
0.000000
  70
    32
  0
VERTEX
  8
AM_2
  5
23F1
 10
79.8501
 20
-55.5392
 30
0.000000
  70
    32
  0
VERTEX
  8
AM_2
  5
23F2
 10
79.7006
 20
-55.5723
 30
0.000000
  70
    32
  0
VERTEX
  8
AM_2
  5
23F3
 10
79.5555
 20
-55.6082
 30
0.000000
  70
    32
  0
VERTEX
  8
AM_2
  5
23F4
 10
79.4150
 20
-55.6468
 30
0.000000
  70
    32
  0
VERTEX
  8
AM_2
  5
23F5
 10
79.2796
 20
-55.6881
 30
0.000000
  70
    32
  0
VERTEX
  8
AM_2
  5
23F6
 10
79.1495
 20
-55.7320
 30
0.000000
  70
    32
  0
VERTEX
  8
AM_2
  5
23F7
 10
79.0251
 20
-55.7783
 30
0.000000
  70
    32
  0
VERTEX
  8
AM_2
  5
23F8
 10
78.9067
 20
-55.8269
 30
0.000000
  70
    32
  0
VERTEX
  8
AM_2
  5
23F9
 10
78.7945
 20
-55.8777
 30
0.000000
  70
    32
  0
VERTEX
  8
AM_2
  5
23FA
 10
78.6888
 20
-55.9306
 30
0.000000
  70
    32
  0
VERTEX
  8
AM_2
  5
23FB
 10
78.5899
 20
-55.9855
 30
0.000000
  70
    32
  0
VERTEX
  8
AM_2
  5
23FC
 10
78.4979
 20
-56.0422
 30
0.000000
  70
    32
  0
VERTEX
  8
AM_2
  5
23FD
 10
78.4133
 20
-56.1006
 30
0.000000
  70
    32
  0
VERTEX
  8
AM_2
  5
23FE
 10
78.3360
 20
-56.1606
 30
0.000000
  70
    32
  0
VERTEX
  8
AM_2
  5
23FF
 10
78.2664
 20
-56.2219
 30
0.000000
  70
    32
  0
VERTEX
  8
AM_2
  5
2400
 10
78.2046
 20
-56.2846
 30
0.000000
  70
    32
  0
VERTEX
  8
AM_2
  5
2401
 10
78.1507
 20
-56.3483
 30
0.000000
  70
    32
  0
VERTEX
  8
AM_2
  5
2402
 10
78.1049
 20
-56.4130
 30
0.000000
  70
    32
  0
VERTEX
  8
AM_2
  5
2403
 10
78.0672
 20
-56.4785
 30
0.000000
  70
    32
  0
VERTEX
  8
AM_2
  5
2404
 10
78.0379
 20
-56.5446
 30
0.000000
  70
    32
  0
VERTEX
  8
AM_2
  5
2405
 10
78.0168
 20
-56.6112
 30
0.000000
  70
    32
  0
VERTEX
  8
AM_2
  5
2406
 10
78.0042
 20
-56.6782
 30
0.000000
  70
    32
  0
VERTEX
  8
AM_2
  5
2407
 10
78.0000
 20
-56.7453
 30
0.000000
  70
    32
  0
SEQEND
  8
AM_2
  5
2408
  0
POLYLINE
  5
1966
  8
AM_1
 10
77.249996103103769
 20
-58.675172229863193
 30
0.0
 66
     1
 70
     8
  0
VERTEX
  8
AM_1
  5
2409
 10
77.2500
 20
-58.6752
 30
0.000000
  70
    32
  0
VERTEX
  8
AM_1
  5
240A
 10
77.2551
 20
-58.8617
 30
0.000000
  70
    32
  0
VERTEX
  8
AM_1
  5
240B
 10
77.2705
 20
-59.0478
 30
0.000000
  70
    32
  0
VERTEX
  8
AM_1
  5
240C
 10
77.2960
 20
-59.2330
 30
0.000000
  70
    32
  0
VERTEX
  8
AM_1
  5
240D
 10
77.3317
 20
-59.4168
 30
0.000000
  70
    32
  0
VERTEX
  8
AM_1
  5
240E
 10
77.3774
 20
-59.5989
 30
0.000000
  70
    32
  0
VERTEX
  8
AM_1
  5
240F
 10
77.4330
 20
-59.7787
 30
0.000000
  70
    32
  0
VERTEX
  8
AM_1
  5
2410
 10
77.4984
 20
-59.9559
 30
0.000000
  70
    32
  0
VERTEX
  8
AM_1
  5
2411
 10
77.5735
 20
-60.1300
 30
0.000000
  70
    32
  0
VERTEX
  8
AM_1
  5
2412
 10
77.6580
 20
-60.3006
 30
0.000000
  70
    32
  0
VERTEX
  8
AM_1
  5
2413
 10
77.7518
 20
-60.4673
 30
0.000000
  70
    32
  0
VERTEX
  8
AM_1
  5
2414
 10
77.8546
 20
-60.6296
 30
0.000000
  70
    32
  0
VERTEX
  8
AM_1
  5
2415
 10
77.9663
 20
-60.7873
 30
0.000000
  70
    32
  0
VERTEX
  8
AM_1
  5
2416
 10
78.0864
 20
-60.9398
 30
0.000000
  70
    32
  0
VERTEX
  8
AM_1
  5
2417
 10
78.2147
 20
-61.0869
 30
0.000000
  70
    32
  0
VERTEX
  8
AM_1
  5
2418
 10
78.3510
 20
-61.2282
 30
0.000000
  70
    32
  0
VERTEX
  8
AM_1
  5
2419
 10
78.4948
 20
-61.3634
 30
0.000000
  70
    32
  0
VERTEX
  8
AM_1
  5
241A
 10
78.6459
 20
-61.4920
 30
0.000000
  70
    32
  0
VERTEX
  8
AM_1
  5
241B
 10
78.8038
 20
-61.6139
 30
0.000000
  70
    32
  0
VERTEX
  8
AM_1
  5
241C
 10
78.9683
 20
-61.7287
 30
0.000000
  70
    32
  0
VERTEX
  8
AM_1
  5
241D
 10
79.1388
 20
-61.8362
 30
0.000000
  70
    32
  0
VERTEX
  8
AM_1
  5
241E
 10
79.3151
 20
-61.9360
 30
0.000000
  70
    32
  0
VERTEX
  8
AM_1
  5
241F
 10
79.4966
 20
-62.0280
 30
0.000000
  70
    32
  0
VERTEX
  8
AM_1
  5
2420
 10
79.6829
 20
-62.1119
 30
0.000000
  70
    32
  0
VERTEX
  8
AM_1
  5
2421
 10
79.8736
 20
-62.1875
 30
0.000000
  70
    32
  0
VERTEX
  8
AM_1
  5
2422
 10
80.0682
 20
-62.2546
 30
0.000000
  70
    32
  0
VERTEX
  8
AM_1
  5
2423
 10
80.2663
 20
-62.3132
 30
0.000000
  70
    32
  0
VERTEX
  8
AM_1
  5
2424
 10
80.4673
 20
-62.3629
 30
0.000000
  70
    32
  0
VERTEX
  8
AM_1
  5
2425
 10
80.6709
 20
-62.4038
 30
0.000000
  70
    32
  0
VERTEX
  8
AM_1
  5
2426
 10
80.8764
 20
-62.4357
 30
0.000000
  70
    32
  0
VERTEX
  8
AM_1
  5
2427
 10
81.0834
 20
-62.4586
 30
0.000000
  70
    32
  0
VERTEX
  8
AM_1
  5
2428
 10
81.2915
 20
-62.4723
 30
0.000000
  70
    32
  0
VERTEX
  8
AM_1
  5
2429
 10
81.5000
 20
-62.4769
 30
0.000000
  70
    32
  0
VERTEX
  8
AM_1
  5
242A
 10
81.7085
 20
-62.4723
 30
0.000000
  70
    32
  0
VERTEX
  8
AM_1
  5
242B
 10
81.9166
 20
-62.4586
 30
0.000000
  70
    32
  0
VERTEX
  8
AM_1
  5
242C
 10
82.1236
 20
-62.4357
 30
0.000000
  70
    32
  0
VERTEX
  8
AM_1
  5
242D
 10
82.3291
 20
-62.4038
 30
0.000000
  70
    32
  0
VERTEX
  8
AM_1
  5
242E
 10
82.5327
 20
-62.3629
 30
0.000000
  70
    32
  0
VERTEX
  8
AM_1
  5
242F
 10
82.7337
 20
-62.3132
 30
0.000000
  70
    32
  0
VERTEX
  8
AM_1
  5
2430
 10
82.9318
 20
-62.2546
 30
0.000000
  70
    32
  0
VERTEX
  8
AM_1
  5
2431
 10
83.1264
 20
-62.1875
 30
0.000000
  70
    32
  0
VERTEX
  8
AM_1
  5
2432
 10
83.3171
 20
-62.1119
 30
0.000000
  70
    32
  0
VERTEX
  8
AM_1
  5
2433
 10
83.5034
 20
-62.0280
 30
0.000000
  70
    32
  0
VERTEX
  8
AM_1
  5
2434
 10
83.6849
 20
-61.9360
 30
0.000000
  70
    32
  0
VERTEX
  8
AM_1
  5
2435
 10
83.8612
 20
-61.8362
 30
0.000000
  70
    32
  0
VERTEX
  8
AM_1
  5
2436
 10
84.0317
 20
-61.7287
 30
0.000000
  70
    32
  0
VERTEX
  8
AM_1
  5
2437
 10
84.1962
 20
-61.6139
 30
0.000000
  70
    32
  0
VERTEX
  8
AM_1
  5
2438
 10
84.3541
 20
-61.4920
 30
0.000000
  70
    32
  0
VERTEX
  8
AM_1
  5
2439
 10
84.5052
 20
-61.3634
 30
0.000000
  70
    32
  0
VERTEX
  8
AM_1
  5
243A
 10
84.6490
 20
-61.2282
 30
0.000000
  70
    32
  0
VERTEX
  8
AM_1
  5
243B
 10
84.7853
 20
-61.0869
 30
0.000000
  70
    32
  0
VERTEX
  8
AM_1
  5
243C
 10
84.9136
 20
-60.9398
 30
0.000000
  70
    32
  0
VERTEX
  8
AM_1
  5
243D
 10
85.0337
 20
-60.7873
 30
0.000000
  70
    32
  0
VERTEX
  8
AM_1
  5
243E
 10
85.1453
 20
-60.6296
 30
0.000000
  70
    32
  0
VERTEX
  8
AM_1
  5
243F
 10
85.2482
 20
-60.4673
 30
0.000000
  70
    32
  0
VERTEX
  8
AM_1
  5
2440
 10
85.3420
 20
-60.3006
 30
0.000000
  70
    32
  0
VERTEX
  8
AM_1
  5
2441
 10
85.4265
 20
-60.1300
 30
0.000000
  70
    32
  0
VERTEX
  8
AM_1
  5
2442
 10
85.5016
 20
-59.9559
 30
0.000000
  70
    32
  0
VERTEX
  8
AM_1
  5
2443
 10
85.5670
 20
-59.7787
 30
0.000000
  70
    32
  0
VERTEX
  8
AM_1
  5
2444
 10
85.6226
 20
-59.5989
 30
0.000000
  70
    32
  0
VERTEX
  8
AM_1
  5
2445
 10
85.6683
 20
-59.4168
 30
0.000000
  70
    32
  0
VERTEX
  8
AM_1
  5
2446
 10
85.7040
 20
-59.2330
 30
0.000000
  70
    32
  0
VERTEX
  8
AM_1
  5
2447
 10
85.7295
 20
-59.0478
 30
0.000000
  70
    32
  0
VERTEX
  8
AM_1
  5
2448
 10
85.7449
 20
-58.8617
 30
0.000000
  70
    32
  0
VERTEX
  8
AM_1
  5
2449
 10
85.7500
 20
-58.6752
 30
0.000000
  70
    32
  0
VERTEX
  8
AM_1
  5
244A
 10
85.7449
 20
-58.4886
 30
0.000000
  70
    32
  0
VERTEX
  8
AM_1
  5
244B
 10
85.7295
 20
-58.3025
 30
0.000000
  70
    32
  0
VERTEX
  8
AM_1
  5
244C
 10
85.7040
 20
-58.1173
 30
0.000000
  70
    32
  0
VERTEX
  8
AM_1
  5
244D
 10
85.6683
 20
-57.9335
 30
0.000000
  70
    32
  0
VERTEX
  8
AM_1
  5
244E
 10
85.6226
 20
-57.7514
 30
0.000000
  70
    32
  0
VERTEX
  8
AM_1
  5
244F
 10
85.5670
 20
-57.5716
 30
0.000000
  70
    32
  0
VERTEX
  8
AM_1
  5
2450
 10
85.5016
 20
-57.3944
 30
0.000000
  70
    32
  0
VERTEX
  8
AM_1
  5
2451
 10
85.4265
 20
-57.2203
 30
0.000000
  70
    32
  0
VERTEX
  8
AM_1
  5
2452
 10
85.3420
 20
-57.0497
 30
0.000000
  70
    32
  0
VERTEX
  8
AM_1
  5
2453
 10
85.2482
 20
-56.8831
 30
0.000000
  70
    32
  0
VERTEX
  8
AM_1
  5
2454
 10
85.1453
 20
-56.7207
 30
0.000000
  70
    32
  0
VERTEX
  8
AM_1
  5
2455
 10
85.0337
 20
-56.5631
 30
0.000000
  70
    32
  0
VERTEX
  8
AM_1
  5
2456
 10
84.9136
 20
-56.4105
 30
0.000000
  70
    32
  0
VERTEX
  8
AM_1
  5
2457
 10
84.7853
 20
-56.2634
 30
0.000000
  70
    32
  0
VERTEX
  8
AM_1
  5
2458
 10
84.6490
 20
-56.1221
 30
0.000000
  70
    32
  0
VERTEX
  8
AM_1
  5
2459
 10
84.5052
 20
-55.9870
 30
0.000000
  70
    32
  0
VERTEX
  8
AM_1
  5
245A
 10
84.3541
 20
-55.8583
 30
0.000000
  70
    32
  0
VERTEX
  8
AM_1
  5
245B
 10
84.1962
 20
-55.7364
 30
0.000000
  70
    32
  0
VERTEX
  8
AM_1
  5
245C
 10
84.0317
 20
-55.6216
 30
0.000000
  70
    32
  0
VERTEX
  8
AM_1
  5
245D
 10
83.8612
 20
-55.5142
 30
0.000000
  70
    32
  0
VERTEX
  8
AM_1
  5
245E
 10
83.6849
 20
-55.4144
 30
0.000000
  70
    32
  0
VERTEX
  8
AM_1
  5
245F
 10
83.5034
 20
-55.3224
 30
0.000000
  70
    32
  0
VERTEX
  8
AM_1
  5
2460
 10
83.3171
 20
-55.2385
 30
0.000000
  70
    32
  0
VERTEX
  8
AM_1
  5
2461
 10
83.1264
 20
-55.1629
 30
0.000000
  70
    32
  0
VERTEX
  8
AM_1
  5
2462
 10
82.9318
 20
-55.0957
 30
0.000000
  70
    32
  0
VERTEX
  8
AM_1
  5
2463
 10
82.7337
 20
-55.0372
 30
0.000000
  70
    32
  0
VERTEX
  8
AM_1
  5
2464
 10
82.5327
 20
-54.9874
 30
0.000000
  70
    32
  0
VERTEX
  8
AM_1
  5
2465
 10
82.3291
 20
-54.9465
 30
0.000000
  70
    32
  0
VERTEX
  8
AM_1
  5
2466
 10
82.1236
 20
-54.9146
 30
0.000000
  70
    32
  0
VERTEX
  8
AM_1
  5
2467
 10
81.9166
 20
-54.8918
 30
0.000000
  70
    32
  0
VERTEX
  8
AM_1
  5
2468
 10
81.7085
 20
-54.8781
 30
0.000000
  70
    32
  0
VERTEX
  8
AM_1
  5
2469
 10
81.5000
 20
-54.8735
 30
0.000000
  70
    32
  0
VERTEX
  8
AM_1
  5
246A
 10
81.2915
 20
-54.8781
 30
0.000000
  70
    32
  0
VERTEX
  8
AM_1
  5
246B
 10
81.0834
 20
-54.8918
 30
0.000000
  70
    32
  0
VERTEX
  8
AM_1
  5
246C
 10
80.8764
 20
-54.9146
 30
0.000000
  70
    32
  0
VERTEX
  8
AM_1
  5
246D
 10
80.6709
 20
-54.9465
 30
0.000000
  70
    32
  0
VERTEX
  8
AM_1
  5
246E
 10
80.4673
 20
-54.9874
 30
0.000000
  70
    32
  0
VERTEX
  8
AM_1
  5
246F
 10
80.2663
 20
-55.0372
 30
0.000000
  70
    32
  0
VERTEX
  8
AM_1
  5
2470
 10
80.0682
 20
-55.0957
 30
0.000000
  70
    32
  0
VERTEX
  8
AM_1
  5
2471
 10
79.8736
 20
-55.1629
 30
0.000000
  70
    32
  0
VERTEX
  8
AM_1
  5
2472
 10
79.6829
 20
-55.2385
 30
0.000000
  70
    32
  0
VERTEX
  8
AM_1
  5
2473
 10
79.4966
 20
-55.3224
 30
0.000000
  70
    32
  0
VERTEX
  8
AM_1
  5
2474
 10
79.3151
 20
-55.4144
 30
0.000000
  70
    32
  0
VERTEX
  8
AM_1
  5
2475
 10
79.1388
 20
-55.5142
 30
0.000000
  70
    32
  0
VERTEX
  8
AM_1
  5
2476
 10
78.9683
 20
-55.6216
 30
0.000000
  70
    32
  0
VERTEX
  8
AM_1
  5
2477
 10
78.8038
 20
-55.7364
 30
0.000000
  70
    32
  0
VERTEX
  8
AM_1
  5
2478
 10
78.6459
 20
-55.8583
 30
0.000000
  70
    32
  0
VERTEX
  8
AM_1
  5
2479
 10
78.4948
 20
-55.9870
 30
0.000000
  70
    32
  0
VERTEX
  8
AM_1
  5
247A
 10
78.3510
 20
-56.1221
 30
0.000000
  70
    32
  0
VERTEX
  8
AM_1
  5
247B
 10
78.2147
 20
-56.2634
 30
0.000000
  70
    32
  0
VERTEX
  8
AM_1
  5
247C
 10
78.0864
 20
-56.4105
 30
0.000000
  70
    32
  0
VERTEX
  8
AM_1
  5
247D
 10
77.9663
 20
-56.5631
 30
0.000000
  70
    32
  0
VERTEX
  8
AM_1
  5
247E
 10
77.8546
 20
-56.7207
 30
0.000000
  70
    32
  0
VERTEX
  8
AM_1
  5
247F
 10
77.7518
 20
-56.8831
 30
0.000000
  70
    32
  0
VERTEX
  8
AM_1
  5
2480
 10
77.6580
 20
-57.0497
 30
0.000000
  70
    32
  0
VERTEX
  8
AM_1
  5
2481
 10
77.5735
 20
-57.2203
 30
0.000000
  70
    32
  0
VERTEX
  8
AM_1
  5
2482
 10
77.4984
 20
-57.3944
 30
0.000000
  70
    32
  0
VERTEX
  8
AM_1
  5
2483
 10
77.4330
 20
-57.5716
 30
0.000000
  70
    32
  0
VERTEX
  8
AM_1
  5
2484
 10
77.3774
 20
-57.7514
 30
0.000000
  70
    32
  0
VERTEX
  8
AM_1
  5
2485
 10
77.3317
 20
-57.9335
 30
0.000000
  70
    32
  0
VERTEX
  8
AM_1
  5
2486
 10
77.2960
 20
-58.1173
 30
0.000000
  70
    32
  0
VERTEX
  8
AM_1
  5
2487
 10
77.2705
 20
-58.3025
 30
0.000000
  70
    32
  0
VERTEX
  8
AM_1
  5
2488
 10
77.2551
 20
-58.4886
 30
0.000000
  70
    32
  0
VERTEX
  8
AM_1
  5
2489
 10
77.2500
 20
-58.6752
 30
0.000000
  70
    32
  0
SEQEND
  8
AM_1
  5
248A
  0
POLYLINE
  5
196B
  8
AM_1
 10
98.749995684930781
 20
-58.675172229863193
 30
0.0
 66
     1
 70
     8
  0
VERTEX
  8
AM_1
  5
248B
 10
98.7500
 20
-58.6752
 30
0.000000
  70
    32
  0
VERTEX
  8
AM_1
  5
248C
 10
98.7551
 20
-58.8617
 30
0.000000
  70
    32
  0
VERTEX
  8
AM_1
  5
248D
 10
98.7705
 20
-59.0478
 30
0.000000
  70
    32
  0
VERTEX
  8
AM_1
  5
248E
 10
98.7960
 20
-59.2330
 30
0.000000
  70
    32
  0
VERTEX
  8
AM_1
  5
248F
 10
98.8317
 20
-59.4168
 30
0.000000
  70
    32
  0
VERTEX
  8
AM_1
  5
2490
 10
98.8774
 20
-59.5989
 30
0.000000
  70
    32
  0
VERTEX
  8
AM_1
  5
2491
 10
98.9330
 20
-59.7787
 30
0.000000
  70
    32
  0
VERTEX
  8
AM_1
  5
2492
 10
98.9984
 20
-59.9559
 30
0.000000
  70
    32
  0
VERTEX
  8
AM_1
  5
2493
 10
99.0735
 20
-60.1300
 30
0.000000
  70
    32
  0
VERTEX
  8
AM_1
  5
2494
 10
99.1580
 20
-60.3006
 30
0.000000
  70
    32
  0
VERTEX
  8
AM_1
  5
2495
 10
99.2518
 20
-60.4673
 30
0.000000
  70
    32
  0
VERTEX
  8
AM_1
  5
2496
 10
99.3546
 20
-60.6296
 30
0.000000
  70
    32
  0
VERTEX
  8
AM_1
  5
2497
 10
99.4662
 20
-60.7873
 30
0.000000
  70
    32
  0
VERTEX
  8
AM_1
  5
2498
 10
99.5864
 20
-60.9398
 30
0.000000
  70
    32
  0
VERTEX
  8
AM_1
  5
2499
 10
99.7147
 20
-61.0869
 30
0.000000
  70
    32
  0
VERTEX
  8
AM_1
  5
249A
 10
99.8510
 20
-61.2282
 30
0.000000
  70
    32
  0
VERTEX
  8
AM_1
  5
249B
 10
99.9948
 20
-61.3634
 30
0.000000
  70
    32
  0
VERTEX
  8
AM_1
  5
249C
 10
100.146
 20
-61.4920
 30
0.000000
  70
    32
  0
VERTEX
  8
AM_1
  5
249D
 10
100.304
 20
-61.6139
 30
0.000000
  70
    32
  0
VERTEX
  8
AM_1
  5
249E
 10
100.468
 20
-61.7287
 30
0.000000
  70
    32
  0
VERTEX
  8
AM_1
  5
249F
 10
100.639
 20
-61.8362
 30
0.000000
  70
    32
  0
VERTEX
  8
AM_1
  5
24A0
 10
100.815
 20
-61.9360
 30
0.000000
  70
    32
  0
VERTEX
  8
AM_1
  5
24A1
 10
100.997
 20
-62.0280
 30
0.000000
  70
    32
  0
VERTEX
  8
AM_1
  5
24A2
 10
101.183
 20
-62.1119
 30
0.000000
  70
    32
  0
VERTEX
  8
AM_1
  5
24A3
 10
101.374
 20
-62.1875
 30
0.000000
  70
    32
  0
VERTEX
  8
AM_1
  5
24A4
 10
101.568
 20
-62.2546
 30
0.000000
  70
    32
  0
VERTEX
  8
AM_1
  5
24A5
 10
101.766
 20
-62.3132
 30
0.000000
  70
    32
  0
VERTEX
  8
AM_1
  5
24A6
 10
101.967
 20
-62.3629
 30
0.000000
  70
    32
  0
VERTEX
  8
AM_1
  5
24A7
 10
102.171
 20
-62.4038
 30
0.000000
  70
    32
  0
VERTEX
  8
AM_1
  5
24A8
 10
102.376
 20
-62.4357
 30
0.000000
  70
    32
  0
VERTEX
  8
AM_1
  5
24A9
 10
102.583
 20
-62.4586
 30
0.000000
  70
    32
  0
VERTEX
  8
AM_1
  5
24AA
 10
102.791
 20
-62.4723
 30
0.000000
  70
    32
  0
VERTEX
  8
AM_1
  5
24AB
 10
103.000
 20
-62.4769
 30
0.000000
  70
    32
  0
VERTEX
  8
AM_1
  5
24AC
 10
103.209
 20
-62.4723
 30
0.000000
  70
    32
  0
VERTEX
  8
AM_1
  5
24AD
 10
103.417
 20
-62.4586
 30
0.000000
  70
    32
  0
VERTEX
  8
AM_1
  5
24AE
 10
103.624
 20
-62.4357
 30
0.000000
  70
    32
  0
VERTEX
  8
AM_1
  5
24AF
 10
103.829
 20
-62.4038
 30
0.000000
  70
    32
  0
VERTEX
  8
AM_1
  5
24B0
 10
104.033
 20
-62.3629
 30
0.000000
  70
    32
  0
VERTEX
  8
AM_1
  5
24B1
 10
104.234
 20
-62.3132
 30
0.000000
  70
    32
  0
VERTEX
  8
AM_1
  5
24B2
 10
104.432
 20
-62.2546
 30
0.000000
  70
    32
  0
VERTEX
  8
AM_1
  5
24B3
 10
104.626
 20
-62.1875
 30
0.000000
  70
    32
  0
VERTEX
  8
AM_1
  5
24B4
 10
104.817
 20
-62.1119
 30
0.000000
  70
    32
  0
VERTEX
  8
AM_1
  5
24B5
 10
105.003
 20
-62.0280
 30
0.000000
  70
    32
  0
VERTEX
  8
AM_1
  5
24B6
 10
105.185
 20
-61.9360
 30
0.000000
  70
    32
  0
VERTEX
  8
AM_1
  5
24B7
 10
105.361
 20
-61.8362
 30
0.000000
  70
    32
  0
VERTEX
  8
AM_1
  5
24B8
 10
105.532
 20
-61.7287
 30
0.000000
  70
    32
  0
VERTEX
  8
AM_1
  5
24B9
 10
105.696
 20
-61.6139
 30
0.000000
  70
    32
  0
VERTEX
  8
AM_1
  5
24BA
 10
105.854
 20
-61.4920
 30
0.000000
  70
    32
  0
VERTEX
  8
AM_1
  5
24BB
 10
106.005
 20
-61.3634
 30
0.000000
  70
    32
  0
VERTEX
  8
AM_1
  5
24BC
 10
106.149
 20
-61.2282
 30
0.000000
  70
    32
  0
VERTEX
  8
AM_1
  5
24BD
 10
106.285
 20
-61.0869
 30
0.000000
  70
    32
  0
VERTEX
  8
AM_1
  5
24BE
 10
106.414
 20
-60.9398
 30
0.000000
  70
    32
  0
VERTEX
  8
AM_1
  5
24BF
 10
106.534
 20
-60.7873
 30
0.000000
  70
    32
  0
VERTEX
  8
AM_1
  5
24C0
 10
106.645
 20
-60.6296
 30
0.000000
  70
    32
  0
VERTEX
  8
AM_1
  5
24C1
 10
106.748
 20
-60.4673
 30
0.000000
  70
    32
  0
VERTEX
  8
AM_1
  5
24C2
 10
106.842
 20
-60.3006
 30
0.000000
  70
    32
  0
VERTEX
  8
AM_1
  5
24C3
 10
106.926
 20
-60.1300
 30
0.000000
  70
    32
  0
VERTEX
  8
AM_1
  5
24C4
 10
107.002
 20
-59.9559
 30
0.000000
  70
    32
  0
VERTEX
  8
AM_1
  5
24C5
 10
107.067
 20
-59.7787
 30
0.000000
  70
    32
  0
VERTEX
  8
AM_1
  5
24C6
 10
107.123
 20
-59.5989
 30
0.000000
  70
    32
  0
VERTEX
  8
AM_1
  5
24C7
 10
107.168
 20
-59.4168
 30
0.000000
  70
    32
  0
VERTEX
  8
AM_1
  5
24C8
 10
107.204
 20
-59.2330
 30
0.000000
  70
    32
  0
VERTEX
  8
AM_1
  5
24C9
 10
107.230
 20
-59.0478
 30
0.000000
  70
    32
  0
VERTEX
  8
AM_1
  5
24CA
 10
107.245
 20
-58.8617
 30
0.000000
  70
    32
  0
VERTEX
  8
AM_1
  5
24CB
 10
107.250
 20
-58.6752
 30
0.000000
  70
    32
  0
VERTEX
  8
AM_1
  5
24CC
 10
107.245
 20
-58.4886
 30
0.000000
  70
    32
  0
VERTEX
  8
AM_1
  5
24CD
 10
107.230
 20
-58.3025
 30
0.000000
  70
    32
  0
VERTEX
  8
AM_1
  5
24CE
 10
107.204
 20
-58.1173
 30
0.000000
  70
    32
  0
VERTEX
  8
AM_1
  5
24CF
 10
107.168
 20
-57.9335
 30
0.000000
  70
    32
  0
VERTEX
  8
AM_1
  5
24D0
 10
107.123
 20
-57.7514
 30
0.000000
  70
    32
  0
VERTEX
  8
AM_1
  5
24D1
 10
107.067
 20
-57.5716
 30
0.000000
  70
    32
  0
VERTEX
  8
AM_1
  5
24D2
 10
107.002
 20
-57.3944
 30
0.000000
  70
    32
  0
VERTEX
  8
AM_1
  5
24D3
 10
106.926
 20
-57.2203
 30
0.000000
  70
    32
  0
VERTEX
  8
AM_1
  5
24D4
 10
106.842
 20
-57.0497
 30
0.000000
  70
    32
  0
VERTEX
  8
AM_1
  5
24D5
 10
106.748
 20
-56.8831
 30
0.000000
  70
    32
  0
VERTEX
  8
AM_1
  5
24D6
 10
106.645
 20
-56.7207
 30
0.000000
  70
    32
  0
VERTEX
  8
AM_1
  5
24D7
 10
106.534
 20
-56.5631
 30
0.000000
  70
    32
  0
VERTEX
  8
AM_1
  5
24D8
 10
106.414
 20
-56.4105
 30
0.000000
  70
    32
  0
VERTEX
  8
AM_1
  5
24D9
 10
106.285
 20
-56.2634
 30
0.000000
  70
    32
  0
VERTEX
  8
AM_1
  5
24DA
 10
106.149
 20
-56.1221
 30
0.000000
  70
    32
  0
VERTEX
  8
AM_1
  5
24DB
 10
106.005
 20
-55.9870
 30
0.000000
  70
    32
  0
VERTEX
  8
AM_1
  5
24DC
 10
105.854
 20
-55.8583
 30
0.000000
  70
    32
  0
VERTEX
  8
AM_1
  5
24DD
 10
105.696
 20
-55.7364
 30
0.000000
  70
    32
  0
VERTEX
  8
AM_1
  5
24DE
 10
105.532
 20
-55.6216
 30
0.000000
  70
    32
  0
VERTEX
  8
AM_1
  5
24DF
 10
105.361
 20
-55.5142
 30
0.000000
  70
    32
  0
VERTEX
  8
AM_1
  5
24E0
 10
105.185
 20
-55.4144
 30
0.000000
  70
    32
  0
VERTEX
  8
AM_1
  5
24E1
 10
105.003
 20
-55.3224
 30
0.000000
  70
    32
  0
VERTEX
  8
AM_1
  5
24E2
 10
104.817
 20
-55.2385
 30
0.000000
  70
    32
  0
VERTEX
  8
AM_1
  5
24E3
 10
104.626
 20
-55.1629
 30
0.000000
  70
    32
  0
VERTEX
  8
AM_1
  5
24E4
 10
104.432
 20
-55.0957
 30
0.000000
  70
    32
  0
VERTEX
  8
AM_1
  5
24E5
 10
104.234
 20
-55.0372
 30
0.000000
  70
    32
  0
VERTEX
  8
AM_1
  5
24E6
 10
104.033
 20
-54.9874
 30
0.000000
  70
    32
  0
VERTEX
  8
AM_1
  5
24E7
 10
103.829
 20
-54.9465
 30
0.000000
  70
    32
  0
VERTEX
  8
AM_1
  5
24E8
 10
103.624
 20
-54.9146
 30
0.000000
  70
    32
  0
VERTEX
  8
AM_1
  5
24E9
 10
103.417
 20
-54.8918
 30
0.000000
  70
    32
  0
VERTEX
  8
AM_1
  5
24EA
 10
103.209
 20
-54.8781
 30
0.000000
  70
    32
  0
VERTEX
  8
AM_1
  5
24EB
 10
103.000
 20
-54.8735
 30
0.000000
  70
    32
  0
VERTEX
  8
AM_1
  5
24EC
 10
102.791
 20
-54.8781
 30
0.000000
  70
    32
  0
VERTEX
  8
AM_1
  5
24ED
 10
102.583
 20
-54.8918
 30
0.000000
  70
    32
  0
VERTEX
  8
AM_1
  5
24EE
 10
102.376
 20
-54.9146
 30
0.000000
  70
    32
  0
VERTEX
  8
AM_1
  5
24EF
 10
102.171
 20
-54.9465
 30
0.000000
  70
    32
  0
VERTEX
  8
AM_1
  5
24F0
 10
101.967
 20
-54.9874
 30
0.000000
  70
    32
  0
VERTEX
  8
AM_1
  5
24F1
 10
101.766
 20
-55.0372
 30
0.000000
  70
    32
  0
VERTEX
  8
AM_1
  5
24F2
 10
101.568
 20
-55.0957
 30
0.000000
  70
    32
  0
VERTEX
  8
AM_1
  5
24F3
 10
101.374
 20
-55.1629
 30
0.000000
  70
    32
  0
VERTEX
  8
AM_1
  5
24F4
 10
101.183
 20
-55.2385
 30
0.000000
  70
    32
  0
VERTEX
  8
AM_1
  5
24F5
 10
100.997
 20
-55.3224
 30
0.000000
  70
    32
  0
VERTEX
  8
AM_1
  5
24F6
 10
100.815
 20
-55.4144
 30
0.000000
  70
    32
  0
VERTEX
  8
AM_1
  5
24F7
 10
100.639
 20
-55.5142
 30
0.000000
  70
    32
  0
VERTEX
  8
AM_1
  5
24F8
 10
100.468
 20
-55.6216
 30
0.000000
  70
    32
  0
VERTEX
  8
AM_1
  5
24F9
 10
100.304
 20
-55.7364
 30
0.000000
  70
    32
  0
VERTEX
  8
AM_1
  5
24FA
 10
100.146
 20
-55.8583
 30
0.000000
  70
    32
  0
VERTEX
  8
AM_1
  5
24FB
 10
99.9948
 20
-55.9870
 30
0.000000
  70
    32
  0
VERTEX
  8
AM_1
  5
24FC
 10
99.8510
 20
-56.1221
 30
0.000000
  70
    32
  0
VERTEX
  8
AM_1
  5
24FD
 10
99.7147
 20
-56.2634
 30
0.000000
  70
    32
  0
VERTEX
  8
AM_1
  5
24FE
 10
99.5864
 20
-56.4105
 30
0.000000
  70
    32
  0
VERTEX
  8
AM_1
  5
24FF
 10
99.4662
 20
-56.5631
 30
0.000000
  70
    32
  0
VERTEX
  8
AM_1
  5
2500
 10
99.3546
 20
-56.7207
 30
0.000000
  70
    32
  0
VERTEX
  8
AM_1
  5
2501
 10
99.2518
 20
-56.8831
 30
0.000000
  70
    32
  0
VERTEX
  8
AM_1
  5
2502
 10
99.1580
 20
-57.0497
 30
0.000000
  70
    32
  0
VERTEX
  8
AM_1
  5
2503
 10
99.0735
 20
-57.2203
 30
0.000000
  70
    32
  0
VERTEX
  8
AM_1
  5
2504
 10
98.9984
 20
-57.3944
 30
0.000000
  70
    32
  0
VERTEX
  8
AM_1
  5
2505
 10
98.9330
 20
-57.5716
 30
0.000000
  70
    32
  0
VERTEX
  8
AM_1
  5
2506
 10
98.8774
 20
-57.7514
 30
0.000000
  70
    32
  0
VERTEX
  8
AM_1
  5
2507
 10
98.8317
 20
-57.9335
 30
0.000000
  70
    32
  0
VERTEX
  8
AM_1
  5
2508
 10
98.7960
 20
-58.1173
 30
0.000000
  70
    32
  0
VERTEX
  8
AM_1
  5
2509
 10
98.7705
 20
-58.3025
 30
0.000000
  70
    32
  0
VERTEX
  8
AM_1
  5
250A
 10
98.7551
 20
-58.4886
 30
0.000000
  70
    32
  0
VERTEX
  8
AM_1
  5
250B
 10
98.7500
 20
-58.6752
 30
0.000000
  70
    32
  0
SEQEND
  8
AM_1
  5
250C
  0
POLYLINE
  5
196C
  8
AM_2
 10
99.499995684926844
 20
-56.745273946307783
 30
0.0
 66
     1
 70
     8
  0
VERTEX
  8
AM_2
  5
250D
 10
99.5000
 20
-56.7453
 30
0.000000
  70
    32
  0
VERTEX
  8
AM_2
  5
250E
 10
99.5042
 20
-56.8124
 30
0.000000
  70
    32
  0
VERTEX
  8
AM_2
  5
250F
 10
99.5168
 20
-56.8793
 30
0.000000
  70
    32
  0
VERTEX
  8
AM_2
  5
2510
 10
99.5379
 20
-56.9459
 30
0.000000
  70
    32
  0
VERTEX
  8
AM_2
  5
2511
 10
99.5672
 20
-57.0121
 30
0.000000
  70
    32
  0
VERTEX
  8
AM_2
  5
2512
 10
99.6049
 20
-57.0776
 30
0.000000
  70
    32
  0
VERTEX
  8
AM_2
  5
2513
 10
99.6507
 20
-57.1423
 30
0.000000
  70
    32
  0
VERTEX
  8
AM_2
  5
2514
 10
99.7046
 20
-57.2060
 30
0.000000
  70
    32
  0
VERTEX
  8
AM_2
  5
2515
 10
99.7664
 20
-57.2686
 30
0.000000
  70
    32
  0
VERTEX
  8
AM_2
  5
2516
 10
99.8360
 20
-57.3300
 30
0.000000
  70
    32
  0
VERTEX
  8
AM_2
  5
2517
 10
99.9133
 20
-57.3899
 30
0.000000
  70
    32
  0
VERTEX
  8
AM_2
  5
2518
 10
99.9979
 20
-57.4483
 30
0.000000
  70
    32
  0
VERTEX
  8
AM_2
  5
2519
 10
100.090
 20
-57.5050
 30
0.000000
  70
    32
  0
VERTEX
  8
AM_2
  5
251A
 10
100.189
 20
-57.5599
 30
0.000000
  70
    32
  0
VERTEX
  8
AM_2
  5
251B
 10
100.294
 20
-57.6128
 30
0.000000
  70
    32
  0
VERTEX
  8
AM_2
  5
251C
 10
100.407
 20
-57.6637
 30
0.000000
  70
    32
  0
VERTEX
  8
AM_2
  5
251D
 10
100.525
 20
-57.7123
 30
0.000000
  70
    32
  0
VERTEX
  8
AM_2
  5
251E
 10
100.650
 20
-57.7586
 30
0.000000
  70
    32
  0
VERTEX
  8
AM_2
  5
251F
 10
100.780
 20
-57.8024
 30
0.000000
  70
    32
  0
VERTEX
  8
AM_2
  5
2520
 10
100.915
 20
-57.8437
 30
0.000000
  70
    32
  0
VERTEX
  8
AM_2
  5
2521
 10
101.055
 20
-57.8824
 30
0.000000
  70
    32
  0
VERTEX
  8
AM_2
  5
2522
 10
101.201
 20
-57.9183
 30
0.000000
  70
    32
  0
VERTEX
  8
AM_2
  5
2523
 10
101.350
 20
-57.9514
 30
0.000000
  70
    32
  0
VERTEX
  8
AM_2
  5
2524
 10
101.504
 20
-57.9815
 30
0.000000
  70
    32
  0
VERTEX
  8
AM_2
  5
2525
 10
101.661
 20
-58.0087
 30
0.000000
  70
    32
  0
VERTEX
  8
AM_2
  5
2526
 10
101.821
 20
-58.0329
 30
0.000000
  70
    32
  0
VERTEX
  8
AM_2
  5
2527
 10
101.984
 20
-58.0539
 30
0.000000
  70
    32
  0
VERTEX
  8
AM_2
  5
2528
 10
102.150
 20
-58.0718
 30
0.000000
  70
    32
  0
VERTEX
  8
AM_2
  5
2529
 10
102.317
 20
-58.0866
 30
0.000000
  70
    32
  0
VERTEX
  8
AM_2
  5
252A
 10
102.486
 20
-58.0980
 30
0.000000
  70
    32
  0
VERTEX
  8
AM_2
  5
252B
 10
102.657
 20
-58.1062
 30
0.000000
  70
    32
  0
VERTEX
  8
AM_2
  5
252C
 10
102.828
 20
-58.1112
 30
0.000000
  70
    32
  0
VERTEX
  8
AM_2
  5
252D
 10
103.000
 20
-58.1128
 30
0.000000
  70
    32
  0
VERTEX
  8
AM_2
  5
252E
 10
103.172
 20
-58.1112
 30
0.000000
  70
    32
  0
VERTEX
  8
AM_2
  5
252F
 10
103.343
 20
-58.1062
 30
0.000000
  70
    32
  0
VERTEX
  8
AM_2
  5
2530
 10
103.514
 20
-58.0980
 30
0.000000
  70
    32
  0
VERTEX
  8
AM_2
  5
2531
 10
103.683
 20
-58.0866
 30
0.000000
  70
    32
  0
VERTEX
  8
AM_2
  5
2532
 10
103.850
 20
-58.0718
 30
0.000000
  70
    32
  0
VERTEX
  8
AM_2
  5
2533
 10
104.016
 20
-58.0539
 30
0.000000
  70
    32
  0
VERTEX
  8
AM_2
  5
2534
 10
104.179
 20
-58.0329
 30
0.000000
  70
    32
  0
VERTEX
  8
AM_2
  5
2535
 10
104.339
 20
-58.0087
 30
0.000000
  70
    32
  0
VERTEX
  8
AM_2
  5
2536
 10
104.496
 20
-57.9815
 30
0.000000
  70
    32
  0
VERTEX
  8
AM_2
  5
2537
 10
104.650
 20
-57.9514
 30
0.000000
  70
    32
  0
VERTEX
  8
AM_2
  5
2538
 10
104.799
 20
-57.9183
 30
0.000000
  70
    32
  0
VERTEX
  8
AM_2
  5
2539
 10
104.944
 20
-57.8824
 30
0.000000
  70
    32
  0
VERTEX
  8
AM_2
  5
253A
 10
105.085
 20
-57.8437
 30
0.000000
  70
    32
  0
VERTEX
  8
AM_2
  5
253B
 10
105.220
 20
-57.8024
 30
0.000000
  70
    32
  0
VERTEX
  8
AM_2
  5
253C
 10
105.350
 20
-57.7586
 30
0.000000
  70
    32
  0
VERTEX
  8
AM_2
  5
253D
 10
105.475
 20
-57.7123
 30
0.000000
  70
    32
  0
VERTEX
  8
AM_2
  5
253E
 10
105.593
 20
-57.6637
 30
0.000000
  70
    32
  0
VERTEX
  8
AM_2
  5
253F
 10
105.706
 20
-57.6128
 30
0.000000
  70
    32
  0
VERTEX
  8
AM_2
  5
2540
 10
105.811
 20
-57.5599
 30
0.000000
  70
    32
  0
VERTEX
  8
AM_2
  5
2541
 10
105.910
 20
-57.5050
 30
0.000000
  70
    32
  0
VERTEX
  8
AM_2
  5
2542
 10
106.002
 20
-57.4483
 30
0.000000
  70
    32
  0
VERTEX
  8
AM_2
  5
2543
 10
106.087
 20
-57.3899
 30
0.000000
  70
    32
  0
VERTEX
  8
AM_2
  5
2544
 10
106.164
 20
-57.3300
 30
0.000000
  70
    32
  0
VERTEX
  8
AM_2
  5
2545
 10
106.234
 20
-57.2686
 30
0.000000
  70
    32
  0
VERTEX
  8
AM_2
  5
2546
 10
106.295
 20
-57.2060
 30
0.000000
  70
    32
  0
VERTEX
  8
AM_2
  5
2547
 10
106.349
 20
-57.1423
 30
0.000000
  70
    32
  0
VERTEX
  8
AM_2
  5
2548
 10
106.395
 20
-57.0776
 30
0.000000
  70
    32
  0
VERTEX
  8
AM_2
  5
2549
 10
106.433
 20
-57.0121
 30
0.000000
  70
    32
  0
VERTEX
  8
AM_2
  5
254A
 10
106.462
 20
-56.9459
 30
0.000000
  70
    32
  0
VERTEX
  8
AM_2
  5
254B
 10
106.483
 20
-56.8793
 30
0.000000
  70
    32
  0
VERTEX
  8
AM_2
  5
254C
 10
106.496
 20
-56.8124
 30
0.000000
  70
    32
  0
VERTEX
  8
AM_2
  5
254D
 10
106.500
 20
-56.7453
 30
0.000000
  70
    32
  0
VERTEX
  8
AM_2
  5
254E
 10
106.496
 20
-56.6782
 30
0.000000
  70
    32
  0
VERTEX
  8
AM_2
  5
254F
 10
106.483
 20
-56.6112
 30
0.000000
  70
    32
  0
VERTEX
  8
AM_2
  5
2550
 10
106.462
 20
-56.5446
 30
0.000000
  70
    32
  0
VERTEX
  8
AM_2
  5
2551
 10
106.433
 20
-56.4785
 30
0.000000
  70
    32
  0
VERTEX
  8
AM_2
  5
2552
 10
106.395
 20
-56.4130
 30
0.000000
  70
    32
  0
VERTEX
  8
AM_2
  5
2553
 10
106.349
 20
-56.3483
 30
0.000000
  70
    32
  0
VERTEX
  8
AM_2
  5
2554
 10
106.295
 20
-56.2846
 30
0.000000
  70
    32
  0
VERTEX
  8
AM_2
  5
2555
 10
106.234
 20
-56.2219
 30
0.000000
  70
    32
  0
VERTEX
  8
AM_2
  5
2556
 10
106.164
 20
-56.1606
 30
0.000000
  70
    32
  0
VERTEX
  8
AM_2
  5
2557
 10
106.087
 20
-56.1006
 30
0.000000
  70
    32
  0
VERTEX
  8
AM_2
  5
2558
 10
106.002
 20
-56.0422
 30
0.000000
  70
    32
  0
VERTEX
  8
AM_2
  5
2559
 10
105.910
 20
-55.9855
 30
0.000000
  70
    32
  0
VERTEX
  8
AM_2
  5
255A
 10
105.811
 20
-55.9306
 30
0.000000
  70
    32
  0
VERTEX
  8
AM_2
  5
255B
 10
105.706
 20
-55.8777
 30
0.000000
  70
    32
  0
VERTEX
  8
AM_2
  5
255C
 10
105.593
 20
-55.8269
 30
0.000000
  70
    32
  0
VERTEX
  8
AM_2
  5
255D
 10
105.475
 20
-55.7783
 30
0.000000
  70
    32
  0
VERTEX
  8
AM_2
  5
255E
 10
105.350
 20
-55.7320
 30
0.000000
  70
    32
  0
VERTEX
  8
AM_2
  5
255F
 10
105.220
 20
-55.6881
 30
0.000000
  70
    32
  0
VERTEX
  8
AM_2
  5
2560
 10
105.085
 20
-55.6468
 30
0.000000
  70
    32
  0
VERTEX
  8
AM_2
  5
2561
 10
104.944
 20
-55.6082
 30
0.000000
  70
    32
  0
VERTEX
  8
AM_2
  5
2562
 10
104.799
 20
-55.5723
 30
0.000000
  70
    32
  0
VERTEX
  8
AM_2
  5
2563
 10
104.650
 20
-55.5392
 30
0.000000
  70
    32
  0
VERTEX
  8
AM_2
  5
2564
 10
104.496
 20
-55.5090
 30
0.000000
  70
    32
  0
VERTEX
  8
AM_2
  5
2565
 10
104.339
 20
-55.4818
 30
0.000000
  70
    32
  0
VERTEX
  8
AM_2
  5
2566
 10
104.179
 20
-55.4577
 30
0.000000
  70
    32
  0
VERTEX
  8
AM_2
  5
2567
 10
104.016
 20
-55.4366
 30
0.000000
  70
    32
  0
VERTEX
  8
AM_2
  5
2568
 10
103.850
 20
-55.4187
 30
0.000000
  70
    32
  0
VERTEX
  8
AM_2
  5
2569
 10
103.683
 20
-55.4040
 30
0.000000
  70
    32
  0
VERTEX
  8
AM_2
  5
256A
 10
103.514
 20
-55.3925
 30
0.000000
  70
    32
  0
VERTEX
  8
AM_2
  5
256B
 10
103.343
 20
-55.3843
 30
0.000000
  70
    32
  0
VERTEX
  8
AM_2
  5
256C
 10
103.172
 20
-55.3794
 30
0.000000
  70
    32
  0
VERTEX
  8
AM_2
  5
256D
 10
103.000
 20
-55.3777
 30
0.000000
  70
    32
  0
VERTEX
  8
AM_2
  5
256E
 10
102.828
 20
-55.3794
 30
0.000000
  70
    32
  0
VERTEX
  8
AM_2
  5
256F
 10
102.657
 20
-55.3843
 30
0.000000
  70
    32
  0
VERTEX
  8
AM_2
  5
2570
 10
102.486
 20
-55.3925
 30
0.000000
  70
    32
  0
VERTEX
  8
AM_2
  5
2571
 10
102.317
 20
-55.4040
 30
0.000000
  70
    32
  0
VERTEX
  8
AM_2
  5
2572
 10
102.150
 20
-55.4187
 30
0.000000
  70
    32
  0
VERTEX
  8
AM_2
  5
2573
 10
101.984
 20
-55.4366
 30
0.000000
  70
    32
  0
VERTEX
  8
AM_2
  5
2574
 10
101.821
 20
-55.4577
 30
0.000000
  70
    32
  0
VERTEX
  8
AM_2
  5
2575
 10
101.661
 20
-55.4818
 30
0.000000
  70
    32
  0
VERTEX
  8
AM_2
  5
2576
 10
101.504
 20
-55.5090
 30
0.000000
  70
    32
  0
VERTEX
  8
AM_2
  5
2577
 10
101.350
 20
-55.5392
 30
0.000000
  70
    32
  0
VERTEX
  8
AM_2
  5
2578
 10
101.201
 20
-55.5723
 30
0.000000
  70
    32
  0
VERTEX
  8
AM_2
  5
2579
 10
101.055
 20
-55.6082
 30
0.000000
  70
    32
  0
VERTEX
  8
AM_2
  5
257A
 10
100.915
 20
-55.6468
 30
0.000000
  70
    32
  0
VERTEX
  8
AM_2
  5
257B
 10
100.780
 20
-55.6881
 30
0.000000
  70
    32
  0
VERTEX
  8
AM_2
  5
257C
 10
100.650
 20
-55.7320
 30
0.000000
  70
    32
  0
VERTEX
  8
AM_2
  5
257D
 10
100.525
 20
-55.7783
 30
0.000000
  70
    32
  0
VERTEX
  8
AM_2
  5
257E
 10
100.407
 20
-55.8269
 30
0.000000
  70
    32
  0
VERTEX
  8
AM_2
  5
257F
 10
100.294
 20
-55.8777
 30
0.000000
  70
    32
  0
VERTEX
  8
AM_2
  5
2580
 10
100.189
 20
-55.9306
 30
0.000000
  70
    32
  0
VERTEX
  8
AM_2
  5
2581
 10
100.090
 20
-55.9855
 30
0.000000
  70
    32
  0
VERTEX
  8
AM_2
  5
2582
 10
99.9979
 20
-56.0422
 30
0.000000
  70
    32
  0
VERTEX
  8
AM_2
  5
2583
 10
99.9133
 20
-56.1006
 30
0.000000
  70
    32
  0
VERTEX
  8
AM_2
  5
2584
 10
99.8360
 20
-56.1606
 30
0.000000
  70
    32
  0
VERTEX
  8
AM_2
  5
2585
 10
99.7664
 20
-56.2219
 30
0.000000
  70
    32
  0
VERTEX
  8
AM_2
  5
2586
 10
99.7046
 20
-56.2846
 30
0.000000
  70
    32
  0
VERTEX
  8
AM_2
  5
2587
 10
99.6507
 20
-56.3483
 30
0.000000
  70
    32
  0
VERTEX
  8
AM_2
  5
2588
 10
99.6049
 20
-56.4130
 30
0.000000
  70
    32
  0
VERTEX
  8
AM_2
  5
2589
 10
99.5672
 20
-56.4785
 30
0.000000
  70
    32
  0
VERTEX
  8
AM_2
  5
258A
 10
99.5379
 20
-56.5446
 30
0.000000
  70
    32
  0
VERTEX
  8
AM_2
  5
258B
 10
99.5168
 20
-56.6112
 30
0.000000
  70
    32
  0
VERTEX
  8
AM_2
  5
258C
 10
99.5042
 20
-56.6782
 30
0.000000
  70
    32
  0
VERTEX
  8
AM_2
  5
258D
 10
99.5000
 20
-56.7453
 30
0.000000
  70
    32
  0
SEQEND
  8
AM_2
  5
258E
  0
LINE
  5
1973
  8
AM_1
 10
75.999996103104081
 20
-42.000000000000249
 30
0.0
 11
114.49999568493421
 21
-42.000000000000249
 31
0.0
  0
LINE
  5
1974
  8
AM_1
 10
74.999996103104081
 20
-43.000000000000249
 30
0.0
 11
75.999996103104081
 21
-42.000000000000249
 31
0.0
1001
GENIUS_GENFIL_13
1070
     0
1040
0.2123122257920613
1040
1.272969767762242
1040
0.2123122257920613
1040
45.0
1000
~T
  0
LINE
  5
1975
  8
AM_1
 10
114.49999568493421
 20
-42.000000000000249
 30
0.0
 11
115.49999568493421
 21
-43.000000000000249
 31
0.0
  0
LINE
  5
1976
  8
AM_0
 10
65.99999568493422
 20
-61.999999999999922
 30
0.0
 11
65.99999568493422
 21
-44.000000000000263
 31
0.0
1001
GRPNAME
1000
0000002V
  0
LINE
  5
1977
  8
AM_0
 10
71.99999568493422
 20
-62.000000000000142
 30
0.0
 11
71.99999568493422
 21
-57.500000000000249
 31
0.0
1001
GRPNAME
1000
0000002V
  0
LINE
  5
1978
  8
AM_1
 10
76.919817076938216
 20
-53.50499850783288
 30
0.0
 11
113.0768070524921
 21
-53.50499850783288
 31
0.0
  0
LINE
  5
1979
  8
AM_1
 10
76.704276050967565
 20
-63.944564166728952
 30
0.0
 11
112.86126602652141
 21
-63.944564166728952
 31
0.0
  0
LINE
  5
197A
  8
AM_1
 10
117.49999568493421
 20
-63.089820278875578
 30
0.0
 11
117.49999568493431
 21
-96.910179721124464
 31
0.0
  0
LINE
  5
197B
  8
AM_1
 10
22.99999595882548
 20
-70.974428914871993
 30
0.0
 11
22.99999595882548
 21
-88.974428914871993
 31
0.0
  0
LINE
  5
197C
  8
AM_0
 10
74.999996103104081
 20
-64.000000000000028
 30
0.0
 11
74.999996103104081
 21
-49.827647460916999
 31
0.0
1001
GRPNAME
1000
0000006C
  0
LINE
  5
197D
  8
AM_1
 10
74.999996103104081
 20
-64.000000000000028
 30
0.0
 11
74.999996103104081
 21
-64.000000000000028
 31
0.0
  0
LINE
  5
197E
  8
AM_1
 10
61.999996103103847
 20
-93.577350510621969
 30
0.0
 11
61.999996103103847
 21
-66.249444408621486
 31
0.0
  0
LINE
  5
197F
  8
AM_1
 10
63.999996103101118
 20
-41.211268197640401
 30
0.0
 11
63.999996103101118
 21
-0.0000000000001421
 31
0.0
1001
GRPNAME
1000
0000001N
  0
LINE
  5
1980
  8
AM_1
 10
63.999996103101118
 20
-41.211268197640401
 30
0.0
 11
63.999996103101118
 21
-41.303265717640457
 31
0.0
  0
LINE
  5
1981
  8
AM_1
 10
63.999996103101118
 20
41.170702582359553
 30
0.0
 11
63.999996103101118
 21
-0.0000000000000284
 31
0.0
1001
GRPNAME
1000
0000001N
  0
LINE
  5
1982
  8
AM_1
 10
63.999996103101118
 20
41.170702582359553
 30
0.0
 11
63.999996103101118
 21
41.264231062359578
 31
0.0
  0
LINE
  5
1983
  8
AM_1
 10
74.999996103103953
 20
-99.000000000000028
 30
0.0
 11
74.999996103104195
 21
-80.000000000000028
 31
0.0
1001
GRPNAME
1000
0000003G
  0
LINE
  5
1984
  8
AM_1
 10
74.999996103103953
 20
-99.000000000000028
 30
0.0
 11
74.999996103103953
 21
-99.000000000000028
 31
0.0
  0
LINE
  5
1985
  8
AM_1
 10
74.999996103104081
 20
-64.000000000000028
 30
0.0
 11
74.999996103104081
 21
-64.000000000000028
 31
0.0
  0
LINE
  5
1986
  8
AM_0
 10
71.99999568493422
 20
-62.000000000000142
 30
0.0
 11
72.999996103104309
 21
-62.000000000000249
 31
0.0
1001
GRPNAME
1000
0000003G
  0
LINE
  5
1987
  8
AM_1
 10
65.99999568493422
 20
-61.999999999999922
 30
0.0
 11
71.99999568493422
 21
-62.000000000000142
 31
0.0
  0
LINE
  5
1988
  8
AM_1
 10
74.999996103104081
 20
-49.827647460916999
 30
0.0
 11
74.999996103104081
 21
-43.000000000000249
 31
0.0
1001
GRPNAME
1000
0000006C
  0
LINE
  5
1989
  8
AM_0
 10
61.999996103103847
 20
-66.249444408621486
 30
0.0
 11
61.999996103104081
 21
-63.000000000000249
 31
0.0
1001
GRPNAME
1000
0000003G
  0
LINE
  5
198A
  8
AM_1
 10
61.999996103103847
 20
-66.249444408621486
 30
0.0
 11
61.999996103103847
 21
-66.249444408621486
 31
0.0
  0
LINE
  5
198B
  8
AM_1
 10
60.999995684931029
 20
-71.000000000000028
 30
0.0
 11
60.999995684931029
 21
-80.000000000000028
 31
0.0
1001
GRPNAME
1000
0000002V
  0
LINE
  5
198C
  8
AM_1
 10
60.999995684931029
 20
-71.000000000000028
 30
0.0
 11
60.999995684931029
 21
-71.000000000000028
 31
0.0
  0
LINE
  5
198D
  8
AM_0
 10
60.999995684931029
 20
-89.000000000000028
 30
0.0
 11
60.999995684931029
 21
-93.000000000000256
 31
0.0
1001
GRPNAME
1000
0000002V
  0
LINE
  5
198E
  8
AM_1
 10
60.999995684931029
 20
-89.000000000000028
 30
0.0
 11
60.999995684931029
 21
-89.000000000000028
 31
0.0
  0
LINE
  5
198F
  8
AM_1
 10
61.999996103103847
 20
-93.750555591378799
 30
0.0
 11
61.999996103103847
 21
-93.750555591378799
 31
0.0
  0
LINE
  5
1990
  8
AM_1
 10
61.999996103103847
 20
-93.750555591378799
 30
0.0
 11
61.999996103103847
 21
-93.750555591378799
 31
0.0
  0
LINE
  5
1991
  8
AM_1
 10
115.49999568493421
 20
-49.68125003862977
 30
0.0
 11
115.49999568493421
 21
-43.000000000000249
 31
0.0
1001
GRPNAME
1000
0000006C
  0
LINE
  5
199A
  8
AM_13
 10
13.999995958825711
 20
-72.545603480144479
 30
0.0
 11
13.999995958825711
 21
-79.974428914871993
 31
0.0
  0
LINE
  5
199B
  8
AM_13
 10
16.99999595882548
 20
-88.974428914871993
 30
0.0
 11
16.99999595882548
 21
-70.974428914871993
 31
0.0
  0
LINE
  5
199C
  8
AM_11
 10
-10.859268024145869
 20
-95.973531413862389
 30
0.0
 11
28.999995958825711
 21
-95.974428914871993
 31
0.0
  0
LINE
  5
199D
  8
AM_13
 10
16.99999595882548
 20
-88.974428914871993
 30
0.0
 11
22.99999595882548
 21
-88.974428914871993
 31
0.0
  0
LINE
  5
199E
  8
AM_13
 10
13.999995958825711
 20
-87.403254349599734
 30
0.0
 11
13.999995958825711
 21
-79.974428914871993
 31
0.0
  0
LINE
  5
199F
  8
AM_13
 10
14.741176913723161
 20
-88.369180175888829
 30
0.0
 11
16.99999595882548
 21
-88.974428914871993
 31
0.0
  0
ARC
  5
19A0
  8
AM_13
 10
14.9999959588257
 20
-87.403254349599507
 30
0.0
 40
1.0
 50
179.9999999652816
 51
254.99999996528649
  0
LINE
  5
19A1
  8
AM_11
 10
28.999995958825711
 20
-95.974428914871993
 30
0.0
 11
28.999995958825711
 21
-88.974428914871993
 31
0.0
  0
LINE
  5
19A2
  8
AM_3
 10
59.899996103100868
 20
-42.499999999999922
 30
0.0
 11
63.999996103101118
 21
-42.499999999999922
 31
0.0
  0
LINE
  5
19A3
  8
AM_13
 10
64.49999568493422
 20
-43.500000000000249
 30
0.0
 11
60.499995684931029
 21
-43.500000000000249
 31
0.0
  0
LINE
  5
19A4
  8
AM_13
 10
60.49999568493422
 20
-50.500000000000249
 30
0.0
 11
64.49999568493422
 21
-50.500000000000249
 31
0.0
  0
LINE
  5
19A5
  8
AM_11
 10
-10.859268024145869
 20
-63.973531413862503
 30
0.0
 11
28.999995958825711
 21
-63.974428914871993
 31
0.0
  0
LINE
  5
19A6
  8
AM_13
 10
16.99999595882548
 20
-70.974428914871993
 30
0.0
 11
22.99999595882548
 21
-70.974428914871993
 31
0.0
  0
LINE
  5
19A7
  8
AM_13
 10
14.741176913723161
 20
-71.579677653855384
 30
0.0
 11
16.99999595882548
 21
-70.974428914871993
 31
0.0
  0
ARC
  5
19A8
  8
AM_13
 10
14.9999959588257
 20
-72.545603480144479
 30
0.0
 40
1.0000000000001841
 50
105.00000003471349
 51
180.0000000347184
  0
LINE
  5
19A9
  8
AM_13
 10
59.999995684934213
 20
-65.335378568353036
 30
0.0
 11
59.999995684934213
 21
-44.000000000000263
 31
0.0
  0
LINE
  5
19AA
  8
AM_11
 10
28.999995958825711
 20
-70.974428914871993
 30
0.0
 11
28.999995958825711
 21
-63.974428914871993
 31
0.0
  0
LINE
  5
19AB
  8
AM_13
 10
60.49999568493422
 20
-50.500000000000249
 30
0.0
 11
59.999995684934213
 21
-51.000000000000263
 31
0.0
  0
LINE
  5
19AC
  8
AM_3
 10
62.199996103101057
 20
-49.000000000000028
 30
0.0
 11
62.199996103101057
 21
-42.499999999999922
 31
0.0
1001
GRPNAME
1000
000000BD
  0
LINE
  5
19AD
  8
AM_3
 10
59.899996103100868
 20
-49.000000000000028
 30
0.0
 11
59.899996103100868
 21
-42.499999999999922
 31
0.0
1001
GRPNAME
1000
000000BD
  0
LINE
  5
19AE
  8
AM_13
 10
60.499995684931029
 20
-43.500000000000249
 30
0.0
 11
59.999995684931037
 21
-44.000000000000263
 31
0.0
  0
LINE
  5
19AF
  8
AM_13
 10
64.999995684934206
 20
-57.500000000000249
 30
0.0
 11
64.999995684934206
 21
-44.000000000000263
 31
0.0
  0
LINE
  5
19B0
  8
AM_13
 10
64.999995684934206
 20
-57.500000000000249
 30
0.0
 11
65.99999568493422
 21
-57.500000000000249
 31
0.0
  0
LINE
  5
19B1
  8
AM_13
 10
64.49999568493422
 20
-50.500000000000249
 30
0.0
 11
64.999995684934206
 21
-51.000000000000263
 31
0.0
  0
LINE
  5
19B2
  8
AM_13
 10
64.49999568493422
 20
-43.500000000000249
 30
0.0
 11
64.999995684934206
 21
-44.000000000000263
 31
0.0
  0
LINE
  5
19B4
  8
AM_7
 10
-53.054614231260302
 20
0.0
 30
0.0
 11
183.18431711765859
 21
-0.0000000000000284
 31
0.0
  0
LINE
  5
19B5
  8
AM_7
 10
8.5168206407520302
 20
-79.980566113431252
 30
0.0
 11
126.1738719207035
 21
-80.000000000000028
 31
0.0
1001
GRPNAME
1000
0000000W
  0
INSERT
  5
19B8
  8
240
  2
*U128
 10
0.0
 20
0.0
 30
0.0
  0
LINE
  5
19B9
  8
AM_0
 10
75.812218214723771
 20
49.999999999999972
 30
0.0
 11
114.7679448773621
 21
49.999999999999972
 31
0.0
  0
LINE
  5
19BA
  8
AM_1
 10
74.277564238765876
 20
49.282512056113518
 30
0.0
 11
74.277564238765876
 21
-0.0000000000000284
 31
0.0
  0
LINE
  5
19BB
  8
AM_0
 10
72.397193780157181
 20
42.982361911421968
 30
0.0
 11
73.880366562145582
 21
48.517638090205047
 31
0.0
  0
LINE
  5
19BC
  8
AM_1
 10
71.999996103536887
 20
42.217487945513277
 30
0.0
 11
71.999996103536887
 21
-0.0000000000000284
 31
0.0
  0
LINE
  5
19BD
  8
AM_1
 10
64.499996103100784
 20
41.00000000162705
 30
0.0
 11
64.499996103100784
 21
-0.0000000000000284
 31
0.0
1001
GRPNAME
1000
0000006R
  0
LINE
  5
19BE
  8
AM_0
 10
64.999996103100784
 20
41.50000000162705
 30
0.0
 11
70.465342127579106
 21
41.50000000162705
 31
0.0
1001
GRPNAME
1000
0000006R
  0
ARC
  5
19BF
  8
AM_0
 10
64.999996103100784
 20
41.00000000162705
 30
0.0
 40
0.5
 50
89.999999894581052
 51
179.99999989716051
1001
GRPNAME
1000
0000006R
  0
ARC
  5
19C0
  8
AM_0
 10
70.465342127579106
 20
43.50000000162705
 30
0.0
 40
2.0
 50
270.0
 51
344.99999999999892
  0
ARC
  5
19C1
  8
AM_0
 10
75.812218214723771
 20
47.999999999999972
 30
0.0
 40
2.0
 50
90.0
 51
164.99999999999881
  0
LINE
  5
19C2
  8
AM_0
 10
129.4855942445831
 20
-47.000000000000249
 30
0.0
 11
132.37234559053181
 21
-42.000000000000021
 31
0.0
  0
LINE
  5
19C3
  8
AM_1
 10
116.4999956849298
 20
-0.0000000000001421
 30
0.0
 11
116.4999956849298
 21
-47.500000000000142
 31
0.0
  0
LINE
  5
19C4
  8
AM_1
 10
128.9082439753935
 20
47.632993161855403
 30
0.0
 11
128.9082439753935
 21
-47.632993161855687
 31
0.0
  0
LINE
  5
19C5
  8
AM_0
 10
116.9999956849298
 20
-48.000000000000142
 30
0.0
 11
127.7535434370143
 21
-48.000000000000142
 31
0.0
  0
LINE
  5
19C6
  8
AM_0
 10
116.4999956849298
 20
-47.500000000000142
 30
0.0
 11
116.9999956849298
 21
-48.000000000000142
 31
0.0
1001
GENIUS_GENFIL_13
1070
     1
1040
0.4999999999999432
1040
0.500000000000057
1040
0.5
1040
45.0
1000
~T
1001
GENIUS_GENOREF_13
1005
1CD0
  0
ARC
  5
19C7
  8
AM_0
 10
127.7535434370143
 20
-46.000000000000142
 30
0.0
 40
2.0
 50
270.0
 51
329.99999999999619
  0
LINE
  5
19C8
  8
AM_0
 10
129.4855942445831
 20
47.000000000000092
 30
0.0
 11
132.37234559053181
 21
41.999999999999737
 31
0.0
  0
LINE
  5
19C9
  8
AM_1
 10
116.4999956849298
 20
-0.0000000000000284
 30
0.0
 11
116.4999956849298
 21
47.499999999999972
 31
0.0
  0
LINE
  5
19CA
  8
AM_1
 10
115.34529514655161
 20
49.816496580927691
 30
0.0
 11
115.34529514655161
 21
-0.0000000000000284
 31
0.0
  0
LINE
  5
19CC
  8
AM_0
 10
168.69999999999999
 20
-6.0000000000000284
 30
0.0
 11
178.5
 21
-6.0000000000000284
 31
0.0
  0
LINE
  5
19CF
  8
AM_13
 10
131.0
 20
1.999999999999857
 30
0.0
 11
180.00000000000011
 21
1.9999999999999709
 31
0.0
1001
GRPNAME
1000
00000001
  0
LINE
  5
19D0
  8
AM_13
 10
131.0
 20
-2.000000000000028
 30
0.0
 11
180.00000000000011
 21
-2.000000000000028
 31
0.0
  0
LINE
  5
19D8
  8
AM_0
 10
168.69999999999999
 20
5.9999999999999707
 30
0.0
 11
178.5
 21
5.9999999999999707
 31
0.0
  0
LINE
  5
19DB
  8
AM_1
 10
151.99999983396381
 20
-26.500000000000028
 30
0.0
 11
151.99999983396381
 21
26.499999999999972
 31
0.0
  0
LINE
  5
19DC
  8
AM_1
 10
144.49444633450071
 20
40.449489742783243
 30
0.0
 11
144.49444633450071
 21
-40.449489742783413
 31
0.0
  0
LINE
  5
19E0
  8
AM_3
 10
168.69999999999999
 20
-0.0000000000000284
 30
0.0
 11
168.69999999999999
 21
5.9999999999999707
 31
0.0
  0
LINE
  5
19E1
  8
AM_1
 10
164.99999983396381
 20
-0.0000000000000284
 30
0.0
 11
164.99999983396381
 21
5.249999999999857
 31
0.0
  0
LINE
  5
19E2
  8
AM_1
 10
163.99999983396381
 20
-0.0000000000000284
 30
0.0
 11
163.99999983396381
 21
5.285424868893613
 31
0.0
1001
GRPNAME
1000
0000000U
  0
LINE
  5
19E3
  8
AM_3
 10
165.5
 20
5.2499999999999707
 30
0.0
 11
165.5
 21
-0.0000000000000284
 31
0.0
1001
GRPNAME
1000
00000002
  0
LINE
  5
19E4
  8
AM_3
 10
167.5
 20
-0.0000000000000284
 30
0.0
 11
167.5
 21
6.0999999999998797
 31
0.0
  0
LINE
  5
19E5
  8
AM_1
 10
158.4999998339608
 20
-0.0000000000000284
 30
0.0
 11
158.4999998339608
 21
9.3127016653793078
 31
0.0
1001
GRPNAME
1000
0000000U
  0
LINE
  5
19E6
  8
AM_1
 10
157.9999998339608
 20
-0.0000000000000284
 30
0.0
 11
157.9999998339608
 21
9.7000000000000171
 31
0.0
1001
GRPNAME
1000
0000004Y
  0
LINE
  5
19EC
  8
AM_0
 10
134.1043963981007
 20
-41.000000000000142
 30
0.0
 11
142.76239552693181
 21
-41.000000000000249
 31
0.0
  0
ARC
  5
19F5
  8
AM_0
 10
134.1043963981007
 20
-43.000000000000142
 30
0.0
 40
2.0
 50
89.999999999996746
 51
149.99999999999619
  0
LINE
  5
19F6
  8
AM_1
 10
132.94969585972149
 20
41.367006838144313
 30
0.0
 11
132.94969585972149
 21
-41.36700683814459
 31
0.0
  0
LINE
  5
1A06
  8
AM_0
 10
151.86602523775031
 20
-28.232050807568982
 30
0.0
 11
145.3604717382851
 21
-39.500000000000263
 31
0.0
  0
ARC
  5
1A07
  8
AM_0
 10
142.76239552693181
 20
-38.000000000000249
 30
0.0
 40
3.0
 50
270.0
 51
329.99999999999989
  0
ARC
  5
1A08
  8
AM_0
 10
150.99999983396589
 20
-27.732050807568982
 30
0.0
 40
1.0
 50
329.99999999999989
 51
0.0
1001
GRPNAME
1000
0000000P
  0
LINE
  5
1A09
  8
AM_0
 10
151.99999983396381
 20
-27.732050807568982
 30
0.0
 11
151.99999983396381
 21
-26.500000000000028
 31
0.0
  0
LINE
  5
1A0C
  8
AM_0
 10
158.39999983396081
 20
-9.2999999999999812
 30
0.0
 11
158.4999998339608
 21
-9.2999999999999812
 31
0.0
  0
LINE
  5
1A0D
  8
AM_1
 10
157.9999998339608
 20
-0.0000000000000284
 30
0.0
 11
157.9999998339608
 21
-9.7000000000000721
 31
0.0
  0
ARC
  5
1A0E
  8
AM_0
 10
158.39999983396081
 20
-9.7000000000000721
 30
0.0
 40
0.400000000000091
 50
90.000000005145864
 51
180.00000000514589
  0
LINE
  5
1A11
  8
AM_0
 10
163.99999983396381
 20
-5.2854248688937844
 30
0.0
 11
163.99999983396381
 21
-13.00000000000003
 31
0.0
  0
LINE
  5
1A12
  8
AM_0
 10
158.4999998339608
 20
-9.3127016653793646
 30
0.0
 11
158.4999998339608
 21
-13.20000000000007
 31
0.0
  0
LINE
  5
1A13
  8
AM_0
 10
158.79999983396081
 20
-13.50000000000003
 30
0.0
 11
163.49999983396381
 21
-13.50000000000003
 31
0.0
  0
LINE
  5
1A14
  8
AM_0
 10
158.79999983396081
 20
-13.50000000000003
 30
0.0
 11
158.4999998339608
 21
-13.20000000000007
 31
0.0
  0
LINE
  5
1A16
  8
AM_0
 10
163.49999983396381
 20
-13.50000000000003
 30
0.0
 11
163.99999983396381
 21
-13.00000000000003
 31
0.0
  0
LINE
  5
1A18
  8
AM_0
 10
165.8000000000001
 20
-6.1000000000000512
 30
0.0
 11
167.5
 21
-6.1000000000000512
 31
0.0
  0
LINE
  5
1A1B
  8
AM_1
 10
158.4999998339608
 20
-0.0000000000000284
 30
0.0
 11
158.4999998339608
 21
-9.3127016653793646
 31
0.0
  0
LINE
  5
1A1C
  8
AM_1
 10
164.99999983396381
 20
-0.0000000000000284
 30
0.0
 11
164.99999983396381
 21
-5.2500000000000284
 31
0.0
  0
LINE
  5
1A1D
  8
AM_1
 10
163.99999983396381
 20
-0.0000000000000284
 30
0.0
 11
163.99999983396381
 21
-5.2854248688937844
 31
0.0
  0
LINE
  5
1A1E
  8
AM_3
 10
165.5
 20
-5.2500000000001421
 30
0.0
 11
165.5
 21
-0.0000000000000284
 31
0.0
  0
LINE
  5
1A20
  8
AM_0
 10
165.5
 20
-5.8000000000000957
 30
0.0
 11
165.5
 21
-5.2500000000001421
 31
0.0
  0
ARC
  5
1A21
  8
AM_0
 10
165.8000000000001
 20
-5.8000000000000957
 30
0.0
 40
0.3000000000000114
 50
180.0
 51
270.0
  0
LINE
  5
1A22
  8
AM_0
 10
164.8999998339639
 20
-5.1500000000001194
 30
0.0
 11
164.99999983396381
 21
-5.2500000000000284
 31
0.0
  0
LINE
  5
1A23
  8
AM_0
 10
165.5
 20
-5.2500000000000284
 30
0.0
 11
164.99999983396381
 21
-5.2500000000000284
 31
0.0
  0
ARC
  5
1A24
  8
AM_0
 10
164.2999998339638
 20
-5.5500000000000957
 30
0.0
 40
0.3999999999999772
 50
90.000000028269767
 51
138.59037789074861
  0
LINE
  5
1A25
  8
AM_0
 10
164.8999998339639
 20
-5.1500000000001194
 30
0.0
 11
164.2999998339638
 21
-5.1500000000001194
 31
0.0
  0
LINE
  5
1A26
  8
AM_3
 10
168.69999999999999
 20
-0.0000000000000284
 30
0.0
 11
168.69999999999999
 21
-6.0000000000000284
 31
0.0
  0
LINE
  5
1A27
  8
AM_3
 10
167.5
 20
-0.0000000000000284
 30
0.0
 11
167.5
 21
-6.1000000000000512
 31
0.0
  0
LINE
  5
1A2A
  8
AM_0
 10
168.02678268764271
 20
-5.950000000000073
 30
0.0
 11
168.4038129191525
 21
-5.950000000000073
 31
0.0
  0
ARC
  5
1A2B
  8
AM_0
 10
168.02678268764271
 20
-6.950000000000073
 30
0.0
 40
1.0
 50
90.0
 51
121.78833061705321
  0
ARC
  5
1A2C
  8
AM_0
 10
168.3873374534746
 20
-6.9498642703041753
 30
0.0
 40
1.000000000000012
 50
71.780238611080151
 51
90.944017359639133
  0
LINE
  5
1A34
  8
AM_0
 10
134.1043963981007
 20
40.999999999999858
 30
0.0
 11
142.76239552693181
 21
41.000000000000078
 31
0.0
  0
ARC
  5
1A35
  8
AM_0
 10
134.1043963981007
 20
42.999999999999851
 30
0.0
 40
2.0
 50
210.00000000000369
 51
270.0
  0
LINE
  5
1A36
  8
AM_0
 10
158.39999983396081
 20
9.2999999999999261
 30
0.0
 11
158.4999998339608
 21
9.2999999999999261
 31
0.0
1001
GRPNAME
1000
0000004Y
  0
ARC
  5
1A3B
  8
AM_0
 10
158.39999983396081
 20
9.7000000000000171
 30
0.0
 40
0.3999999999999772
 50
179.99999999485411
 51
269.99999999485408
1001
GRPNAME
1000
0000004Y
  0
LINE
  5
1A3D
  8
AM_0
 10
158.4999998339608
 20
9.3127016653793078
 30
0.0
 11
158.4999998339608
 21
13.200000000000021
 31
0.0
1001
GRPNAME
1000
0000000U
  0
LINE
  5
1A3F
  8
AM_0
 10
163.99999983396381
 20
5.285424868893613
 30
0.0
 11
163.99999983396381
 21
12.99999999999997
 31
0.0
1001
GRPNAME
1000
0000000U
  0
LINE
  5
1A41
  8
AM_0
 10
165.8000000000001
 20
6.0999999999998797
 30
0.0
 11
167.5
 21
6.0999999999998797
 31
0.0
  0
LINE
  5
1A42
  8
AM_0
 10
165.5
 20
5.7999999999999261
 30
0.0
 11
165.5
 21
5.2499999999999707
 31
0.0
1001
GRPNAME
1000
00000002
  0
LINE
  5
1A43
  8
AM_0
 10
164.8999998339639
 20
5.149999999999948
 30
0.0
 11
164.99999983396381
 21
5.249999999999857
 31
0.0
1001
GRPNAME
1000
0000000U
  0
LINE
  5
1A44
  8
AM_0
 10
165.5
 20
5.249999999999857
 30
0.0
 11
164.99999983396381
 21
5.249999999999857
 31
0.0
1001
GRPNAME
1000
0000000U
  0
ARC
  5
1A46
  8
AM_0
 10
164.2999998339638
 20
5.5499999999999261
 30
0.0
 40
0.3999999999999728
 50
221.40962210925139
 51
269.99999997173018
1001
GRPNAME
1000
0000000U
  0
LINE
  5
1A47
  8
AM_0
 10
164.8999998339639
 20
5.149999999999948
 30
0.0
 11
164.2999998339638
 21
5.149999999999948
 31
0.0
1001
GRPNAME
1000
0000000U
  0
ARC
  5
1A48
  8
AM_0
 10
165.8000000000001
 20
5.7999999999999261
 30
0.0
 40
0.3000000000000114
 50
90.0
 51
180.0
  0
LINE
  5
1A4D
  8
AM_0
 10
168.02678268764271
 20
5.9499999999999034
 30
0.0
 11
168.4038129191525
 21
5.9499999999999034
 31
0.0
  0
ARC
  5
1A4E
  8
AM_0
 10
168.02678268764271
 20
6.9499999999999034
 30
0.0
 40
1.000000000000002
 50
238.21166938294681
 51
270.0
  0
ARC
  5
1A4F
  8
AM_0
 10
168.3873374534746
 20
6.9498642703040039
 30
0.0
 40
1.0
 50
269.05598264036092
 51
288.21976138891978
  0
LINE
  5
1A55
  8
AM_0
 10
158.79999983396081
 20
13.49999999999997
 30
0.0
 11
163.49999983396381
 21
13.49999999999997
 31
0.0
1001
GRPNAME
1000
0000000U
  0
LINE
  5
1A56
  8
AM_0
 10
158.79999983396081
 20
13.49999999999997
 30
0.0
 11
158.4999998339608
 21
13.200000000000021
 31
0.0
1001
GRPNAME
1000
0000000U
  0
LINE
  5
1A57
  8
AM_0
 10
163.49999983396381
 20
13.49999999999997
 30
0.0
 11
163.99999983396381
 21
12.99999999999997
 31
0.0
1001
GRPNAME
1000
0000000U
  0
LINE
  5
1A58
  8
AM_0
 10
151.86602523775031
 20
28.232050807568701
 30
0.0
 11
145.3604717382851
 21
39.500000000000092
 31
0.0
  0
ARC
  5
1A59
  8
AM_0
 10
150.99999983396589
 20
27.732050807568701
 30
0.0
 40
1.0
 50
0.0
 51
30.000000000000139
1001
GRPNAME
1000
0000000P
  0
LINE
  5
1A5A
  8
AM_0
 10
151.99999983396381
 20
27.732050807568811
 30
0.0
 11
151.99999983396381
 21
26.499999999999972
 31
0.0
  0
ARC
  5
1A5B
  8
AM_0
 10
142.76239552693181
 20
38.000000000000092
 30
0.0
 40
3.0
 50
30.000000000000139
 51
90.0
  0
LINE
  5
1A5C
  8
AM_0
 10
180.0
 20
4.4257359312879032
 30
0.0
 11
180.0
 21
-0.0000000000000284
 31
0.0
1001
GRPNAME
1000
00000002
  0
LINE
  5
1A5D
  8
AM_1
 10
179.69075684619099
 20
4.899999999999948
 30
0.0
 11
179.69075684619099
 21
-0.0000000000000284
 31
0.0
1001
GRPNAME
1000
00000002
  0
LINE
  5
1A5E
  8
AM_13
 10
180.0
 20
-4.4257359312880729
 30
0.0
 11
180.0
 21
-2.5499999999999821
 31
0.0
1001
GRPNAME
1000
0000001F
  0
LINE
  5
1A5F
  8
AM_0
 10
180.0
 20
-4.4257359312880729
 30
0.0
 11
180.0
 21
-0.0000000000000284
 31
0.0
  0
LINE
  5
1A60
  8
AM_1
 10
179.69075684619099
 20
-4.9000000000001194
 30
0.0
 11
179.69075684619099
 21
-0.0000000000000284
 31
0.0
  0
ARC
  5
1A63
  8
AM_0
 10
178.5
 20
-4.8000000000000957
 30
0.0
 40
1.199999999999988
 50
270.0
 51
352.88399476228949
  0
LINE
  5
1A65
  8
AM_0
 10
179.91213203435601
 20
-4.6378679656441193
 30
0.0
 11
179.7763140233827
 21
-4.7736859766172577
 31
0.0
  0
ARC
  5
1A66
  8
AM_0
 10
179.9884460577388
 20
-4.9858180109733041
 30
0.0
 40
0.3000000000000345
 50
135.0
 51
172.88399476228619
  0
ARC
  5
1A67
  8
AM_0
 10
179.69999999999999
 20
-4.4257359312880729
 30
0.0
 40
0.2999999999999743
 50
314.99999999999483
 51
0.0
  0
ARC
  5
1A7D
  8
AM_0
 10
178.5
 20
4.7999999999999261
 30
0.0
 40
1.2000000000000051
 50
7.1160052377104739
 51
90.0
  0
LINE
  5
1A8E
  8
AM_0
 10
179.91213203435601
 20
4.6378679656438351
 30
0.0
 11
179.7763140233827
 21
4.773685976617088
 31
0.0
1001
GRPNAME
1000
00000002
  0
ARC
  5
1A8F
  8
AM_0
 10
179.9884460577388
 20
4.9858180109731327
 30
0.0
 40
0.3000000000000322
 50
187.11600523771381
 51
225.0
1001
GRPNAME
1000
00000002
  0
ARC
  5
1A90
  8
AM_0
 10
179.69999999999999
 20
4.4257359312879032
 30
0.0
 40
0.3000000000000114
 50
0.0
 51
45.000000000004597
1001
GRPNAME
1000
00000002
  0
LINE
  5
1A94
  8
AM_0
 10
116.9999956849298
 20
47.999999999999972
 30
0.0
 11
127.7535434370143
 21
47.999999999999972
 31
0.0
  0
LINE
  5
1A95
  8
AM_0
 10
116.4999956849298
 20
47.499999999999972
 30
0.0
 11
116.9999956849298
 21
47.999999999999972
 31
0.0
1001
GENIUS_GENFIL_13
1070
     1
1040
0.4999999999999432
1040
0.500000000000057
1040
0.5
1040
45.0
1000
~T
1001
GENIUS_GENOREF_13
1005
1CCF
  0
ARC
  5
1A96
  8
AM_0
 10
115.49999568493099
 20
47.732050807568811
 30
0.0
 40
1.0
 50
0.0
 51
30.000000000003769
1001
GRPNAME
1000
0000006R
  0
ARC
  5
1A97
  8
AM_0
 10
114.7679448773621
 20
48.999999999999972
 30
0.0
 40
1.0
 50
30.000000000000139
 51
90.0
  0
LINE
  5
1A98
  8
AM_0
 10
116.3660210887154
 20
48.232050807568811
 30
0.0
 11
115.6339702811465
 21
49.499999999999972
 31
0.0
  0
ARC
  5
1A99
  8
AM_0
 10
127.7535434370143
 20
45.999999999999957
 30
0.0
 40
2.0
 50
30.000000000003769
 51
90.0
  0
LINE
  5
1A9A
  8
AM_1
 10
71.999996103536887
 20
-42.217487945513447
 30
0.0
 11
71.999996103536887
 21
-0.0000000000000284
 31
0.0
  0
LINE
  5
1A9B
  8
AM_1
 10
74.277564238765876
 20
-49.282512056113688
 30
0.0
 11
74.277564238765876
 21
-0.0000000000000284
 31
0.0
  0
ARC
  5
1A9C
  8
AM_0
 10
70.465342127579106
 20
-43.500000001627107
 30
0.0
 40
2.0
 50
15.00000000000116
 51
90.0
  0
LINE
  5
1A9D
  8
AM_0
 10
64.999996103100784
 20
-41.500000001627107
 30
0.0
 11
70.465342127579106
 21
-41.500000001627107
 31
0.0
1001
GRPNAME
1000
0000006R
  0
LINE
  5
1A9E
  8
AM_0
 10
72.397193780157181
 20
-42.982361911422153
 30
0.0
 11
73.880366562145582
 21
-48.517638090205111
 31
0.0
  0
LINE
  5
1A9F
  8
AM_1
 10
64.499996103100784
 20
-41.000000001627107
 30
0.0
 11
64.499996103100784
 21
-0.0000000000000284
 31
0.0
1001
GRPNAME
1000
0000006R
  0
ARC
  5
1AA0
  8
AM_0
 10
64.999996103100784
 20
-41.000000001627107
 30
0.0
 40
0.5
 50
180.00000010283949
 51
270.00000010541902
1001
GRPNAME
1000
0000006R
  0
ARC
  5
1AA1
  8
AM_0
 10
75.812218214723771
 20
-48.000000000000028
 30
0.0
 40
2.0
 50
195.00000000000111
 51
246.03922963010459
  0
LINE
  5
1AA2
  8
AM_1
 10
115.34529514655161
 20
-42.84529946161765
 30
0.0
 11
115.34529514655161
 21
-0.0000000000000284
 31
0.0
  0
LINE
  5
1AA3
  8
AM_0
 10
116.3660210887154
 20
-48.232050807568868
 30
0.0
 11
115.6339702811465
 21
-49.500000000000021
 31
0.0
  0
ARC
  5
1AA4
  8
AM_0
 10
114.7679448773621
 20
-49.000000000000028
 30
0.0
 40
1.0
 50
317.05859713539593
 51
329.99999999999989
  0
LINE
  5
1AA5
  8
AM_0
 10
116.49999568493099
 20
47.732050807568811
 30
0.0
 11
116.49999568493099
 21
47.500000000001222
 31
0.0
  0
LINE
  5
1AA6
  8
AM_0
 10
116.49999568493099
 20
-47.732050807568868
 30
0.0
 11
116.49999568493099
 21
-47.500000000001393
 31
0.0
  0
ARC
  5
1AA7
  8
AM_0
 10
115.49999568493099
 20
-47.732050807568868
 30
0.0
 40
1.0
 50
329.99999999999619
 51
0.0
1001
GRPNAME
1000
0000006R
  0
LINE
  5
1AA8
  8
AM_1
 10
153.45037190563329
 20
25.92787871114362
 30
0.0
 11
153.45037190563329
 21
-25.927878711143681
 31
0.0
  0
ARC
  5
1AA9
  8
AM_0
 10
152.0499568292139
 20
-24.500000000000028
 30
0.0
 40
2.0
 50
270.0
 51
339.99999999999989
  0
LINE
  5
1AAA
  8
AM_0
 10
151.99999983396381
 20
-26.500000000000028
 30
0.0
 11
152.0499568292139
 21
-26.500000000000028
 31
0.0
  0
LINE
  5
1AAB
  8
AM_0
 10
157.93969245474671
 20
-14.165693162617259
 30
0.0
 11
153.92934207078571
 21
-25.184040286651481
 31
0.0
  0
ARC
  5
1AAC
  8
AM_0
 10
156.9999998339608
 20
-13.82367301929164
 30
0.0
 40
1.0
 50
339.99999999999989
 51
0.0
1001
GRPNAME
1000
0000004X
  0
LINE
  5
1AAD
  8
AM_0
 10
157.9999998339608
 20
-9.7000000000000721
 30
0.0
 11
157.9999998339608
 21
-13.82367301929164
 31
0.0
  0
LINE
  5
1AAE
  8
AM_0
 10
157.93969245474671
 20
14.165693162617091
 30
0.0
 11
153.92934207078571
 21
25.18404028665131
 31
0.0
  0
LINE
  5
1AAF
  8
AM_0
 10
157.9999998339608
 20
9.7000000000000171
 30
0.0
 11
157.9999998339608
 21
13.823673019291361
 31
0.0
1001
GRPNAME
1000
0000004Y
  0
ARC
  5
1AB0
  8
AM_0
 10
156.9999998339608
 20
13.823673019291361
 30
0.0
 40
1.0
 50
0.0
 51
20.000000000000089
1001
GRPNAME
1000
0000004X
  0
LINE
  5
1AB1
  8
AM_0
 10
151.99999983396381
 20
26.499999999999972
 30
0.0
 11
152.04995682921401
 21
26.499999999999972
 31
0.0
1001
GRPNAME
1000
0000004Y
  0
ARC
  5
1AB2
  8
AM_0
 10
152.04995682921401
 20
24.499999999999972
 30
0.0
 40
2.0
 50
20.000000000000089
 51
90.0
  0
LINE
  5
1ABE
  8
AM_1
 10
63.999996103100962
 20
-22.999999999999972
 30
0.0
 11
64.499996103100955
 21
-23.499999999999972
 31
0.0
1001
GRPNAME
1000
00000011
  0
LINE
  5
1ABF
  8
AM_1
 10
63.999996103100962
 20
22.999999999999972
 30
0.0
 11
64.499996103100955
 21
23.499999999999972
 31
0.0
1001
GRPNAME
1000
00000011
  0
LINE
  5
1AD2
  8
AM_7
 10
295.16296777207799
 20
55.71067811865472
 30
0.0
 11
295.16296777207799
 21
-63.21568570884974
 31
0.0
  0
LINE
  5
1AD3
  8
AM_7
 10
239.45228965342329
 20
-0.0000000000000284
 30
0.0
 11
350.87364589073292
 21
-0.0000000000000284
 31
0.0
  0
ARC
  5
1AD5
  8
AM_1
 10
295.16296777207799
 20
0.0000000000004263
 30
0.0
 40
50.000000000000227
 50
237.14011914189109
 51
302.8598803788858
1001
GRPNAME
1000
00000034
  0
CIRCLE
  5
1AD6
  8
AM_1
 10
295.16296777207799
 20
-0.0000000000000284
 30
0.0
 40
26.5
  0
ARC
  5
1AD7
  8
AM_0
 10
295.16296777207799
 20
-0.0000000000000284
 30
0.0
 40
50.0
 50
302.8598803788858
 51
237.1401196211142
  0
CIRCLE
  5
1AEA
  8
AM_1
 10
295.16296777207799
 20
-0.0000000000000284
 30
0.0
 40
13.5
  0
CIRCLE
  5
1B03
  8
AM_1
 10
295.16296777207799
 20
-0.0000000000000284
 30
0.0
 40
6.0
  0
CIRCLE
  5
1B04
  8
AM_1
 10
295.16296777207799
 20
-0.0000000000000284
 30
0.0
 40
2.0
  0
LINE
  5
1B1D
  8
AM_7
 10
295.16296777207759
 20
-103.0017719277248
 30
0.0
 11
295.16296777207759
 21
-45.596890972562313
 31
0.0
1001
GRPNAME
1000
00000069
  0
ARC
  5
1B1E
  8
AM_0
 10
268.66296777207788
 20
-52.047260534123012
 30
0.0
 40
3.0
 50
180.0
 51
238.14456917591141
1001
GRPNAME
1000
00000069
  0
ARC
  5
1B1F
  8
AM_0
 10
321.66296777207788
 20
-52.047260534123239
 30
0.0
 40
2.9999999999999378
 50
301.8554308240827
 51
0.0
1001
GRPNAME
1000
00000069
  0
ARC
  5
1B20
  8
AM_0
 10
295.16296777207782
 20
-80.000000000000256
 30
0.0
 40
20.999999999999769
 50
180.0
 51
0.0
1001
GRPNAME
1000
00000069
  0
LINE
  5
1B21
  8
AM_7
 10
272.43504571071998
 20
-80.000000000000256
 30
0.0
 11
317.89088983343572
 21
-80.000000000000597
 31
0.0
1001
GRPNAME
1000
00000069
  0
LINE
  5
1B22
  8
AM_0
 10
274.16296777206162
 20
-67.336145385533683
 30
0.0
 11
274.16296777206162
 21
-80.000000000000256
 31
0.0
1001
GRPNAME
1000
00000069
  0
ARC
  5
1B23
  8
AM_0
 10
259.16296777206162
 20
-67.33614538553357
 30
0.0
 40
15.0
 50
0.0
 51
58.14456917591729
1001
GRPNAME
1000
00000069
  0
LINE
  5
1B27
  8
AM_0
 10
316.16296777209391
 20
-67.336145385533797
 30
0.0
 11
316.16296777209391
 21
-80.000000000000369
 31
0.0
1001
GRPNAME
1000
00000069
  0
ARC
  5
1B28
  8
AM_0
 10
331.16296777209391
 20
-67.336145385533797
 30
0.0
 40
14.99999999999994
 50
121.8554308240827
 51
180.0
1001
GRPNAME
1000
00000069
  0
ARC
  5
1B2B
  8
AM_1
 10
295.16296777207799
 20
0.0000000000004263
 30
0.0
 40
50.000000000000227
 50
270.0
 51
302.8598803788858
1001
GRPNAME
1000
00000069
  0
ARC
  5
1B2C
  8
AM_1
 10
295.16296777207799
 20
0.0000000000004263
 30
0.0
 40
50.000000000000099
 50
237.1401196211142
 51
270.0
1001
GRPNAME
1000
00000069
  0
LINE
  5
1B2D
  8
AM_0
 10
265.66296777207788
 20
-42.500000000000142
 30
0.0
 11
265.66296777207788
 21
-52.047260534123012
 31
0.0
1001
GRPNAME
1000
00000069
  0
LINE
  5
1B2E
  8
AM_0
 10
265.66296777207788
 20
-42.500000000000142
 30
0.0
 11
266.16296777207788
 21
-42.000000000000142
 31
0.0
1001
GRPNAME
1000
00000069
  0
LINE
  5
1B2F
  8
AM_0
 10
266.16296777207788
 20
-42.000000000000142
 30
0.0
 11
268.03364783957761
 21
-42.000000000000142
 31
0.0
1001
GRPNAME
1000
00000069
  0
LINE
  5
1B30
  8
AM_0
 10
324.66296777207788
 20
-42.500000000000369
 30
0.0
 11
324.66296777207788
 21
-52.047260534123239
 31
0.0
1001
GRPNAME
1000
00000069
  0
LINE
  5
1B31
  8
AM_0
 10
324.66296777207788
 20
-42.500000000000369
 30
0.0
 11
324.16296777207788
 21
-42.000000000000369
 31
0.0
1001
GRPNAME
1000
00000069
  0
LINE
  5
1B32
  8
AM_0
 10
324.16296777207788
 20
-42.000000000000369
 30
0.0
 11
322.29228770457831
 21
-42.000000000000369
 31
0.0
1001
GRPNAME
1000
00000069
  0
CIRCLE
  5
1B3C
  8
AM_1
 10
295.16296777207788
 20
-80.000000000000369
 30
0.0
 40
17.000000000000401
  0
CIRCLE
  5
1B3D
  8
AM_1
 10
295.16296777207788
 20
-80.000000000000369
 30
0.0
 40
10.000000000000281
  0
ARC
  5
1B47
  8
AM_3
 10
-26.539274057836231
 20
30.500000000000028
 30
0.0
 40
1.000000000000056
 50
90.000000077129599
 51
150.00000007713291
1001
GRPNAME
1000
PASTMD0M
  0
LINE
  5
1B48
  8
AM_0
 10
-2.0
 20
37.900000000000119
 30
0.0
 11
-48.099875233887701
 21
35.595006238305622
 31
0.0
1001
GRPNAME
1000
PASTMD0M
  0
ARC
  5
1B49
  8
AM_3
 10
-26.539274057836231
 20
-30.499999999999972
 30
0.0
 40
0.9999999999999921
 50
209.99999993315711
 51
269.99999993314913
1001
GRPNAME
1000
PASTMD0M
  0
LINE
  5
1B4A
  8
AM_0
 10
-2.0
 20
-37.899999999999949
 30
0.0
 11
-48.099875233887701
 21
-35.595006238305558
 31
0.0
1001
GRPNAME
1000
PASTMD0M
  0
LINE
  5
1B4C
  8
AM_0
 10
-50.0
 20
-33.597501560549951
 30
0.0
 11
-50.0
 21
0.0000000000000284
 31
0.0
1001
GRPNAME
1000
PASTMD0M
  0
LINE
  5
1B4D
  8
AM_3
 10
-27.116624327025871
 20
-31.316496580927691
 30
0.0
 11
-27.116624327025871
 21
31.316496580927641
 31
0.0
1001
GRPNAME
1000
PASTMD0M
  0
LINE
  5
1B4E
  8
AM_3
 10
-30.003375672974251
 20
26.500000000000028
 30
0.0
 11
-30.003375672974251
 21
-26.499999999999972
 31
0.0
1001
GRPNAME
1000
PASTMD0M
  0
LINE
  5
1B4F
  8
AM_3
 10
-30.003375672974251
 20
-26.499999999999972
 30
0.0
 11
-48.5
 21
-26.499999999999972
 31
0.0
1001
GRPNAME
1000
PASTMD0M
  0
ARC
  5
1B50
  8
AM_0
 10
-48.0
 20
-33.597501560549951
 30
0.0
 40
2.0
 50
179.99999998333121
 51
267.1375947572173
1001
GRPNAME
1000
PASTMD0M
  0
LINE
  5
1B51
  8
AM_3
 10
-48.5
 20
-20.866709168772299
 30
0.0
 11
-48.5
 21
-26.499999999999972
 31
0.0
1001
GRPNAME
1000
PASTMD0M
  0
LINE
  5
1B52
  8
AM_3
 10
-50.0
 20
-27.366025403784391
 30
0.0
 11
-48.5
 21
-26.499999999999972
 31
0.0
1001
GRPNAME
1000
PASTMD0M
  0
LINE
  5
1B53
  8
AM_3
 10
-35.0
 20
-36.249999999999972
 30
0.0
 11
-35.0
 21
-26.499999999999972
 31
0.0
1001
GRPNAME
1000
PASTMD0M
  0
LINE
  5
1B54
  8
AM_3
 10
-30.003375672974251
 20
-26.499999999999972
 30
0.0
 11
-27.40529946162065
 21
-30.999999999999972
 31
0.0
1001
GRPNAME
1000
PASTMD0M
  0
LINE
  5
1B55
  8
AM_3
 10
-50.0
 20
27.366025403784558
 30
0.0
 11
-48.5
 21
26.500000000000028
 31
0.0
1001
GRPNAME
1000
PASTMD0M
  0
LINE
  5
1B56
  8
AM_3
 10
-40.0
 20
26.500000000000028
 30
0.0
 11
-40.0
 21
36.000000000000028
 31
0.0
1001
GRPNAME
1000
PASTMD0M
  0
LINE
  5
1B57
  8
AM_3
 10
-30.003375672974251
 20
26.500000000000028
 30
0.0
 11
-27.40529946162065
 21
31.000000000000028
 31
0.0
1001
GRPNAME
1000
PASTMD0M
  0
LINE
  5
1B58
  8
AM_0
 10
-50.0
 20
0.0000000000000284
 30
0.0
 11
-50.0
 21
33.59750156055
 31
0.0
1001
GRPNAME
1000
PASTMD0M
  0
LINE
  5
1B59
  8
AM_3
 10
-30.003375672974251
 20
26.500000000000028
 30
0.0
 11
-48.5
 21
26.500000000000028
 31
0.0
1001
GRPNAME
1000
PASTMD0M
  0
LINE
  5
1B5A
  8
AM_3
 10
-48.5
 20
20.86670916877236
 30
0.0
 11
-48.5
 21
26.500000000000028
 31
0.0
1001
GRPNAME
1000
PASTMD0M
  0
ARC
  5
1B5B
  8
AM_0
 10
-48.0
 20
33.59750156055
 30
0.0
 40
2.00000000000002
 50
92.862405134173159
 51
179.9999999080645
1001
GRPNAME
1000
PASTMD0M
  0
LINE
  5
1B5C
  8
AM_1
 10
44.999999999999773
 20
-42.499999999999737
 30
0.0
 11
44.999999999999773
 21
42.500000000000021
 31
0.0
  0
LINE
  5
1B5D
  8
AM_1
 10
28.99999999999989
 20
-42.700000000000017
 30
0.0
 11
28.99999999999989
 21
0.0000000000000284
 31
0.0
1001
GRPNAME
1000
PASTMD0M
  0
LINE
  5
1B5E
  8
AM_1
 10
0.0
 20
-37.600000000000001
 30
0.0
 11
0.0
 21
37.600000000000051
 31
0.0
1001
GRPNAME
1000
PASTMD0M
  0
LINE
  5
1B5F
  8
AM_1
 10
-2.0
 20
-37.899999999999949
 30
0.0
 11
-2.0
 21
37.900000000000119
 31
0.0
1001
GRPNAME
1000
PASTMD0M
  0
LINE
  5
1B60
  8
AM_1
 10
18.125
 20
-46.999999999999972
 30
0.0
 11
18.125
 21
31.500000000000149
 31
0.0
1001
GRPNAME
1000
PASTMD0M
  0
LINE
  5
1B61
  8
AM_1
 10
21.875
 20
-46.999999999999972
 30
0.0
 11
21.875
 21
31.500000000000149
 31
0.0
1001
GRPNAME
1000
PASTMD0M
  0
LINE
  5
1B62
  8
AM_1
 10
16.752404735808341
 20
-49.999999999999972
 30
0.0
 11
16.752404735808341
 21
31.500000000000149
 31
0.0
1001
GRPNAME
1000
PASTMD0M
  0
LINE
  5
1B63
  8
AM_1
 10
23.247595264191549
 20
-49.999999999999972
 30
0.0
 11
23.247595264191549
 21
31.500000000000149
 31
0.0
1001
GRPNAME
1000
PASTMD0M
  0
LINE
  5
1B64
  8
AM_3
 10
-9.4966925428956301
 20
-31.499999999999972
 30
0.0
 11
-9.4966925428956301
 21
31.49999999805485
 31
0.0
1001
GRPNAME
1000
PASTMD0M
  0
LINE
  5
1B65
  8
AM_3
 10
-0.0499999999999545
 20
-26.899999999999949
 30
0.0
 11
-0.0499999999999545
 21
26.900000000000119
 31
0.0
1001
GRPNAME
1000
PASTMD0M
  0
LINE
  5
1B66
  8
AM_3
 10
12.45000000000004
 20
-24.399999999999949
 30
0.0
 11
12.45000000000004
 21
24.400000000000119
 31
0.0
1001
GRPNAME
1000
PASTMD0M
  0
LINE
  5
1B67
  8
AM_7
 10
-10.0
 20
-39.22662698108045
 30
0.0
 11
-10.0
 21
40.27063382655799
 31
0.0
1001
GRPNAME
1000
PASTMD0M
  0
LINE
  5
1B68
  8
AM_0
 10
29.199999999999822
 20
-42.499999999999972
 30
0.0
 11
44.999999999999773
 21
-42.499999999999972
 31
0.0
  0
LINE
  5
1B69
  8
AM_3
 10
9.9500000000000455
 20
-26.899999999999949
 30
0.0
 11
-0.0499999999999545
 21
-26.899999999999949
 31
0.0
1001
GRPNAME
1000
PASTMD0M
  0
LINE
  5
1B6A
  8
AM_0
 10
16.752404735808341
 20
-49.999999999999972
 30
0.0
 11
0.5
 21
-49.999999999999972
 31
0.0
1001
GRPNAME
1000
PASTMD0M
  0
LINE
  5
1B6B
  8
AM_3
 10
28.99999999999989
 20
-43.999999999999972
 30
0.0
 11
4.999999999999317
 21
-43.999999999999972
 31
0.0
1001
GRPNAME
1000
PASTMD0M
  0
LINE
  5
1B6C
  8
AM_0
 10
0.0
 20
-49.499999999999972
 30
0.0
 11
0.0
 21
-37.600000000000001
 31
0.0
1001
GRPNAME
1000
PASTMD0M
  0
LINE
  5
1B6D
  8
AM_3
 10
4.999999999999317
 20
-49.999999999999972
 30
0.0
 11
4.999999999999317
 21
-43.999999999999972
 31
0.0
1001
GRPNAME
1000
PASTMD0M
  0
ARC
  5
1B6E
  8
AM_0
 10
0.5
 20
-49.499999999999972
 30
0.0
 40
0.5
 50
180.00000000256969
 51
270.00000000257302
1001
GRPNAME
1000
PASTMD0M
  0
LINE
  5
1B6F
  8
AM_3
 10
-9.4966925428956301
 20
-31.499999999999972
 30
0.0
 11
-26.539274057836231
 21
-31.499999999999972
 31
0.0
1001
GRPNAME
1000
PASTMD0M
  0
LINE
  5
1B70
  8
AM_3
 10
-21.0
 20
-36.290009074417611
 30
0.0
 11
-9.0
 21
-36.744310136094413
 31
0.0
  0
LINE
  5
1B71
  8
AM_3
 10
-21.0
 20
-31.49999999805479
 30
0.0
 11
-21.0
 21
-36.290009074417611
 31
0.0
  0
ARC
  5
1B72
  8
AM_3
 10
-15.20000000000004
 20
-41.799999999999919
 30
0.0
 40
8.0000000000000515
 50
136.46884783262871
 51
142.4369459699368
  0
LINE
  5
1B73
  8
AM_7
 10
-15.0
 20
-30.510325198328559
 30
0.0
 11
-15.0
 21
-38.751119494972023
 31
0.0
  0
ARC
  5
1B74
  8
AM_3
 10
-9.4966925428956301
 20
-19.499999999999972
 30
0.0
 40
11.99999999805476
 50
270.00000005784881
 51
321.92687672765271
1001
GRPNAME
1000
PASTMD0M
  0
LINE
  5
1B75
  8
AM_3
 10
-9.0
 20
-31.489716279843581
 30
0.0
 11
-9.0
 21
-36.744310136094413
 31
0.0
  0
ARC
  5
1B76
  8
AM_3
 10
-15.20000000000004
 20
-41.799999999999919
 30
0.0
 40
8.0000000000000018
 50
31.838243577838501
 51
39.194967425985247
  0
LINE
  5
1B7B
  8
AM_0
 10
-0.1000000000000227
 20
-37.600000000000001
 30
0.0
 11
-1.4803847577292111
 21
-37.600000000000001
 31
0.0
1001
GRPNAME
1000
PASTMD0M
  0
LINE
  5
1B7C
  8
AM_0
 10
-1.4803847577292111
 20
-37.600000000000001
 30
0.0
 11
-1.9999999999998861
 21
-37.899999999999949
 31
0.0
1001
GRPNAME
1000
PASTMD0M
  0
ARC
  5
1B7D
  8
AM_0
 10
-0.1000000000000227
 20
-37.999999999999972
 30
0.0
 40
0.4000000000000166
 50
75.522487811486656
 51
90.0
1001
GRPNAME
1000
PASTMD0M
  0
ARC
  5
1B7E
  8
AM_0
 10
20.875
 20
-46.999999999999972
 30
0.0
 40
0.9999999999999715
 50
0.0000000025729415
 51
90.000000002572918
1001
GRPNAME
1000
PASTMD0M
  0
LINE
  5
1B7F
  8
AM_0
 10
18.125
 20
-47.622595264191737
 30
0.0
 11
16.752404735808341
 21
-49.999999999999972
 31
0.0
1001
GRPNAME
1000
PASTMD0M
  0
LINE
  5
1B80
  8
AM_0
 10
18.125
 20
-46.999999999999972
 30
0.0
 11
18.125
 21
-47.622595264191737
 31
0.0
1001
GRPNAME
1000
PASTMD0M
  0
ARC
  5
1B81
  8
AM_0
 10
19.125
 20
-46.999999999999972
 30
0.0
 40
1.0
 50
89.999999904872794
 51
179.99999990487601
1001
GRPNAME
1000
PASTMD0M
  0
LINE
  5
1B82
  8
AM_0
 10
20.875
 20
-45.999999999999957
 30
0.0
 11
19.125
 21
-45.999999999999957
 31
0.0
1001
GRPNAME
1000
PASTMD0M
  0
LINE
  5
1B83
  8
AM_0
 10
28.99999999999989
 20
-49.499999999999972
 30
0.0
 11
28.99999999999989
 21
-42.700000000000017
 31
0.0
1001
GRPNAME
1000
PASTMD0M
  0
LINE
  5
1B84
  8
AM_0
 10
28.49999999999989
 20
-49.999999999999972
 30
0.0
 11
23.247595264191659
 21
-49.999999999999972
 31
0.0
1001
GRPNAME
1000
PASTMD0M
  0
LINE
  5
1B85
  8
AM_0
 10
21.875
 20
-46.999999999999972
 30
0.0
 11
21.875
 21
-47.622595264191737
 31
0.0
1001
GRPNAME
1000
PASTMD0M
  0
LINE
  5
1B86
  8
AM_0
 10
21.875
 20
-47.622595264191737
 30
0.0
 11
23.247595264191659
 21
-49.999999999999972
 31
0.0
1001
GRPNAME
1000
PASTMD0M
  0
ARC
  5
1B87
  8
AM_0
 10
28.49999999999989
 20
-49.499999999999972
 30
0.0
 40
0.5
 50
269.99999989459411
 51
359.99999989458757
1001
GRPNAME
1000
PASTMD0M
  0
ARC
  5
1B88
  8
AM_0
 10
29.199999999999822
 20
-42.700000000000017
 30
0.0
 40
0.1999999999999886
 50
90.0
 51
180.0
  0
ARC
  5
1B89
  8
AM_3
 10
9.9500000000000455
 20
-24.399999999999949
 30
0.0
 40
2.5
 50
269.99999989201461
 51
359.99999989201461
1001
GRPNAME
1000
PASTMD0M
  0
ARC
  5
1B8A
  8
AM_0
  6
CONTINUOUS
 10
45.499999999999773
 20
-49.499999999999737
 30
0.0
 40
0.5
 50
180.0
 51
270.0
  0
LINE
  5
1B8B
  8
AM_0
 10
44.999999999999773
 20
-42.499999999999737
 30
0.0
 11
44.999999999999773
 21
-49.499999999999737
 31
0.0
  0
LINE
  5
1B8C
  8
AM_0
  6
CONTINUOUS
 10
45.499999999999773
 20
-49.999999999999751
 30
0.0
 11
50.699999999999818
 21
-49.999999999999972
 31
0.0
  0
ARC
  5
1B8D
  8
AM_0
  6
CONTINUOUS
 10
50.699999999999818
 20
-48.69999999999979
 30
0.0
 40
1.3
 50
270.0
 51
0.0
  0
ARC
  5
1B8E
  8
AM_3
 10
9.9500000000000455
 20
24.400000000000119
 30
0.0
 40
2.500000000000056
 50
0.0
 51
90.0
1001
GRPNAME
1000
PASTMD0M
  0
ARC
  5
1B8F
  8
AM_3
 10
-9.4966925428956301
 20
19.500000000000028
 30
0.0
 40
11.999999998054779
 50
38.073123330205597
 51
90.0
1001
GRPNAME
1000
PASTMD0M
  0
LINE
  5
1B90
  8
AM_1
 10
28.99999999999989
 20
0.0000000000000284
 30
0.0
 11
28.99999999999989
 21
42.700000000000067
 31
0.0
1001
GRPNAME
1000
PASTMD0M
  0
LINE
  5
1B91
  8
AM_11
 10
14.450000000000269
 20
8.0000000000001421
 30
0.0
 11
-11.918347502412409
 21
8.0000000000001421
 31
0.0
1001
GRPNAME
1000
PASTMD0S
  0
LINE
  5
1B92
  8
AM_11
 10
14.450000000000269
 20
-7.9999999999997442
 30
0.0
 11
-11.918347502412409
 21
-7.999999999999857
 31
0.0
1001
GRPNAME
1000
PASTMD0S
  0
LINE
  5
1B93
  8
AM_3
 10
9.9500000000000455
 20
26.900000000000119
 30
0.0
 11
-0.0499999999999545
 21
26.900000000000119
 31
0.0
1001
GRPNAME
1000
PASTMD0M
  0
LINE
  5
1B94
  8
AM_11
 10
-15.049999999999841
 20
6.4288254347278828
 30
0.0
 11
-15.05000000000007
 21
-6.4288254347275986
 31
0.0
1001
GRPNAME
1000
PASTMD0S
  0
LINE
  5
1B95
  8
AM_11
 10
-12.049999999999841
 20
7.991295929518202
 30
0.0
 11
-12.049999999999841
 21
-7.9912959295178041
 31
0.0
1001
GRPNAME
1000
PASTMD0S
  0
ARC
  5
1B96
  8
AM_11
 10
-14.049999999999949
 20
-6.4288254347275986
 30
0.0
 40
1.0
 50
179.99999995498979
 51
254.9999999549924
1001
GRPNAME
1000
PASTMD0S
  0
ARC
  5
1B97
  8
AM_11
 10
-11.91834750241253
 20
-6.999999999999857
 30
0.0
 40
0.999999999999961
 50
254.9999998945699
 51
269.99999989456802
1001
GRPNAME
1000
PASTMD0S
  0
LINE
  5
1B98
  8
AM_11
 10
-14.30881904510249
 20
-7.394751261016693
 30
0.0
 11
-12.177166547515069
 21
-7.9659258262889523
 31
0.0
1001
GRPNAME
1000
PASTMD0S
  0
ARC
  5
1B99
  8
AM_11
 10
-14.049999999999841
 20
6.4288254347278828
 30
0.0
 40
0.9999999999999985
 50
105.00000005141381
 51
180.00000005140669
1001
GRPNAME
1000
PASTMD0S
  0
LINE
  5
1B9A
  8
AM_11
 10
-12.177166547514959
 20
7.9659258262892356
 30
0.0
 11
-14.30881904510238
 21
7.3947512610169781
 31
0.0
1001
GRPNAME
1000
PASTMD0S
  0
ARC
  5
1B9B
  8
AM_11
 10
-11.91834750241253
 20
7.0000000000001421
 30
0.0
 40
1.0
 50
90.000000003843084
 51
105.000000003845
1001
GRPNAME
1000
PASTMD0S
  0
LINE
  5
1B9C
  8
AM_11
 10
20.450000000000269
 20
11.50000000000003
 30
0.0
 11
20.450000000000049
 21
-11.49999999999997
 31
0.0
1001
GRPNAME
1000
PASTMD0S
  0
LINE
  5
1B9D
  8
AM_11
  6
CONTINUOUS
 10
20.450000000000269
 20
-5.2999999999999261
 30
0.0
 11
20.450000000000269
 21
-11.899999999999951
 31
0.0
  0
LINE
  5
1B9E
  8
AM_11
 10
13.45000000000004
 20
-11.999999999999851
 30
0.0
 11
12.95000000000004
 21
-11.49999999999986
 31
0.0
1001
GRPNAME
1000
PASTMD0S
  0
LINE
  5
1B9F
  8
AM_11
  6
CONTINUOUS
 10
12.95000000000004
 20
-11.99999999999997
 30
0.0
 11
18.450000000000269
 21
-11.99999999999997
 31
0.0
  0
LINE
  5
1BA0
  8
AM_11
  6
CONTINUOUS
 10
12.95000000000004
 20
-11.99999999999997
 30
0.0
 11
12.45000000000004
 21
-12.49999999999997
 31
0.0
1001
GENIUS_GENFIL_13
1070
     1
1040
0.5
1040
0.5000000000001137
1040
0.5
1040
45.000000000006509
1000
~T
1001
GRPNAME
1000
PASTMD0M
1001
GENIUS_GENOREF_13
1005
1CD2
  0
LINE
  5
1BA1
  8
AM_11
 10
12.95000000000004
 20
-8.4999999999998561
 30
0.0
 11
12.95000000000004
 21
-11.49999999999986
 31
0.0
1001
GRPNAME
1000
PASTMD0S
  0
ARC
  5
1BA2
  8
AM_11
 10
12.45000000000004
 20
-8.4999999999998561
 30
0.0
 40
0.5
 50
359.99999998713531
 51
89.999999987128774
1001
GRPNAME
1000
PASTMD0S
  0
LINE
  5
1BA3
  8
AM_11
 10
19.950000000000038
 20
-11.99999999999997
 30
0.0
 11
20.450000000000049
 21
-11.49999999999997
 31
0.0
1001
GRPNAME
1000
PASTMD0S
  0
LINE
  5
1BA4
  8
AM_11
 10
14.950000000000269
 20
-11.999999999999851
 30
0.0
 11
14.950000000000269
 21
-8.4999999999997442
 31
0.0
1001
GRPNAME
1000
PASTMD0S
  0
LINE
  5
1BA5
  8
AM_11
 10
19.950000000000038
 20
-11.99999999999997
 30
0.0
 11
13.45000000000004
 21
-11.999999999999851
 31
0.0
1001
GRPNAME
1000
PASTMD0S
  0
LINE
  5
1BA6
  8
AM_11
  6
CONTINUOUS
 10
18.750000000000231
 20
-12.299999999999921
 30
0.0
 11
20.050000000000178
 21
-12.299999999999921
 31
0.0
  0
ARC
  5
1BA7
  8
AM_11
  6
CONTINUOUS
 10
20.050000000000178
 20
-11.899999999999951
 30
0.0
 40
0.4
 50
270.0
 51
0.0
  0
LINE
  5
1BA8
  8
AM_11
  6
CONTINUOUS
 10
18.450000000000269
 20
-11.99999999999997
 30
0.0
 11
18.750000000000231
 21
-12.299999999999921
 31
0.0
  0
ARC
  5
1BA9
  8
AM_11
 10
14.450000000000269
 20
-8.4999999999997442
 30
0.0
 40
0.5
 50
0.0
 51
90.0
1001
GRPNAME
1000
PASTMD0S
  0
LINE
  5
1BAA
  8
AM_11
 10
19.450000000000269
 20
-9.3348976778495114
 30
0.0
 11
19.450000000000269
 21
-10.149999999999951
 31
0.0
1001
GRPNAME
1000
PASTMD0N
  0
POLYLINE
  5
1BAB
  8
AM_11
 66
     1
 10
0.0
 20
0.0
 30
0.0
1001
GRPNAME
1000
PASTMD0T
  0
VERTEX
  5
1BAC
  8
AM_11
 10
20.449999999990499
 20
-9.1000000000015842
 30
0.0
  0
VERTEX
  5
1BAD
  8
AM_11
 10
20.447928421256389
 20
-9.1954816054218043
 30
0.0
  0
VERTEX
  5
1BAE
  8
AM_11
 10
20.44173085080752
 20
-9.2901720201888054
 30
0.0
  0
VERTEX
  5
1BAF
  8
AM_11
 10
20.431458643664879
 20
-9.3832866097044132
 30
0.0
  0
VERTEX
  5
1BB0
  8
AM_11
 10
20.417196918571559
 20
-9.4740537971545962
 30
0.0
  0
VERTEX
  5
1BB1
  8
AM_11
 10
20.399063852673411
 20
-9.56172145703826
 30
0.0
  0
VERTEX
  5
1BB2
  8
AM_11
 10
20.377209702265191
 20
-9.6455631475156167
 30
0.0
  0
VERTEX
  5
1BB3
  8
AM_11
 10
20.351815557719881
 20
-9.724884129934793
 30
0.0
  0
VERTEX
  5
1BB4
  8
AM_11
 10
20.32309184291671
 20
-9.7990271256543053
 30
0.0
  0
VERTEX
  5
1BB5
  8
AM_11
 10
20.29127657160279
 20
-9.8673777624611319
 30
0.0
  0
VERTEX
  5
1BB6
  8
AM_11
 10
20.256633375136062
 20
-9.9293696654525263
 30
0.0
  0
VERTEX
  5
1BB7
  8
AM_11
 10
20.219449317952471
 20
-9.9844891501969357
 30
0.0
  0
VERTEX
  5
1BB8
  8
AM_11
 10
20.180032518861029
 20
-10.03227947928448
 30
0.0
  0
VERTEX
  5
1BB9
  8
AM_11
 10
20.138709597872548
 20
-10.07234464699749
 30
0.0
  0
VERTEX
  5
1BBA
  8
AM_11
 10
20.095822969724392
 20
-10.10435266073827
 30
0.0
  0
VERTEX
  5
1BBB
  8
AM_11
 10
20.051728006524169
 20
-10.128038292024449
 30
0.0
  0
VERTEX
  5
1BBC
  8
AM_11
 10
20.006790093023941
 20
-10.143205274255561
 30
0.0
  0
VERTEX
  5
1BBD
  8
AM_11
 10
19.96138159892757
 20
-10.149727929040489
 30
0.0
  0
VERTEX
  5
1BBE
  8
AM_11
 10
19.915878793317908
 20
-10.147552207607159
 30
0.0
  0
VERTEX
  5
1BBF
  8
AM_11
 10
19.870658726772941
 20
-10.136696138668841
 30
0.0
  0
VERTEX
  5
1BC0
  8
AM_11
 10
19.826096107005469
 20
-10.11724967903157
 30
0.0
  0
VERTEX
  5
1BC1
  8
AM_11
 10
19.78256019391733
 20
-10.08937396818439
 30
0.0
  0
VERTEX
  5
1BC2
  8
AM_11
 10
19.74041173979526
 20
-10.05329999304635
 30
0.0
  0
VERTEX
  5
1BC3
  8
AM_11
 10
19.700000000004142
 20
-10.00932667393667
 30
0.0
  0
VERTEX
  5
1BC4
  8
AM_11
 10
19.661659838947571
 20
-9.9578183876261335
 30
0.0
  0
VERTEX
  5
1BC5
  8
AM_11
 10
19.625708955274149
 20
-9.8992019479970565
 30
0.0
  0
VERTEX
  5
1BC6
  8
AM_11
 10
19.592445249328652
 20
-9.8339630693287461
 30
0.0
  0
VERTEX
  5
1BC7
  8
AM_11
 10
19.562144354654489
 20
-9.7626423415158285
 30
0.0
  0
VERTEX
  5
1BC8
  8
AM_11
 10
19.53505735400767
 20
-9.6858307505706023
 30
0.0
  0
VERTEX
  5
1BC9
  8
AM_11
 10
19.511408698806459
 20
-9.6041647815264621
 30
0.0
  0
VERTEX
  5
1BCA
  8
AM_11
 10
19.491394349255192
 20
-9.5183211443223552
 30
0.0
  0
VERTEX
  5
1BCB
  8
AM_11
 10
19.475180150558121
 20
-9.4290111663717369
 30
0.0
  0
VERTEX
  5
1BCC
  8
AM_11
 10
19.462900458671811
 20
-9.3369748982788394
 30
0.0
  0
VERTEX
  5
1BCD
  8
AM_11
 10
19.45465702699062
 20
-9.2429749815465527
 30
0.0
  0
VERTEX
  5
1BCE
  8
AM_11
 10
19.45051816318551
 20
-9.1477903290891334
 30
0.0
  0
VERTEX
  5
1BCF
  8
AM_11
 10
19.45051816318551
 20
-9.0522096709140385
 30
0.0
  0
VERTEX
  5
1BD0
  8
AM_11
 10
19.45465702699062
 20
-8.9570250184566191
 30
0.0
  0
VERTEX
  5
1BD1
  8
AM_11
 10
19.462900458671811
 20
-8.8630251017243324
 30
0.0
  0
VERTEX
  5
1BD2
  8
AM_11
 10
19.475180150558121
 20
-8.7709888336314332
 30
0.0
  0
VERTEX
  5
1BD3
  8
AM_11
 10
19.491394349255192
 20
-8.6816788556808149
 30
0.0
  0
VERTEX
  5
1BD4
  8
AM_11
 10
19.511408698806459
 20
-8.5958352184767062
 30
0.0
  0
VERTEX
  5
1BD5
  8
AM_11
 10
19.53505735400767
 20
-8.5141692494325696
 30
0.0
  0
VERTEX
  5
1BD6
  8
AM_11
 10
19.562144354654489
 20
-8.4373576584873433
 30
0.0
  0
VERTEX
  5
1BD7
  8
AM_11
 10
19.592445249328652
 20
-8.3660369306744258
 30
0.0
  0
VERTEX
  5
1BD8
  8
AM_11
 10
19.625708955274149
 20
-8.3007980520061153
 30
0.0
  0
VERTEX
  5
1BD9
  8
AM_11
 10
19.661659838947571
 20
-8.2421816123770384
 30
0.0
  0
VERTEX
  5
1BDA
  8
AM_11
 10
19.700000000004142
 20
-8.1906733260665021
 30
0.0
  0
VERTEX
  5
1BDB
  8
AM_11
 10
19.74041173979526
 20
-8.1467000069568201
 30
0.0
  0
VERTEX
  5
1BDC
  8
AM_11
 10
19.78256019391733
 20
-8.1106260318187822
 30
0.0
  0
VERTEX
  5
1BDD
  8
AM_11
 10
19.826096107005469
 20
-8.0827503209715985
 30
0.0
  0
VERTEX
  5
1BDE
  8
AM_11
 10
19.870658726772941
 20
-8.0633038613343331
 30
0.0
  0
VERTEX
  5
1BDF
  8
AM_11
 10
19.915878793317908
 20
-8.0524477923960092
 30
0.0
  0
VERTEX
  5
1BE0
  8
AM_11
 10
19.96138159892757
 20
-8.0502720709626772
 30
0.0
  0
VERTEX
  5
1BE1
  8
AM_11
 10
20.006790093023941
 20
-8.0567947257476078
 30
0.0
  0
VERTEX
  5
1BE2
  8
AM_11
 10
20.051728006524169
 20
-8.0719617079787156
 30
0.0
  0
VERTEX
  5
1BE3
  8
AM_11
 10
20.095822969724392
 20
-8.0956473392649002
 30
0.0
  0
VERTEX
  5
1BE4
  8
AM_11
 10
20.138709597872548
 20
-8.1276553530056788
 30
0.0
  0
VERTEX
  5
1BE5
  8
AM_11
 10
20.180032518861029
 20
-8.1677205207186887
 30
0.0
  0
VERTEX
  5
1BE6
  8
AM_11
 10
20.219449317952471
 20
-8.2155108498062361
 30
0.0
  0
VERTEX
  5
1BE7
  8
AM_11
 10
20.256633375136062
 20
-8.2706303345506456
 30
0.0
  0
VERTEX
  5
1BE8
  8
AM_11
 10
20.29127657160279
 20
-8.33262223754204
 30
0.0
  0
VERTEX
  5
1BE9
  8
AM_11
 10
20.32309184291671
 20
-8.4009728743488665
 30
0.0
  0
VERTEX
  5
1BEA
  8
AM_11
 10
20.351815557719881
 20
-8.4751158700683789
 30
0.0
  0
VERTEX
  5
1BEB
  8
AM_11
 10
20.377209702265191
 20
-8.5544368524875551
 30
0.0
  0
VERTEX
  5
1BEC
  8
AM_11
 10
20.399063852673411
 20
-8.6382785429649118
 30
0.0
  0
VERTEX
  5
1BED
  8
AM_11
 10
20.417196918571559
 20
-8.7259462028485757
 30
0.0
  0
VERTEX
  5
1BEE
  8
AM_11
 10
20.431458643664879
 20
-8.8167133902987587
 30
0.0
  0
VERTEX
  5
1BEF
  8
AM_11
 10
20.44173085080752
 20
-8.9098279798143665
 30
0.0
  0
VERTEX
  5
1BF0
  8
AM_11
 10
20.447928421256389
 20
-9.0045183945813676
 30
0.0
  0
VERTEX
  5
1BF1
  8
AM_11
 10
20.449999999990499
 20
-9.1000000000015842
 30
0.0
  0
SEQEND
  5
1BF2
  8
AM_11
  0
LINE
  5
1BF3
  8
AM_11
 10
20.450000000000269
 20
-10.149999999999951
 30
0.0
 11
19.450000000000269
 21
-10.149999999999951
 31
0.0
1001
GRPNAME
1000
PASTMD0N
  0
LINE
  5
1BF4
  8
AM_11
 10
19.450000000000269
 20
-8.0499999999998124
 30
0.0
 11
19.450000000000269
 21
-8.8183492748017613
 31
0.0
1001
GRPNAME
1000
PASTMD0N
  0
LINE
  5
1BF5
  8
AM_11
 10
20.450000000000269
 20
-8.0499999999998124
 30
0.0
 11
19.450000000000269
 21
-8.0499999999998124
 31
0.0
1001
GRPNAME
1000
PASTMD0N
  0
LINE
  5
1BF6
  8
AM_11
 10
12.950000000000269
 20
11.50000000000014
 30
0.0
 11
13.450000000000269
 21
12.00000000000014
 31
0.0
1001
GRPNAME
1000
PASTMD0S
  0
LINE
  5
1BF7
  8
AM_11
  6
CONTINUOUS
 10
12.95000000000004
 20
12.00000000000003
 30
0.0
 11
18.450000000000269
 21
12.00000000000003
 31
0.0
  0
LINE
  5
1BF8
  8
AM_11
 10
12.950000000000269
 20
11.50000000000014
 30
0.0
 11
12.950000000000269
 21
8.5000000000001421
 31
0.0
1001
GRPNAME
1000
PASTMD0S
  0
ARC
  5
1BF9
  8
AM_11
 10
12.450000000000269
 20
8.5000000000001421
 30
0.0
 40
0.5
 50
270.0
 51
0.0
1001
GRPNAME
1000
PASTMD0S
  0
LINE
  5
1BFA
  8
AM_11
  6
CONTINUOUS
 10
12.95000000000004
 20
12.00000000000003
 30
0.0
 11
12.45000000000004
 21
12.50000000000003
 31
0.0
1001
GENIUS_GENFIL_13
1070
     1
1040
0.5
1040
0.5000000000001137
1040
0.5
1040
45.0
1000
~T
1001
GRPNAME
1000
PASTMD0M
1001
GENIUS_GENOREF_13
1005
1CD1
  0
LINE
  5
1BFB
  8
AM_11
 10
14.950000000000269
 20
12.00000000000025
 30
0.0
 11
14.950000000000269
 21
8.5000000000001421
 31
0.0
1001
GRPNAME
1000
PASTMD0S
  0
LINE
  5
1BFC
  8
AM_11
  6
CONTINUOUS
 10
20.450000000000269
 20
11.9
 30
0.0
 11
20.450000000000269
 21
5.3000000000000957
 31
0.0
  0
ARC
  5
1BFD
  8
AM_11
 10
14.450000000000269
 20
8.5000000000001421
 30
0.0
 40
0.5
 50
270.0
 51
0.0
1001
GRPNAME
1000
PASTMD0S
  0
LINE
  5
1BFE
  8
AM_11
 10
20.450000000000269
 20
10.150000000000119
 30
0.0
 11
19.450000000000269
 21
10.150000000000119
 31
0.0
1001
GRPNAME
1000
PASTMD0N
  0
LINE
  5
1BFF
  8
AM_11
 10
19.450000000000269
 20
8.8531870141922866
 30
0.0
 11
19.450000000000269
 21
8.0500000000000966
 31
0.0
1001
GRPNAME
1000
PASTMD0N
  0
LINE
  5
1C00
  8
AM_11
 10
20.450000000000269
 20
8.0500000000000966
 30
0.0
 11
19.450000000000269
 21
8.0500000000000966
 31
0.0
1001
GRPNAME
1000
PASTMD0N
  0
POLYLINE
  5
1C01
  8
AM_11
 66
     1
 10
0.0
 20
0.0
 30
0.0
1001
GRPNAME
1000
PASTMD0T
  0
VERTEX
  5
1C02
  8
AM_11
 10
20.449999999990499
 20
9.1000000000017565
 30
0.0
  0
VERTEX
  5
1C03
  8
AM_11
 10
20.447928421256389
 20
9.1954816054219748
 30
0.0
  0
VERTEX
  5
1C04
  8
AM_11
 10
20.44173085080752
 20
9.2901720201890896
 30
0.0
  0
VERTEX
  5
1C05
  8
AM_11
 10
20.431458643664879
 20
9.3832866097045837
 30
0.0
  0
VERTEX
  5
1C06
  8
AM_11
 10
20.417196918571559
 20
9.4740537971547667
 30
0.0
  0
VERTEX
  5
1C07
  8
AM_11
 10
20.399063852673411
 20
9.5617214570383169
 30
0.0
  0
VERTEX
  5
1C08
  8
AM_11
 10
20.377209702265191
 20
9.6455631475157873
 30
0.0
  0
VERTEX
  5
1C09
  8
AM_11
 10
20.351815557719881
 20
9.7248841299349635
 30
0.0
  0
VERTEX
  5
1C0A
  8
AM_11
 10
20.32309184291671
 20
9.7990271256543622
 30
0.0
  0
VERTEX
  5
1C0B
  8
AM_11
 10
20.29127657160279
 20
9.8673777624611887
 30
0.0
  0
VERTEX
  5
1C0C
  8
AM_11
 10
20.256633375136062
 20
9.9293696654526968
 30
0.0
  0
VERTEX
  5
1C0D
  8
AM_11
 10
20.219449317952471
 20
9.9844891501971063
 30
0.0
  0
VERTEX
  5
1C0E
  8
AM_11
 10
20.180032518861029
 20
10.03227947928476
 30
0.0
  0
VERTEX
  5
1C0F
  8
AM_11
 10
20.138709597872548
 20
10.07234464699777
 30
0.0
  0
VERTEX
  5
1C10
  8
AM_11
 10
20.095822969724392
 20
10.10435266073844
 30
0.0
  0
VERTEX
  5
1C11
  8
AM_11
 10
20.051728006524169
 20
10.12803829202463
 30
0.0
  0
VERTEX
  5
1C12
  8
AM_11
 10
20.006790093023941
 20
10.14320527425585
 30
0.0
  0
VERTEX
  5
1C13
  8
AM_11
 10
19.96138159892757
 20
10.14972792904066
 30
0.0
  0
VERTEX
  5
1C14
  8
AM_11
 10
19.915878793317908
 20
10.14755220760744
 30
0.0
  0
VERTEX
  5
1C15
  8
AM_11
 10
19.870658726772941
 20
10.136696138669009
 30
0.0
  0
VERTEX
  5
1C16
  8
AM_11
 10
19.826096107005469
 20
10.11724967903174
 30
0.0
  0
VERTEX
  5
1C17
  8
AM_11
 10
19.78256019391733
 20
10.08937396818456
 30
0.0
  0
VERTEX
  5
1C18
  8
AM_11
 10
19.74041173979526
 20
10.053299993046631
 30
0.0
  0
VERTEX
  5
1C19
  8
AM_11
 10
19.700000000004142
 20
10.00932667393684
 30
0.0
  0
VERTEX
  5
1C1A
  8
AM_11
 10
19.661659838947571
 20
9.957818387626304
 30
0.0
  0
VERTEX
  5
1C1B
  8
AM_11
 10
19.625708955274149
 20
9.8992019479973408
 30
0.0
  0
VERTEX
  5
1C1C
  8
AM_11
 10
19.592445249328652
 20
9.8339630693289166
 30
0.0
  0
VERTEX
  5
1C1D
  8
AM_11
 10
19.562144354654489
 20
9.7626423415159991
 30
0.0
  0
VERTEX
  5
1C1E
  8
AM_11
 10
19.53505735400767
 20
9.6858307505707728
 30
0.0
  0
VERTEX
  5
1C1F
  8
AM_11
 10
19.511408698806459
 20
9.6041647815265208
 30
0.0
  0
VERTEX
  5
1C20
  8
AM_11
 10
19.491394349255192
 20
9.5183211443226412
 30
0.0
  0
VERTEX
  5
1C21
  8
AM_11
 10
19.475180150558121
 20
9.4290111663719074
 30
0.0
  0
VERTEX
  5
1C22
  8
AM_11
 10
19.462900458671811
 20
9.3369748982790082
 30
0.0
  0
VERTEX
  5
1C23
  8
AM_11
 10
19.45465702699062
 20
9.2429749815467233
 30
0.0
  0
VERTEX
  5
1C24
  8
AM_11
 10
19.45051816318551
 20
9.1477903290893021
 30
0.0
  0
VERTEX
  5
1C25
  8
AM_11
 10
19.45051816318551
 20
9.052209670914209
 30
0.0
  0
VERTEX
  5
1C26
  8
AM_11
 10
19.45465702699062
 20
8.9570250184567897
 30
0.0
  0
VERTEX
  5
1C27
  8
AM_11
 10
19.462900458671811
 20
8.8630251017245012
 30
0.0
  0
VERTEX
  5
1C28
  8
AM_11
 10
19.475180150558121
 20
8.7709888336316055
 30
0.0
  0
VERTEX
  5
1C29
  8
AM_11
 10
19.491394349255192
 20
8.6816788556808717
 30
0.0
  0
VERTEX
  5
1C2A
  8
AM_11
 10
19.511408698806459
 20
8.5958352184769922
 30
0.0
  0
VERTEX
  5
1C2B
  8
AM_11
 10
19.53505735400767
 20
8.5141692494327401
 30
0.0
  0
VERTEX
  5
1C2C
  8
AM_11
 10
19.562144354654489
 20
8.4373576584875138
 30
0.0
  0
VERTEX
  5
1C2D
  8
AM_11
 10
19.592445249328652
 20
8.3660369306745963
 30
0.0
  0
VERTEX
  5
1C2E
  8
AM_11
 10
19.625708955274149
 20
8.3007980520061722
 30
0.0
  0
VERTEX
  5
1C2F
  8
AM_11
 10
19.661659838947571
 20
8.2421816123772071
 30
0.0
  0
VERTEX
  5
1C30
  8
AM_11
 10
19.700000000004142
 20
8.1906733260666726
 30
0.0
  0
VERTEX
  5
1C31
  8
AM_11
 10
19.74041173979526
 20
8.1467000069568751
 30
0.0
  0
VERTEX
  5
1C32
  8
AM_11
 10
19.78256019391733
 20
8.1106260318189527
 30
0.0
  0
VERTEX
  5
1C33
  8
AM_11
 10
19.826096107005469
 20
8.082750320971769
 30
0.0
  0
VERTEX
  5
1C34
  8
AM_11
 10
19.870658726772941
 20
8.0633038613345036
 30
0.0
  0
VERTEX
  5
1C35
  8
AM_11
 10
19.915878793317908
 20
8.052447792396066
 30
0.0
  0
VERTEX
  5
1C36
  8
AM_11
 10
19.96138159892757
 20
8.0502720709628477
 30
0.0
  0
VERTEX
  5
1C37
  8
AM_11
 10
20.006790093023941
 20
8.0567947257476646
 30
0.0
  0
VERTEX
  5
1C38
  8
AM_11
 10
20.051728006524169
 20
8.0719617079788861
 30
0.0
  0
VERTEX
  5
1C39
  8
AM_11
 10
20.095822969724392
 20
8.0956473392650707
 30
0.0
  0
VERTEX
  5
1C3A
  8
AM_11
 10
20.138709597872548
 20
8.1276553530057356
 30
0.0
  0
VERTEX
  5
1C3B
  8
AM_11
 10
20.180032518861029
 20
8.1677205207187455
 30
0.0
  0
VERTEX
  5
1C3C
  8
AM_11
 10
20.219449317952471
 20
8.2155108498064067
 30
0.0
  0
VERTEX
  5
1C3D
  8
AM_11
 10
20.256633375136062
 20
8.2706303345508161
 30
0.0
  0
VERTEX
  5
1C3E
  8
AM_11
 10
20.29127657160279
 20
8.3326222375423242
 30
0.0
  0
VERTEX
  5
1C3F
  8
AM_11
 10
20.32309184291671
 20
8.4009728743491507
 30
0.0
  0
VERTEX
  5
1C40
  8
AM_11
 10
20.351815557719881
 20
8.4751158700685494
 30
0.0
  0
VERTEX
  5
1C41
  8
AM_11
 10
20.377209702265191
 20
8.5544368524877257
 30
0.0
  0
VERTEX
  5
1C42
  8
AM_11
 10
20.399063852673411
 20
8.638278542965196
 30
0.0
  0
VERTEX
  5
1C43
  8
AM_11
 10
20.417196918571559
 20
8.7259462028487462
 30
0.0
  0
VERTEX
  5
1C44
  8
AM_11
 10
20.431458643664879
 20
8.8167133902989292
 30
0.0
  0
VERTEX
  5
1C45
  8
AM_11
 10
20.44173085080752
 20
8.9098279798144233
 30
0.0
  0
VERTEX
  5
1C46
  8
AM_11
 10
20.447928421256389
 20
9.0045183945815381
 30
0.0
  0
VERTEX
  5
1C47
  8
AM_11
 10
20.449999999990499
 20
9.1000000000017565
 30
0.0
  0
SEQEND
  5
1C48
  8
AM_11
  0
LINE
  5
1C49
  8
AM_11
 10
19.450000000000269
 20
10.150000000000119
 30
0.0
 11
19.450000000000269
 21
9.3947026227487243
 31
0.0
1001
GRPNAME
1000
PASTMD0N
  0
LINE
  5
1C4A
  8
AM_11
 10
19.950000000000269
 20
12.00000000000003
 30
0.0
 11
13.450000000000269
 21
12.00000000000014
 31
0.0
1001
GRPNAME
1000
PASTMD0S
  0
ARC
  5
1C4B
  8
AM_11
  6
CONTINUOUS
 10
20.050000000000178
 20
11.9
 30
0.0
 40
0.4
 50
0.0
 51
90.0
  0
LINE
  5
1C4C
  8
AM_11
  6
CONTINUOUS
 10
18.750000000000231
 20
12.30000000000009
 30
0.0
 11
20.050000000000178
 21
12.299999999999979
 31
0.0
  0
LINE
  5
1C4D
  8
AM_11
  6
CONTINUOUS
 10
18.450000000000269
 20
12.00000000000003
 30
0.0
 11
18.750000000000231
 21
12.30000000000009
 31
0.0
  0
LINE
  5
1C4E
  8
AM_11
 10
20.450000000000269
 20
11.50000000000003
 30
0.0
 11
19.950000000000269
 21
12.00000000000003
 31
0.0
1001
GRPNAME
1000
PASTMD0S
  0
LINE
  5
1C4F
  8
AM_0
 10
16.752404735808341
 20
50.000000000000028
 30
0.0
 11
0.5
 21
50.000000000000028
 31
0.0
1001
GRPNAME
1000
PASTMD0M
  0
ARC
  5
1C50
  8
AM_1
 10
14.636897857919729
 20
28.829756626071489
 30
0.0
 40
10.0
 50
90.0
 51
164.51272597363359
  0
LINE
  5
1C51
  8
AM_1
 10
4.9999999999996581
 20
31.500000000000149
 30
0.0
 11
28.99999999999989
 21
31.500000000000149
 31
0.0
  0
LINE
  5
1C52
  8
AM_3
 10
28.99999999999989
 20
44.000000000000028
 30
0.0
 11
4.999999999999317
 21
44.000000000000028
 31
0.0
1001
GRPNAME
1000
PASTMD0M
  0
LINE
  5
1C53
  8
AM_0
 10
0.0
 20
37.600000000000051
 30
0.0
 11
0.0
 21
49.500000000000021
 31
0.0
1001
GRPNAME
1000
PASTMD0M
  0
LINE
  5
1C54
  8
AM_3
 10
4.999999999999317
 20
44.000000000000028
 30
0.0
 11
4.999999999999317
 21
50.000000000000028
 31
0.0
1001
GRPNAME
1000
PASTMD0M
  0
LINE
  5
1C55
  8
AM_3
 10
-21.0
 20
36.290009074417668
 30
0.0
 11
-9.0
 21
36.744310136094469
 31
0.0
  0
LINE
  5
1C56
  8
AM_3
 10
-9.4966925428956301
 20
31.49999999805485
 30
0.0
 11
-26.539274057836231
 21
31.500000000000028
 31
0.0
1001
GRPNAME
1000
PASTMD0M
  0
LINE
  5
1C57
  8
AM_3
 10
-21.0
 20
31.49999999805485
 30
0.0
 11
-21.0
 21
36.290009074417668
 31
0.0
  0
ARC
  5
1C58
  8
AM_3
 10
-15.20000000000004
 20
41.799999999999983
 30
0.0
 40
7.9999999999999973
 50
217.5630540300632
 51
223.5311521673701
  0
LINE
  5
1C5A
  8
AM_3
 10
-9.0
 20
31.489716279843641
 30
0.0
 11
-9.0
 21
36.744310136094469
 31
0.0
  0
ARC
  5
1C5B
  8
AM_3
 10
-15.20000000000004
 20
41.799999999999983
 30
0.0
 40
7.9999999999998348
 50
320.80503257401477
 51
328.16175642216149
  0
LINE
  5
1C5C
  8
AM_0
 10
-0.1000000000000227
 20
37.600000000000051
 30
0.0
 11
-1.4803847577292111
 21
37.600000000000051
 31
0.0
1001
GRPNAME
1000
PASTMD0M
  0
LINE
  5
1C5D
  8
AM_0
 10
-1.4803847577292111
 20
37.600000000000051
 30
0.0
 11
-1.9999999999998861
 21
37.900000000000119
 31
0.0
1001
GRPNAME
1000
PASTMD0M
  0
ARC
  5
1C5F
  8
AM_0
 10
-0.1000000000000227
 20
38.000000000000028
 30
0.0
 40
0.3999999999996362
 50
270.00000001612813
 51
284.47751219435253
1001
GRPNAME
1000
PASTMD0M
  0
ARC
  5
1C62
  8
AM_0
 10
0.5
 20
49.500000000000021
 30
0.0
 40
0.5
 50
89.999999904879346
 51
179.99999990487279
1001
GRPNAME
1000
PASTMD0M
  0
LINE
  5
1C63
  8
AM_0
 10
21.875
 20
47.622595264191801
 30
0.0
 11
23.247595264191659
 21
50.000000000000028
 31
0.0
1001
GRPNAME
1000
PASTMD0M
  0
LINE
  5
1C64
  8
AM_0
 10
28.99999999999989
 20
42.700000000000067
 30
0.0
 11
29.0
 21
49.500000000000021
 31
0.0
1001
GRPNAME
1000
PASTMD0M
  0
LINE
  5
1C65
  8
AM_1
 10
23.247595264191549
 20
38.829756626071493
 30
0.0
 11
23.247595264191549
 21
50.000000000000028
 31
0.0
1001
GRPNAME
1000
PASTMD0M
  0
LINE
  5
1C66
  8
AM_1
 10
16.752404735808341
 20
38.829756626071493
 30
0.0
 11
16.752404735808341
 21
50.000000000000028
 31
0.0
1001
GRPNAME
1000
PASTMD0M
  0
LINE
  5
1C67
  8
AM_0
 10
18.125
 20
47.622595264191801
 30
0.0
 11
16.752404735808341
 21
50.000000000000028
 31
0.0
1001
GRPNAME
1000
PASTMD0M
  0
ARC
  5
1C68
  8
AM_0
 10
20.875
 20
47.000000000000021
 30
0.0
 40
1.0
 50
269.99999989202109
 51
359.99999989201461
1001
GRPNAME
1000
PASTMD0M
  0
LINE
  5
1C69
  8
AM_1
 10
18.125
 20
33.500000000000142
 30
0.0
 11
21.875
 21
33.500000000000142
 31
0.0
  0
LINE
  5
1C6A
  8
AM_1
 10
18.125
 20
33.500000000000142
 30
0.0
 11
18.125
 21
47.000000000000021
 31
0.0
1001
GRPNAME
1000
PASTMD0M
  0
LINE
  5
1C6B
  8
AM_1
 10
18.125
 20
36.452351890263373
 30
0.0
 11
16.752404735808451
 21
38.829756626071493
 31
0.0
  0
LINE
  5
1C6C
  8
AM_1
 10
14.636897857919729
 20
38.829756626071493
 30
0.0
 11
16.752404735808341
 21
38.829756626071493
 31
0.0
  0
LINE
  5
1C6D
  8
AM_0
 10
18.125
 20
47.000000000000021
 30
0.0
 11
18.125
 21
47.622595264191801
 31
0.0
1001
GRPNAME
1000
PASTMD0M
  0
ARC
  5
1C6E
  8
AM_0
 10
19.125
 20
47.000000000000021
 30
0.0
 40
1.0
 50
180.00000000256969
 51
270.00000000257302
1001
GRPNAME
1000
PASTMD0M
  0
LINE
  5
1C6F
  8
AM_0
 10
20.875
 20
46.000000000000028
 30
0.0
 11
19.125
 21
46.000000000000028
 31
0.0
1001
GRPNAME
1000
PASTMD0M
  0
LINE
  5
1C70
  8
AM_1
 10
21.875
 20
36.4523518902636
 30
0.0
 11
23.247595264191549
 21
38.829756626071493
 31
0.0
  0
LINE
  5
1C71
  8
AM_1
 10
21.875
 20
33.500000000000142
 30
0.0
 11
21.875
 21
47.000000000000021
 31
0.0
1001
GRPNAME
1000
PASTMD0M
  0
LINE
  5
1C72
  8
AM_0
 10
29.199999999999822
 20
42.500000000000021
 30
0.0
 11
44.999999999999773
 21
42.500000000000021
 31
0.0
  0
LINE
  5
1C73
  8
AM_1
 10
23.247595264191549
 20
38.829756626071493
 30
0.0
 11
28.99999999999989
 21
38.829756626071493
 31
0.0
  0
ARC
  5
1C74
  8
AM_0
 10
29.199999999999822
 20
42.700000000000067
 30
0.0
 40
0.1999999999999886
 50
180.0
 51
270.0
  0
LINE
  5
1C75
  8
AM_0
 10
21.875
 20
47.000000000000021
 30
0.0
 11
21.875
 21
47.622595264191801
 31
0.0
1001
GRPNAME
1000
PASTMD0M
  0
LINE
  5
1C76
  8
AM_0
 10
28.5
 20
50.000000000000028
 30
0.0
 11
23.247595264191549
 21
50.000000000000028
 31
0.0
1001
GRPNAME
1000
PASTMD0M
  0
ARC
  5
1C77
  8
AM_0
 10
28.5
 20
49.500000000000021
 30
0.0
 40
0.5
 50
0.0000000025729415
 51
90.000000002566395
1001
GRPNAME
1000
PASTMD0M
  0
ARC
  5
1C78
  8
AM_0
  6
CONTINUOUS
 10
50.699999999999818
 20
48.699999999999847
 30
0.0
 40
1.3
 50
0.0
 51
90.0
  0
LINE
  5
1C79
  8
AM_0
 10
44.999999999999773
 20
42.499999999999801
 30
0.0
 11
44.999999999999773
 21
49.499999999999801
 31
0.0
  0
ARC
  5
1C7A
  8
AM_0
  6
CONTINUOUS
 10
45.499999999999773
 20
49.499999999999801
 30
0.0
 40
0.5
 50
90.0
 51
180.0
  0
LINE
  5
1C7B
  8
AM_0
  6
CONTINUOUS
 10
45.499999999999773
 20
49.999999999999801
 30
0.0
 11
50.699999999999818
 21
50.000000000000028
 31
0.0
  0
LINE
  5
1C7C
  8
AM_3
 10
264.50271373423351
 20
33.105117766515228
 30
0.0
 11
262.00781630823923
 21
37.426406868010282
 31
0.0
1001
GRPNAME
1000
PASTMD0M
  0
LINE
  5
1C7D
  8
AM_3
 10
264.50271373423351
 20
33.105117766515228
 30
0.0
 11
281.82322180992242
 21
43.105117766515228
 31
0.0
1001
GRPNAME
1000
PASTMD0M
  0
LINE
  5
1C7E
  8
AM_3
 10
281.82322180992242
 20
43.105117766515228
 30
0.0
 11
279.32832438392802
 21
47.426406868010268
 31
0.0
1001
GRPNAME
1000
PASTMD0M
  0
LINE
  5
1C7F
  8
AM_3
 10
329.18414463970112
 20
-36.926406868010332
 30
0.0
 11
326.68924721370672
 21
-32.605117766515292
 31
0.0
1001
GRPNAME
1000
PASTMD0M
  0
LINE
  5
1C80
  8
AM_3
 10
307.63668833044898
 20
-43.605117766515178
 30
0.0
 11
326.68924721370672
 21
-32.605117766515292
 31
0.0
1001
GRPNAME
1000
PASTMD0M
  0
LINE
  5
1C81
  8
AM_3
 10
310.13158575644343
 20
-47.926406868010332
 30
0.0
 11
307.63668833044898
 21
-43.605117766515178
 31
0.0
1001
GRPNAME
1000
PASTMD0M
  0
LINE
  5
1C82
  8
AM_7
 10
322.68731866526588
 20
-47.673574192355339
 30
0.0
 11
268.12495286518759
 21
46.831215554538822
 31
0.0
1001
GRPNAME
1000
PASTMD0M
  0
LINE
  5
1C83
  8
AM_7
 10
267.6386168788901
 20
-47.673574192355339
 30
0.0
 11
322.20098267896827
 21
46.831215554538723
 31
0.0
1001
GRPNAME
1000
PASTMD0M
  0
LINE
  5
1C84
  8
AM_3
 10
263.63668833044909
 20
-32.605117766515178
 30
0.0
 11
282.68924721370672
 21
-43.605117766515178
 31
0.0
1001
GRPNAME
1000
PASTMD0M
  0
LINE
  5
1C85
  8
AM_3
 10
261.14179090445469
 20
-36.926406868010218
 30
0.0
 11
263.63668833044909
 21
-32.605117766515178
 31
0.0
1001
GRPNAME
1000
PASTMD0M
  0
LINE
  5
1C86
  8
AM_3
 10
280.19434978771233
 20
-47.926406868010332
 30
0.0
 11
282.68924721370672
 21
-43.605117766515178
 31
0.0
1001
GRPNAME
1000
PASTMD0M
  0
LINE
  5
1C87
  8
AM_3
 10
325.82322180992242
 20
33.105117766515228
 30
0.0
 11
328.31811923591653
 21
37.426406868010389
 31
0.0
1001
GRPNAME
1000
PASTMD0M
  0
LINE
  5
1C88
  8
AM_3
 10
308.50271373423351
 20
43.105117766515349
 30
0.0
 11
325.82322180992242
 21
33.105117766515228
 31
0.0
1001
GRPNAME
1000
PASTMD0M
  0
LINE
  5
1C89
  8
AM_3
 10
308.50271373423351
 20
43.105117766515349
 30
0.0
 11
310.9976111602279
 21
47.426406868010268
 31
0.0
1001
GRPNAME
1000
PASTMD0M
  0
CIRCLE
  5
1C8A
  8
AM_1
 10
295.16296777207799
 20
-0.0000000000000284
 30
0.0
 40
41.0
  0
CIRCLE
  5
1C8B
  8
AM_1
 10
295.16296777207799
 20
-0.0000000000000284
 30
0.0
 40
48.0
  0
POINT
  5
1CCF
  8
0
 10
334.32423260384769
 20
1286.4130810250811
 30
0.0
1001
GENIUS_GENOLIS_13
1002
{
1000
ENT
1005
1A95
1002
}
1001
GENIUS_GENOENT_13
1002
{
1000
MYREF
1005
1CCF
1002
}
1002
{
1000
GRP
1005
0
1002
}
1001
GENIUS_GENOBJ-N-CHA_13
1002
{
1000
OWNER
1000
GEN
1002
}
1001
GENIUS_GENODEF_13
1002
{
1000
HIER
1070
     1
1002
}
1002
{
1000
MANEDIT
1070
     0
1002
}
1002
{
1000
NOSEL
1070
     0
1002
}
1002
{
1000
BEHIND
1070
     0
1002
}
1002
{
1000
OTHER
1070
     0
1002
}
1002
{
1000
REACTOR
1002
}
  0
POINT
  5
1CD0
  8
0
 10
334.32423260384769
 20
451.20316472421069
 30
0.0
1001
GENIUS_GENOLIS_13
1002
{
1000
ENT
1005
19C6
1002
}
1001
GENIUS_GENOENT_13
1002
{
1000
MYREF
1005
1CD0
1002
}
1002
{
1000
GRP
1005
0
1002
}
1001
GENIUS_GENOBJ-N-CHA_13
1002
{
1000
OWNER
1000
GEN
1002
}
1001
GENIUS_GENODEF_13
1002
{
1000
HIER
1070
     1
1002
}
1002
{
1000
MANEDIT
1070
     0
1002
}
1002
{
1000
NOSEL
1070
     0
1002
}
1002
{
1000
BEHIND
1070
     0
1002
}
1002
{
1000
OTHER
1070
     0
1002
}
1002
{
1000
REACTOR
1002
}
  0
POINT
  5
1CD1
  8
0
  6
CONTINUOUS
 10
69.699027845913406
 20
629.64918065904692
 30
0.0
1001
GENIUS_GENODEF_13
1002
{
1000
HIER
1070
     1
1002
}
1002
{
1000
MANEDIT
1070
     0
1002
}
1002
{
1000
NOSEL
1070
     0
1002
}
1002
{
1000
BEHIND
1070
     0
1002
}
1002
{
1000
OTHER
1070
     0
1002
}
1002
{
1000
REACTOR
1002
}
1001
GENIUS_GENOLIS_13
1002
{
1000
ENT
1005
1BFA
1002
}
1001
GENIUS_GENOENT_13
1002
{
1000
MYREF
1005
1CD1
1002
}
1002
{
1000
GRP
1005
0
1002
}
1001
GENIUS_GENOBJ-N-CHA_13
1002
{
1000
OWNER
1000
GEN
1002
}
  0
POINT
  5
1CD2
  8
0
  6
CONTINUOUS
 10
69.699027845913406
 20
629.64918065904692
 30
0.0
1001
GENIUS_GENOLIS_13
1002
{
1000
ENT
1005
1BA0
1002
}
1001
GENIUS_GENOBJ-N-CHA_13
1002
{
1000
OWNER
1000
GEN
1002
}
1001
GENIUS_GENOENT_13
1002
{
1000
MYREF
1005
1CD2
1002
}
1002
{
1000
GRP
1005
0
1002
}
1001
GENIUS_GENODEF_13
1002
{
1000
HIER
1070
     1
1002
}
1002
{
1000
MANEDIT
1070
     0
1002
}
1002
{
1000
NOSEL
1070
     0
1002
}
1002
{
1000
BEHIND
1070
     0
1002
}
1002
{
1000
OTHER
1070
     0
1002
}
1002
{
1000
REACTOR
1002
}
  0
LINE
  5
2005
  8
250
 10
-73.660022038573402
 20
-49.250227769276918
 30
0.0
 11
-41.338593467144833
 21
-49.250227769276918
 31
0.0
  0
LINE
  5
2006
  8
250
 10
-41.338593467144833
 20
-49.250227769276918
 30
0.0
 11
-31.815579435418812
 21
-38.581582411056452
 31
0.0
  0
LINE
  5
2007
  8
250
 10
-31.815579435418812
 20
-38.581582411056452
 30
0.0
 11
-29.959338386266399
 21
-36.50203308068663
 31
0.0
  0
LINE
  5
2008
  8
250
 10
-31.541801573440949
 20
-38.825961180211259
 30
0.0
 11
-29.959338386266399
 21
-36.50203308068663
 31
0.0
  0
LINE
  5
2009
  8
250
 10
-29.959338386266399
 20
-36.50203308068663
 30
0.0
 11
-32.089357297396681
 21
-38.337203641901617
 31
0.0
  0
INSERT
  5
200A
  8
240
  2
*U163
 10
0.0
 20
0.0
 30
0.0
  0
LINE
  5
200C
  8
250
 10
0.0
 20
-50.124999999999972
 30
0.0
 11
-0.0000000000000007
 21
-60.426526354527446
 31
0.0
  0
LINE
  5
200D
  8
250
 10
19.99999595882554
 20
-71.92060348075043
 30
0.0
 11
19.99999595882554
 21
-57.926526354527446
 31
0.0
  0
LINE
  5
200E
  8
250
 10
2.7874999999999992
 20
-59.176526354527446
 30
0.0
 11
17.212495958825532
 21
-59.176526354527446
 31
0.0
  0
LINE
  5
2011
  8
250
 10
19.99999595882554
 20
-71.92060348075043
 30
0.0
 11
19.99999595882554
 21
-57.930970833388891
 31
0.0
  0
LINE
  5
2012
  8
250
 10
28.999995958825711
 20
-63.349428914871993
 30
0.0
 11
28.999995958825711
 21
-57.930970833388891
 31
0.0
  0
LINE
  5
2013
  8
250
 10
22.787495958825541
 20
-59.180970833388891
 30
0.0
 11
26.212495958825709
 21
-59.180970833388891
 31
0.0
  0
TEXT
  5
2017
  8
250
 10
6.7605187441446093
 20
-58.478282034908631
 30
0.0
 40
4.5
  1
H
  0
LINE
  5
2018
  8
250
 10
-41.579629831017883
 20
-108.6265500181733
 30
0.0
 11
-3.3296298310178818
 21
-108.6265500181733
 31
0.0
  0
LINE
  5
2019
  8
250
 10
-3.3296298310178818
 20
-108.6265500181733
 30
0.0
 11
2.7657844418825479
 21
-91.199264540262362
 31
0.0
  0
LINE
  5
201A
  8
250
 10
2.7657844418825479
 20
-91.199264540262362
 30
0.0
 11
3.6804959667947541
 21
-88.566118308813614
 31
0.0
  0
LINE
  5
201B
  8
250
 10
3.112444718218927
 20
-91.319688596551714
 30
0.0
 11
3.6804959667947541
 21
-88.566118308813614
 31
0.0
  0
LINE
  5
201C
  8
250
 10
3.6804959667947541
 20
-88.566118308813614
 30
0.0
 11
2.419124165546183
 21
-91.078840483972982
 31
0.0
  0
LINE
  5
201E
  8
250
 10
17.212495958825532
 20
-58.711943021194131
 30
0.0
 11
19.99999595882554
 21
-59.176526354527446
 31
0.0
  0
LINE
  5
201F
  8
250
 10
17.212495958825532
 20
-59.641109687860776
 30
0.0
 11
19.99999595882554
 21
-59.176526354527446
 31
0.0
  0
LINE
  5
2020
  8
250
 10
19.99999595882554
 20
-59.176526354527446
 30
0.0
 11
17.212495958825532
 21
-59.176526354527446
 31
0.0
  0
LINE
  5
2021
  8
250
 10
2.7874999999999992
 20
-59.641109687860791
 30
0.0
 11
-0.0000000000000006
 21
-59.176526354527446
 31
0.0
  0
LINE
  5
2022
  8
250
 10
2.7874999999999992
 20
-58.711943021194131
 30
0.0
 11
-0.0000000000000006
 21
-59.176526354527446
 31
0.0
  0
LINE
  5
2023
  8
250
 10
-0.0000000000000006
 20
-59.176526354527446
 30
0.0
 11
2.7874999999999992
 21
-59.176526354527446
 31
0.0
  0
TEXT
  5
2024
  8
250
 10
22.91666262549229
 20
-57.930970833388891
 30
0.0
 40
3.5
  1
9
  0
LINE
  5
2025
  8
250
 10
26.212495958825709
 20
-58.716387500055568
 30
0.0
 11
28.999995958825711
 21
-59.180970833388891
 31
0.0
  0
LINE
  5
2026
  8
250
 10
26.212495958825709
 20
-59.645554166722221
 30
0.0
 11
28.999995958825711
 21
-59.180970833388891
 31
0.0
  0
LINE
  5
2027
  8
250
 10
28.999995958825711
 20
-59.180970833388891
 30
0.0
 11
26.212495958825709
 21
-59.180970833388891
 31
0.0
  0
LINE
  5
2028
  8
250
 10
22.787495958825541
 20
-59.645554166722228
 30
0.0
 11
19.99999595882554
 21
-59.180970833388891
 31
0.0
  0
LINE
  5
2029
  8
250
 10
22.787495958825541
 20
-58.716387500055568
 30
0.0
 11
19.99999595882554
 21
-59.180970833388891
 31
0.0
  0
LINE
  5
202A
  8
250
 10
19.99999595882554
 20
-59.180970833388891
 30
0.0
 11
22.787495958825541
 21
-59.180970833388891
 31
0.0
  0
TEXT
  5
202B
  8
250
 10
-41.579629831017883
 20
-106.7515500181733
 30
0.0
 40
3.75
  1
位置決めブロック
  0
LINE
  5
2079
  8
250
 10
180.0
 20
4.9257359312879032
 30
0.0
 11
180.0
 21
64.0
 31
0.0
  0
LINE
  5
207A
  8
250
 10
131.0
 20
2.499999999999857
 30
0.0
 11
131.0
 21
64.0
 31
0.0
  0
LINE
  5
207B
  8
250
 10
177.0
 20
63.0
 30
0.0
 11
134.0
 21
63.0
 31
0.0
  0
LINE
  5
207F
  8
250
 10
0.0
 20
50.125000000000021
 30
0.0
 11
0.0000000000000013
 21
71.25
 31
0.0
  0
LINE
  5
2080
  8
250
 10
180.0
 20
5.0507359312879032
 30
0.0
 11
180.0
 21
71.25
 31
0.0
  0
LINE
  5
2081
  8
250
 10
2.787500000000001
 20
70.0
 30
0.0
 11
177.21250000000001
 21
70.0
 31
0.0
  0
TEXT
  5
2085
  8
250
 10
152.25
 20
64.0
 30
0.0
 40
3.5
  1
49
  0
LINE
  5
2086
  8
250
 10
134.0
 20
62.5
 30
0.0
 11
131.0
 21
63.0
 31
0.0
  0
LINE
  5
2087
  8
250
 10
134.0
 20
63.5
 30
0.0
 11
131.0
 21
63.0
 31
0.0
  0
LINE
  5
2088
  8
250
 10
131.0
 20
63.0
 30
0.0
 11
134.0
 21
63.0
 31
0.0
  0
LINE
  5
2089
  8
250
 10
177.0
 20
63.5
 30
0.0
 11
180.0
 21
63.0
 31
0.0
  0
LINE
  5
208A
  8
250
 10
177.0
 20
62.5
 30
0.0
 11
180.0
 21
63.0
 31
0.0
  0
LINE
  5
208B
  8
250
 10
180.0
 20
63.0
 30
0.0
 11
177.0
 21
63.0
 31
0.0
  0
TEXT
  5
208C
  8
250
 10
84.750000000000028
 20
71.25
 30
0.0
 40
3.5
  1
180
  0
LINE
  5
208D
  8
250
 10
177.21250000000001
 20
70.464583333333323
 30
0.0
 11
180.0
 21
70.0
 31
0.0
  0
LINE
  5
208E
  8
250
 10
177.21250000000001
 20
69.535416666666663
 30
0.0
 11
180.0
 21
70.0
 31
0.0
  0
LINE
  5
208F
  8
250
 10
180.0
 20
70.0
 30
0.0
 11
177.21250000000001
 21
70.0
 31
0.0
  0
LINE
  5
2090
  8
250
 10
2.787500000000001
 20
69.535416666666663
 30
0.0
 11
0.0000000000000013
 21
70.0
 31
0.0
  0
LINE
  5
2091
  8
250
 10
2.787500000000001
 20
70.464583333333323
 30
0.0
 11
0.0000000000000013
 21
70.0
 31
0.0
  0
LINE
  5
2092
  8
250
 10
0.0000000000000013
 20
70.0
 30
0.0
 11
2.787500000000001
 21
70.0
 31
0.0
  0
LINE
  5
2093
  8
250
 10
164.1249998339637
 20
13.49999999999997
 30
0.0
 11
207.50000000000031
 21
13.499999999999959
 31
0.0
  0
LINE
  5
2094
  8
250
 10
164.1249998339637
 20
-13.50000000000003
 30
0.0
 11
207.50000000000031
 21
-13.500000000000041
 31
0.0
  0
LINE
  5
2095
  8
250
 10
206.25000000000031
 20
10.712499999999959
 30
0.0
 11
206.25000000000031
 21
-10.712500000000039
 31
0.0
  0
LINE
  5
2099
  8
250
 10
179.125
 20
5.9999999999999707
 30
0.0
 11
198.7500000000002
 21
5.9999999999999662
 31
0.0
  0
LINE
  5
209A
  8
250
 10
179.125
 20
-6.0000000000000284
 30
0.0
 11
198.7500000000002
 21
-6.0000000000000329
 31
0.0
  0
LINE
  5
209B
  8
250
 10
197.5000000000002
 20
3.2124999999999662
 30
0.0
 11
197.5000000000002
 21
-3.2125000000000332
 31
0.0
  0
LINE
  5
209F
  8
250
 10
180.62500000000011
 20
1.9999999999999709
 30
0.0
 11
190.00000000000011
 21
1.999999999999968
 31
0.0
  0
LINE
  5
20A0
  8
250
 10
180.62500000000011
 20
-2.000000000000028
 30
0.0
 11
190.00000000000011
 21
-2.0000000000000311
 31
0.0
  0
LINE
  5
20A1
  8
250
 10
188.75000000000011
 20
-4.7875000000000298
 30
0.0
 11
188.75000000000011
 21
-7.5750000000000304
 31
0.0
  0
LINE
  5
20A2
  8
250
 10
188.75000000000011
 20
4.7874999999999686
 30
0.0
 11
188.75000000000011
 21
27.854761904761929
 31
0.0
  0
LINE
  5
20A3
  8
250
 10
188.75000000000011
 20
-2.0000000000000302
 30
0.0
 11
188.75000000000011
 21
1.9999999999999689
 31
0.0
  0
TEXT
  5
20A7
  8
250
 10
205.00000000000031
 20
-4.7500000000000053
 30
0.0
 40
3.5
  1
\U+220527
 50
90.0
  0
LINE
  5
20A8
  8
250
 10
206.71458333333371
 20
-10.712500000000039
 30
0.0
 11
206.25000000000031
 21
-13.500000000000041
 31
0.0
  0
LINE
  5
20A9
  8
250
 10
205.785416666667
 20
-10.712500000000039
 30
0.0
 11
206.25000000000031
 21
-13.500000000000041
 31
0.0
  0
LINE
  5
20AA
  8
250
 10
206.25000000000031
 20
-13.500000000000041
 30
0.0
 11
206.25000000000031
 21
-10.712500000000039
 31
0.0
  0
LINE
  5
20AB
  8
250
 10
205.785416666667
 20
10.712499999999959
 30
0.0
 11
206.25000000000031
 21
13.499999999999959
 31
0.0
  0
LINE
  5
20AC
  8
250
 10
206.71458333333371
 20
10.712499999999959
 30
0.0
 11
206.25000000000031
 21
13.499999999999959
 31
0.0
  0
LINE
  5
20AD
  8
250
 10
206.25000000000031
 20
13.499999999999959
 30
0.0
 11
206.25000000000031
 21
10.712499999999959
 31
0.0
  0
TEXT
  5
20AE
  8
250
 10
196.2500000000002
 20
-4.7499999999999982
 30
0.0
 40
3.5
  1
\U+220512
 50
90.0
  0
LINE
  5
20AF
  8
250
 10
197.96458333333359
 20
-3.2125000000000319
 30
0.0
 11
197.5000000000002
 21
-6.000000000000032
 31
0.0
  0
LINE
  5
20B0
  8
250
 10
197.03541666666689
 20
-3.2125000000000319
 30
0.0
 11
197.5000000000002
 21
-6.000000000000032
 31
0.0
  0
LINE
  5
20B1
  8
250
 10
197.5000000000002
 20
-6.000000000000032
 30
0.0
 11
197.5000000000002
 21
-3.2125000000000319
 31
0.0
  0
LINE
  5
20B2
  8
250
 10
197.03541666666689
 20
3.212499999999967
 30
0.0
 11
197.5000000000002
 21
5.9999999999999671
 31
0.0
  0
LINE
  5
20B3
  8
250
 10
197.96458333333359
 20
3.212499999999967
 30
0.0
 11
197.5000000000002
 21
5.9999999999999671
 31
0.0
  0
LINE
  5
20B4
  8
250
 10
197.5000000000002
 20
5.9999999999999671
 30
0.0
 11
197.5000000000002
 21
3.212499999999967
 31
0.0
  0
TEXT
  5
20B5
  8
250
 10
187.50000000000011
 20
8.7714285714286291
 30
0.0
 40
3.5
  1
Max.\U+22054
 50
90.0
  0
LINE
  5
20B6
  8
250
 10
189.21458333333339
 20
4.7874999999999686
 30
0.0
 11
188.75000000000011
 21
1.9999999999999689
 31
0.0
  0
LINE
  5
20B7
  8
250
 10
188.2854166666668
 20
4.7874999999999686
 30
0.0
 11
188.75000000000011
 21
1.9999999999999689
 31
0.0
  0
LINE
  5
20B8
  8
250
 10
188.75000000000011
 20
1.9999999999999689
 30
0.0
 11
188.75000000000011
 21
4.7874999999999686
 31
0.0
  0
LINE
  5
20B9
  8
250
 10
188.2854166666668
 20
-4.7875000000000298
 30
0.0
 11
188.75000000000011
 21
-2.0000000000000302
 31
0.0
  0
LINE
  5
20BA
  8
250
 10
189.21458333333339
 20
-4.7875000000000298
 30
0.0
 11
188.75000000000011
 21
-2.0000000000000302
 31
0.0
  0
LINE
  5
20BB
  8
250
 10
188.75000000000011
 20
-2.0000000000000302
 30
0.0
 11
188.75000000000011
 21
-4.7875000000000298
 31
0.0
  0
LINE
  5
20BC
  8
250
 10
322.51348267896827
 20
47.372481431903978
 30
0.0
 11
328.01830683140531
 21
56.907116550657292
 31
0.0
  0
LINE
  5
20BD
  8
250
 10
295.16296777207788
 20
56.33567811865472
 30
0.0
 11
295.16296777207788
 21
65.710678118654741
 31
0.0
  0
ARC
  5
20BE
  8
250
 10
295.16296777207799
 20
-0.0000000000000426
 30
0.0
 40
64.460678118654783
 50
62.477858391393603
 51
87.522141608606489
  0
TEXT
  5
20C1
  8
250
 10
304.04326729498428
 20
65.832805098318161
 30
0.0
 40
4.5
  1
-θ°
 50
345.0
  0
LINE
  5
20C2
  8
250
 10
297.93977103470939
 20
63.93593288118204
 30
0.0
 11
295.16296777207788
 21
64.460678118654741
 31
0.0
  0
LINE
  5
20C3
  8
250
 10
297.95986120563941
 20
64.86488233054753
 30
0.0
 11
295.16296777207788
 21
64.460678118654741
 31
0.0
  0
LINE
  5
20C4
  8
250
 10
295.16296777207788
 20
64.460678118654741
 30
0.0
 11
297.94981612017438
 21
64.400407605864785
 31
0.0
  0
LINE
  5
20C5
  8
250
 10
325.17322817220958
 20
57.573082628523288
 30
0.0
 11
327.39330683140531
 21
55.824584795926732
 31
0.0
  0
LINE
  5
20C6
  8
250
 10
324.72615204591858
 20
56.758543721076222
 30
0.0
 11
327.39330683140531
 21
55.824584795926732
 31
0.0
  0
LINE
  5
20C7
  8
250
 10
327.39330683140531
 20
55.824584795926732
 30
0.0
 11
324.94969010906408
 21
57.165813174799752
 31
0.0
  0
LINE
  5
20C8
  8
250
 10
267.81245286518759
 20
47.372481431903978
 30
0.0
 11
262.30762871275073
 21
56.907116550657292
 31
0.0
  0
ARC
  5
20C9
  8
250
 10
295.16296777207799
 20
-0.0000000000000426
 30
0.0
 40
64.460678118654783
 50
92.477858391393497
 51
117.5221416086064
  0
LINE
  5
20CA
  8
250
 10
265.15270737194641
 20
57.573082628523288
 30
0.0
 11
262.93262871275073
 21
55.824584795926732
 31
0.0
  0
LINE
  5
20CB
  8
250
 10
265.5997834982374
 20
56.758543721076222
 30
0.0
 11
262.93262871275073
 21
55.824584795926732
 31
0.0
  0
LINE
  5
20CC
  8
250
 10
262.93262871275073
 20
55.824584795926732
 30
0.0
 11
265.3762454350919
 21
57.165813174799752
 31
0.0
  0
LINE
  5
20CD
  8
250
 10
292.38616450944659
 20
63.93593288118204
 30
0.0
 11
295.16296777207799
 21
64.460678118654741
 31
0.0
  0
LINE
  5
20CE
  8
250
 10
292.36607433851663
 20
64.86488233054753
 30
0.0
 11
295.16296777207799
 21
64.460678118654741
 31
0.0
  0
LINE
  5
20CF
  8
250
 10
295.16296777207799
 20
64.460678118654741
 30
0.0
 11
292.37611942398161
 21
64.400407605864785
 31
0.0
  0
LINE
  5
2119
  8
250
 10
115.2679448773621
 20
49.999999999999972
 30
0.0
 11
215.01959045480999
 21
49.999999999999943
 31
0.0
  0
LINE
  5
211A
  8
250
 10
214.01959045480999
 20
47.499999999999943
 30
0.0
 11
214.01959045480999
 21
-7.0833333333333863
 31
0.0
  0
TEXT
  5
211D
  8
250
 10
213.01959045480999
 20
-6.4166666666666838
 30
0.0
 40
3.5
  1
\U+2205100
 50
90.0
  0
LINE
  5
211E
  8
250
 10
213.6029237881433
 20
47.499999999999943
 30
0.0
 11
214.01959045480999
 21
49.999999999999943
 31
0.0
  0
LINE
  5
211F
  8
250
 10
214.4362571214767
 20
47.499999999999943
 30
0.0
 11
214.01959045480999
 21
49.999999999999943
 31
0.0
  0
LINE
  5
2120
  8
250
 10
214.01959045480999
 20
49.999999999999943
 30
0.0
 11
214.01959045480999
 21
47.499999999999943
 31
0.0
  0
TEXT
  5
2150
  8
241
 10
-56.141352087982803
 20
84.127644347845376
 30
0.0
 40
5.0
  1
HSK-A100-RBX5-4S-180-80
  7
YOKO
 11
-56.141352087982803
 21
84.127644347845376
 31
0.0
 73
     1
  0
VIEWPORT
  5
22
 67
     1
  8
0
 10
261.51769911504419
 20
148.5
 30
0.0
 40
523.0353982300885
 41
297.0
 68
     1
 69
     1
1001
ACAD
1000
MVIEW
1002
{
1070
    16
1010
0.0
1020
0.0
1030
0.0
1010
0.0
1020
0.0
1030
1.0
1040
0.0
1040
297.0
1040
261.51769911504419
1040
148.5
1040
50.0
1040
0.0
1040
0.0
1070
     0
1070
   100
1070
     1
1070
     1
1070
     0
1070
     0
1070
     0
1070
     0
1040
0.0
1040
0.0
1040
0.0
1040
1.0
1040
1.0
1040
10.0
1040
10.0
1070
     0
1002
{
1002
}
1002
}
1001
GENIUS_GENODEF_13
1002
{
1000
HIER
1070
     0
1002
}
1002
{
1000
MANEDIT
1070
     0
1002
}
1002
{
1000
NOSEL
1070
     0
1002
}
1002
{
1000
BEHIND
1070
     0
1002
}
1002
{
1000
OTHER
1070
     0
1002
}
1002
{
1000
REACTOR
1002
}
1001
GENIUS_GENOBJ-N-SDF_13
1002
{
1000
OWNER
1000
GEN
1002
}
1001
GENIUS_GENSCREG_15
1000
PF
1040
1.0
1000
DF
1040
1.0
1000
MIN
1011
0.0
1021
-9.4440723068507006E+102
1031
-4.4864129442424837E+103
1021
0.0
1031
0.0
1000
MAX
1011
523.0353982300885
1021
-9.4440723068507006E+102
1031
-4.4864129442424837E+103
1021
297.0
1031
0.0
1000
FLAGS
1070
     2
  0
ENDSEC
  0
EOF
