  0
SECTION
  2
HEADER
  9
$ACADVER
  1
AC1009
  9
$INSBASE
 10
0.0
 20
0.0
 30
0.0
  9
$EXTMIN
 10
-55.710633739563768
 20
-50.20710678144679
 30
0.0
  9
$EXTMAX
 10
185.23348456276199
 20
89.000000000000028
 30
0.0
  9
$LIMMIN
 10
0.0
 20
0.0
  9
$LIMMAX
 10
297.0
 20
210.0
  9
$ORTHOMODE
 70
     1
  9
$REGENMODE
 70
     1
  9
$FILLMODE
 70
     1
  9
$QTEXTMODE
 70
     0
  9
$MIRRTEXT
 70
     1
  9
$DRAGMODE
 70
     2
  9
$LTSCALE
 40
10.0
  9
$OSMODE
 70
  3071
  9
$ATTMODE
 70
     1
  9
$TEXTSIZE
 40
3.0
  9
$TRACEWID
 40
1.0
  9
$TEXTSTYLE
  7
YOKO
  9
$CLAYER
  8
240
  9
$CELTYPE
  6
BYLAYER
  9
$CECOLOR
 62
   256
  9
$DIMSCALE
 40
1.0
  9
$DIMASZ
 40
2.2299999999999991
  9
$DIMEXO
 40
0.5
  9
$DIMDLI
 40
7.0
  9
$DIMRND
 40
0.0
  9
$DIMDLE
 40
0.0
  9
$DIMEXE
 40
1.0
  9
$DIMTP
 40
0.0
  9
$DIMTM
 40
0.01
  9
$DIMTXT
 40
2.7999999999999989
  9
$DIMCEN
 40
0.0
  9
$DIMTSZ
 40
0.0
  9
$DIMTOL
 70
     0
  9
$DIMLIM
 70
     0
  9
$DIMTIH
 70
     0
  9
$DIMTOH
 70
     0
  9
$DIMSE1
 70
     0
  9
$DIMSE2
 70
     0
  9
$DIMTAD
 70
     3
  9
$DIMZIN
 70
     9
  9
$DIMBLK
  1
OPEN
  9
$DIMASO
 70
     1
  9
$DIMSHO
 70
     1
  9
$DIMPOST
  1

  9
$DIMAPOST
  1

  9
$DIMALT
 70
     0
  9
$DIMALTD
 70
     2
  9
$DIMALTF
 40
25.399999999999999
  9
$DIMLFAC
 40
1.0
  9
$DIMTOFL
 70
     1
  9
$DIMTVP
 40
0.0
  9
$DIMTIX
 70
     1
  9
$DIMSOXD
 70
     0
  9
$DIMSAH
 70
     0
  9
$DIMBLK1
  1

  9
$DIMBLK2
  1

  9
$DIMSTYLE
  2
BIGT
  9
$DIMCLRD
 70
   256
  9
$DIMCLRE
 70
   256
  9
$DIMCLRT
 70
    40
  9
$DIMTFAC
 40
1.0
  9
$DIMGAP
 40
1.0
  9
$LUNITS
 70
     2
  9
$LUPREC
 70
     3
  9
$SKETCHINC
 40
1.0
  9
$FILLETRAD
 40
0.0
  9
$AUNITS
 70
     0
  9
$AUPREC
 70
     3
  9
$MENU
  1
.
  9
$ELEVATION
 40
0.0
  9
$PELEVATION
 40
0.0
  9
$THICKNESS
 40
0.0
  9
$LIMCHECK
 70
     0
  9
$BLIPMODE
 70
     0
  9
$CHAMFERA
 40
0.25
  9
$CHAMFERB
 40
0.25
  9
$SKPOLY
 70
     0
  9
$TDCREATE
 40
2455799.607334224
  9
$TDUPDATE
 40
2455799.6185060539
  9
$TDINDWG
 40
0.0111069213
  9
$TDUSRTIMER
 40
0.0111069213
  9
$USRTIMER
 70
     1
  9
$ANGBASE
 50
0.0
  9
$ANGDIR
 70
     0
  9
$PDMODE
 70
     1
  9
$PDSIZE
 40
0.0
  9
$PLINEWID
 40
0.0
  9
$COORDS
 70
     2
  9
$SPLFRAME
 70
     0
  9
$SPLINETYPE
 70
     6
  9
$SPLINESEGS
 70
     4
  9
$ATTDIA
 70
     1
  9
$ATTREQ
 70
     1
  9
$HANDLING
 70
     1
  9
$HANDSEED
  5
1AD2
  9
$SURFTAB1
 70
     6
  9
$SURFTAB2
 70
     6
  9
$SURFTYPE
 70
     6
  9
$SURFU
 70
     6
  9
$SURFV
 70
     6
  9
$UCSNAME
  2

  9
$UCSORG
 10
0.0
 20
0.0
 30
0.0
  9
$UCSXDIR
 10
1.0
 20
0.0
 30
0.0
  9
$UCSYDIR
 10
0.0
 20
1.0
 30
0.0
  9
$PUCSNAME
  2

  9
$PUCSORG
 10
0.0
 20
0.0
 30
0.0
  9
$PUCSXDIR
 10
1.0
 20
0.0
 30
0.0
  9
$PUCSYDIR
 10
0.0
 20
1.0
 30
0.0
  9
$USERI1
 70
     1
  9
$USERI2
 70
     0
  9
$USERI3
 70
     0
  9
$USERI4
 70
     0
  9
$USERI5
 70
     0
  9
$USERR1
 40
0.0
  9
$USERR2
 40
0.0
  9
$USERR3
 40
0.0
  9
$USERR4
 40
0.0
  9
$USERR5
 40
0.0
  9
$WORLDVIEW
 70
     1
  9
$SHADEDGE
 70
     3
  9
$SHADEDIF
 70
    70
  9
$TILEMODE
 70
     1
  9
$MAXACTVP
 70
    16
  9
$PLIMCHECK
 70
     0
  9
$PEXTMIN
 10
1.0000000000000000E+020
 20
1.0000000000000000E+020
 30
1.0000000000000000E+020
  9
$PEXTMAX
 10
-1.0000000000000000E+020
 20
-1.0000000000000000E+020
 30
-1.0000000000000000E+020
  9
$PLIMMIN
 10
0.0
 20
0.0
  9
$PLIMMAX
 10
420.0
 20
297.0
  9
$UNITMODE
 70
     0
  9
$VISRETAIN
 70
     1
  9
$PLINEGEN
 70
     0
  9
$PSLTSCALE
 70
     1
  0
ENDSEC
  0
SECTION
  2
TABLES
  0
TABLE
  2
VPORT
 70
     3
  0
VPORT
  2
*ACTIVE
 70
     0
 10
0.0
 20
0.0
 11
1.0
 21
1.0
 12
66.627323899601933
 22
14.51032554428104
 13
0.0
 23
0.0
 14
7.0
 24
7.0
 15
7.0
 25
7.0
 16
0.0
 26
0.0
 36
1.0
 17
0.0
 27
0.0
 37
0.0
 40
241.19489483763931
 41
1.5857487922705309
 42
50.0
 43
0.0
 44
0.0
 50
0.0
 51
0.0
 71
     0
 72
  2000
 73
     1
 74
     0
 75
     0
 76
     0
 77
     0
 78
     0
  0
ENDTAB
  0
TABLE
  2
LTYPE
 70
    13
  0
LTYPE
  2
CONTINUOUS
 70
     0
  3
Solid line
 72
    65
 73
     0
 40
0.0
  0
LTYPE
  2
CENTER2
 70
     0
  3
___ _ ___ _ ___ _ ___ _ ___ _ ___ _ ___ _ ___ _
 72
    65
 73
     4
 40
1.125
 49
0.75
 49
-0.125
 49
0.125
 49
-0.125
  0
LTYPE
  2
HIDDEN2
 70
     0
  3
_ _ _ _ _ _ _ _ _ _ _ _ _ _ _ _ _ _ _ _ _ _ _ _
 72
    65
 73
     2
 40
0.1875
 49
0.125
 49
-0.0625
  0
LTYPE
  2
PHANTOM2
 70
     0
  3
___ _ _ ___ _ _ ___ _ _ ___ _ _ ___ _ _ ___ _ _
 72
    65
 73
     6
 40
1.25
 49
0.625
 49
-0.125
 49
0.125
 49
-0.125
 49
0.125
 49
-0.125
  0
LTYPE
  2
CENTER
 70
     0
  3
____ _ ____ _ ____ _ ____ _ ____ _ ____ _ ____ 
 72
    65
 73
     4
 40
2.0
 49
1.25
 49
-0.25
 49
0.25
 49
-0.25
  0
LTYPE
  2
AM_ISO02W050
 70
     0
  3
__ __ __ __ __ __ __ __ __ __ __ __ __ __ __
 72
    65
 73
     2
 40
7.5
 49
6.0
 49
-1.5
  0
LTYPE
  2
AMCONSTR
 70
     0
  3
_______________________
 72
    65
 73
     2
 40
9999.0
 49
9999.0
 49
0.0
  0
LTYPE
  2
ACISOWELD
 70
     0
  3
_ _ _ _ _
 72
    65
 73
     2
 40
2.0
 49
2.0
 49
-1.0
  0
LTYPE
  2
ACISOTGB
 70
     0
  3
__ . . __ . .
 72
    65
 73
     6
 40
9.0
 49
4.0
 49
-1.0
 49
1.0
 49
-1.0
 49
1.0
 49
-1.0
  0
LTYPE
  2
ACISOTGL
 70
     0
  3
_ _ _ _ _
 72
    65
 73
     2
 40
3.0
 49
2.0
 49
-1.0
  0
LTYPE
  2
ACJISTGB
 70
     0
  3
__ . . __ . .
 72
    65
 73
     6
 40
9.0
 49
4.0
 49
-1.0
 49
1.0
 49
-1.0
 49
1.0
 49
-1.0
  0
LTYPE
  2
ACJISTGL
 70
     0
  3
_ _ _ _ _
 72
    65
 73
     2
 40
3.0
 49
2.0
 49
-1.0
  0
LTYPE
  2
HIDDEN
 70
     0
  3
Hidden __ __ __ __ __ __ __ __ __ __ __ __ __ _
 72
    65
 73
     2
 40
9.5249999999999986
 49
6.3499999999999988
 49
-3.1749999999999989
  0
ENDTAB
  0
TABLE
  2
LAYER
 70
     7
  0
LAYER
  2
0
 70
     0
 62
     7
  6
CONTINUOUS
  0
LAYER
  2
DEFPOINTS
 70
     0
 62
     7
  6
CONTINUOUS
  0
LAYER
  2
245
 70
     0
 62
     2
  6
CENTER2
  0
LAYER
  2
240
 70
     0
 62
     4
  6
CONTINUOUS
  0
LAYER
  2
241
 70
     0
 62
   211
  6
CONTINUOUS
  0
LAYER
  2
243
 70
     0
 62
   211
  6
HIDDEN2
  0
LAYER
  2
250
 70
     0
 62
     3
  6
CONTINUOUS
  0
ENDTAB
  0
TABLE
  2
STYLE
 70
     6
  0
STYLE
  2
STANDARD
 70
     0
 40
0.0
 41
1.0
 50
0.0
 71
     0
 42
3.0
  3
romans.shx
  4
extfont.shx
  0
STYLE
  2
ACISOTS
 70
     0
 40
1.0
 41
1.0
 50
0.0
 71
     0
 42
3.0
  3
amgdt.shx
  4
extfont.shx
  0
STYLE
  2
ACISOGDT
 70
     0
 40
0.0
 41
1.0
 50
0.0
 71
     0
 42
3.0
  3
amgdt.shx
  4
extfont.shx
  0
STYLE
  2
ACJISTS
 70
     0
 40
1.0
 41
1.0
 50
0.0
 71
     0
 42
3.0
  3
amgdt.shx
  4
extfont.shx
  0
STYLE
  2
ACJISGDT
 70
     0
 40
0.0
 41
1.0
 50
0.0
 71
     0
 42
3.0
  3
amgdt.shx
  4
extfont.shx
  0
STYLE
  2
YOKO
 70
     0
 40
0.0
 41
1.0
 50
0.0
 71
     0
 42
3.0
  3
romans.shx
  4
extfont.shx
  0
ENDTAB
  0
TABLE
  2
VIEW
 70
     0
  0
ENDTAB
  0
TABLE
  2
UCS
 70
     0
  0
ENDTAB
  0
TABLE
  2
APPID
 70
    32
  0
APPID
  2
ACAD
 70
     0
  0
APPID
  2
GLOBAL
 70
     0
  0
APPID
  2
DETAIL
 70
     0
  0
APPID
  2
GRPNAME
 70
     0
  0
APPID
  2
GPARA
 70
     0
  0
APPID
  2
MCAD_NO_VIS
 70
     0
  0
APPID
  2
ACAD_TEMP_GRAPHIC
 70
     0
  0
APPID
  2
ACATTRIBSERVICES
 70
     0
  0
APPID
  2
GENIUS_GENSCREG_15
 70
     0
  0
APPID
  2
GENIUS_GENODEF_13
 70
     0
  0
APPID
  2
GENIUS_GENOBJ-N-SDF_13
 70
     0
  0
APPID
  2
GENIUS_GENREC_14
 70
     0
  0
APPID
  2
GENIUS_GENOBJ-N-REC_13
 70
     0
  0
APPID
  2
GENIUS_GENDIMSH_14
 70
     0
  0
APPID
  2
GENIUS_GENOBJ-N-DIM_13
 70
     0
  0
APPID
  2
GENIUS_GENDIM_13
 70
     0
  0
APPID
  2
GENIUS_GENDTOL_13
 70
     0
  0
APPID
  2
GENIUS_GENOLIS_13
 70
     0
  0
APPID
  2
GENIUS_GENOENT_13
 70
     0
  0
APPID
  2
GENIUS_GENOBJ-F-FEM_13
 70
     0
  0
APPID
  2
GENIUS_GENOREF_13
 70
     0
  0
APPID
  2
GENIUS_GEFFEM_13
 70
     0
  0
APPID
  2
GENIUS_GEFFEMP_13
 70
     0
  0
APPID
  2
AD_DRAW
 70
     0
  0
APPID
  2
DESIGNERASSEMBLIES
 70
     0
  0
APPID
  2
ACADM_DIM_EDIT
 70
     0
  0
APPID
  2
AMDT_DM_ADJ
 70
     0
  0
APPID
  2
GENIUS_GENOBJ-N-FIL_13
 70
     0
  0
APPID
  2
GENIUS_GENFIL_13
 70
     0
  0
APPID
  2
GENIUS_GENOBJ-N-CHA_13
 70
     0
  0
APPID
  2
GENIUS_GENOBJ-N-CRS_13
 70
     0
  0
APPID
  2
ITEMNAME
 70
     0
  0
ENDTAB
  0
TABLE
  2
DIMSTYLE
 70
    23
  0
DIMSTYLE
  2
BIGT
 70
     0
  3

  4

  5
OPEN
  6

  7

 40
1.0
 41
2.2299999999999991
 42
0.5
 43
7.0
 44
1.0
 45
0.0
 46
0.0
 47
0.0
 48
0.01
140
2.7999999999999989
141
0.0
142
0.0
143
25.399999999999999
144
1.0
145
0.0
146
1.0
147
1.0
 71
     0
 72
     0
 73
     0
 74
     0
 75
     0
 76
     0
 77
     3
 78
     9
170
     0
171
     2
172
     1
173
     0
174
     1
175
     0
176
   256
177
   256
178
    40
  0
DIMSTYLE
  2
AM_ISO
 70
     0
  3

  4
"
  5

  6

  7

 40
1.0
 41
2.5
 42
1.0
 43
10.0
 44
1.0
 45
0.0
 46
0.0
 47
0.1
 48
0.1
140
3.5
141
0.0
142
0.0
143
0.0393701
144
1.0
145
0.0
146
0.71
147
1.5
 71
     0
 72
     0
 73
     0
 74
     0
 75
     0
 76
     0
 77
     1
 78
     8
170
     0
171
     2
172
     1
173
     0
174
     0
175
     0
176
   256
177
   256
178
     2
  0
DIMSTYLE
  2
AM_ISO$3
 70
     0
  3

  4
"
  5

  6

  7

 40
1.0
 41
2.5
 42
1.0
 43
10.0
 44
1.0
 45
0.0
 46
0.0
 47
0.1
 48
0.1
140
3.5
141
0.0
142
0.0
143
0.0393701
144
1.0
145
0.0
146
0.71
147
1.5
 71
     0
 72
     0
 73
     0
 74
     1
 75
     0
 76
     0
 77
     1
 78
     8
170
     0
171
     2
172
     0
173
     0
174
     0
175
     0
176
   256
177
   256
178
     2
  0
DIMSTYLE
  2
AM_ISO$4
 70
     0
  3

  4
"
  5

  6

  7

 40
1.0
 41
2.5
 42
1.0
 43
10.0
 44
1.0
 45
0.0
 46
0.0
 47
0.1
 48
0.1
140
3.5
141
0.0
142
0.0
143
0.0393701
144
1.0
145
0.0
146
0.71
147
1.5
 71
     0
 72
     0
 73
     0
 74
     1
 75
     0
 76
     0
 77
     1
 78
     8
170
     0
171
     2
172
     0
173
     0
174
     0
175
     0
176
   256
177
   256
178
     2
  0
DIMSTYLE
  2
AM_ISO$6
 70
     0
  3

  4
"
  5

  6

  7

 40
1.0
 41
2.5
 42
1.0
 43
10.0
 44
1.0
 45
0.0
 46
0.0
 47
0.1
 48
0.1
140
3.5
141
0.0
142
0.0
143
0.0393701
144
1.0
145
0.0
146
0.71
147
1.5
 71
     0
 72
     0
 73
     0
 74
     0
 75
     0
 76
     0
 77
     0
 78
     8
170
     0
171
     2
172
     1
173
     0
174
     0
175
     0
176
   256
177
   256
178
     2
  0
DIMSTYLE
  2
AM_ISO$7
 70
     0
  3

  4
"
  5

  6

  7

 40
1.0
 41
2.5
 42
1.0
 43
10.0
 44
1.0
 45
0.0
 46
0.0
 47
0.1
 48
0.1
140
5.0
141
0.0
142
0.0
143
0.0393701
144
1.0
145
0.0
146
0.71
147
1.5
 71
     0
 72
     0
 73
     0
 74
     0
 75
     0
 76
     0
 77
     1
 78
     8
170
     0
171
     2
172
     1
173
     0
174
     0
175
     0
176
   256
177
   256
178
     2
  0
DIMSTYLE
  2
AM_ISO$SF
 70
     0
  3

  4
"
  5

  6

  7

 40
1.0
 41
2.5
 42
1.0
 43
10.0
 44
1.0
 45
0.0
 46
0.0
 47
0.1
 48
0.1
140
3.5
141
0.0
142
0.0
143
0.0393701
144
1.0
145
0.0
146
0.71
147
1.5
 71
     0
 72
     0
 73
     0
 74
     0
 75
     1
 76
     1
 77
     1
 78
     8
170
     0
171
     2
172
     1
173
     0
174
     0
175
     0
176
   256
177
   256
178
     2
  0
DIMSTYLE
  2
AM_ISO$SH
 70
     0
  3

  4
"
  5

  6
GENAXEH
  7

 40
1.0
 41
2.5
 42
1.0
 43
10.0
 44
1.0
 45
0.0
 46
0.0
 47
0.1
 48
0.1
140
3.5
141
0.0
142
0.0
143
0.0393701
144
2.0
145
0.0
146
0.71
147
1.5
 71
     0
 72
     0
 73
     0
 74
     0
 75
     1
 76
     1
 77
     1
 78
     8
170
     0
171
     2
172
     1
173
     1
174
     0
175
     0
176
   256
177
   256
178
     2
  0
DIMSTYLE
  2
BIGT$2
 70
     0
  3

  4

  5
OPEN
  6

  7

 40
1.0
 41
2.2299999999999991
 42
0.5
 43
7.0
 44
1.0
 45
0.0
 46
0.0
 47
0.0
 48
0.01
140
2.7999999999999989
141
0.0
142
0.0
143
25.399999999999999
144
1.0
145
0.0
146
1.0
147
1.0
 71
     0
 72
     0
 73
     0
 74
     0
 75
     0
 76
     0
 77
     3
 78
     9
170
     0
171
     2
172
     1
173
     0
174
     0
175
     0
176
   256
177
   256
178
    40
  0
DIMSTYLE
  2
BIGT$3
 70
     0
  3

  4

  5
OPEN
  6

  7

 40
1.0
 41
2.2299999999999991
 42
0.5
 43
2.5
 44
1.0
 45
0.0
 46
0.0
 47
0.0
 48
0.01
140
2.7999999999999989
141
0.0
142
0.0
143
25.399999999999999
144
1.0
145
0.0
146
1.0
147
1.0
 71
     0
 72
     0
 73
     0
 74
     0
 75
     0
 76
     0
 77
     3
 78
     9
170
     0
171
     2
172
     1
173
     0
174
     0
175
     0
176
   256
177
   256
178
    40
  0
DIMSTYLE
  2
BIGT$7
 70
     0
  3

  4

  5
OPEN
  6

  7

 40
0.0
 41
2.2299999999999991
 42
0.5
 43
7.0
 44
1.0
 45
0.0
 46
0.0
 47
0.0
 48
0.01
140
2.7999999999999989
141
0.0
142
0.0
143
25.399999999999999
144
1.0
145
0.0
146
1.0
147
1.0
 71
     0
 72
     0
 73
     0
 74
     0
 75
     0
 76
     0
 77
     3
 78
     9
170
     0
171
     2
172
     0
173
     0
174
     0
175
     0
176
   256
177
   256
178
    40
  0
DIMSTYLE
  2
BIGT$6
 70
     0
  3

  4

  5
OPEN
  6

  7

 40
1.0
 41
2.2299999999999991
 42
0.5
 43
2.5
 44
1.0
 45
0.0
 46
0.0
 47
0.0
 48
0.01
140
2.7999999999999989
141
0.0
142
0.0
143
25.399999999999999
144
1.0
145
0.0
146
1.0
147
1.0
 71
     0
 72
     0
 73
     0
 74
     0
 75
     0
 76
     0
 77
     3
 78
     9
170
     0
171
     2
172
     1
173
     0
174
     0
175
     0
176
   256
177
   256
178
    40
  0
DIMSTYLE
  2
BIGT$0
 70
     0
  3

  4

  5
OPEN
  6

  7

 40
1.0
 41
2.2299999999999991
 42
0.5
 43
7.0
 44
1.0
 45
0.0
 46
0.0
 47
0.0
 48
0.01
140
2.7999999999999989
141
0.0
142
0.0
143
25.399999999999999
144
1.0
145
0.0
146
1.0
147
1.0
 71
     0
 72
     0
 73
     0
 74
     0
 75
     0
 76
     0
 77
     3
 78
     9
170
     0
171
     2
172
     1
173
     0
174
     0
175
     0
176
   256
177
   256
178
    40
  0
DIMSTYLE
  2
BIGT$4
 70
     0
  3

  4

  5
OPEN
  6

  7

 40
1.0
 41
2.2299999999999991
 42
0.5
 43
2.5
 44
1.0
 45
0.0
 46
0.0
 47
0.0
 48
0.01
140
2.7999999999999989
141
0.0
142
0.0
143
25.399999999999999
144
1.0
145
0.0
146
1.0
147
1.0
 71
     0
 72
     0
 73
     0
 74
     0
 75
     0
 76
     0
 77
     3
 78
     9
170
     0
171
     2
172
     1
173
     0
174
     0
175
     0
176
   256
177
   256
178
    40
  0
DIMSTYLE
  2
BIGT$SH
 70
     0
  3

  4

  5
OPEN
  6

  7

 40
1.0
 41
2.2299999999999991
 42
0.5
 43
7.0
 44
1.0
 45
0.0
 46
0.0
 47
0.0
 48
0.0
140
2.7999999999999989
141
0.0
142
0.0
143
25.399999999999999
144
1.0
145
0.0
146
1.0
147
1.0
 71
     0
 72
     0
 73
     0
 74
     0
 75
     0
 76
     0
 77
     3
 78
     9
170
     0
171
     2
172
     1
173
     0
174
     0
175
     0
176
   256
177
   256
178
    40
  0
DIMSTYLE
  2
BIGT$SF
 70
     0
  3

  4

  5
OPEN
  6

  7

 40
1.0
 41
2.2299999999999991
 42
0.5
 43
7.0
 44
1.0
 45
0.0
 46
0.0
 47
0.0
 48
0.0
140
2.7999999999999989
141
0.0
142
0.0
143
25.399999999999999
144
1.0
145
0.0
146
1.0
147
1.0
 71
     0
 72
     0
 73
     0
 74
     0
 75
     0
 76
     0
 77
     3
 78
     9
170
     0
171
     2
172
     1
173
     0
174
     0
175
     0
176
   256
177
   256
178
    40
  0
DIMSTYLE
  2
TECHNICAL_OSAKA
 70
     0
  3

  4
"
  5
OPEN30
  6

  7

 40
1.0
 41
2.5
 42
1.0
 43
10.0
 44
1.0
 45
0.0
 46
0.0
 47
0.1
 48
0.1
140
2.7999999999999989
141
0.0
142
0.0
143
0.0393701
144
1.0
145
0.0
146
0.71
147
1.5
 71
     0
 72
     0
 73
     0
 74
     0
 75
     0
 76
     0
 77
     3
 78
     8
170
     0
171
     2
172
     1
173
     0
174
     0
175
     0
176
   256
177
   256
178
    40
  0
DIMSTYLE
  2
TECHNICAL_OSAKA$3
 70
     0
  3

  4
"
  5
OPEN30
  6

  7

 40
1.0
 41
2.5
 42
1.0
 43
10.0
 44
1.0
 45
0.0
 46
0.0
 47
0.1
 48
0.1
140
2.7999999999999989
141
0.0
142
0.0
143
0.0393701
144
1.0
145
0.0
146
0.71
147
1.5
 71
     0
 72
     0
 73
     0
 74
     1
 75
     0
 76
     0
 77
     3
 78
     8
170
     0
171
     2
172
     0
173
     0
174
     0
175
     0
176
   256
177
   256
178
    40
  0
DIMSTYLE
  2
TECHNICAL_OSAKA$4
 70
     0
  3

  4
"
  5
OPEN30
  6

  7

 40
1.0
 41
2.5
 42
1.0
 43
10.0
 44
1.0
 45
0.0
 46
0.0
 47
0.1
 48
0.1
140
2.7999999999999989
141
0.0
142
0.0
143
0.0393701
144
1.0
145
0.0
146
0.71
147
1.5
 71
     0
 72
     0
 73
     0
 74
     1
 75
     0
 76
     0
 77
     3
 78
     8
170
     0
171
     2
172
     0
173
     0
174
     0
175
     0
176
   256
177
   256
178
    40
  0
DIMSTYLE
  2
TECHNICAL_OSAKA$6
 70
     0
  3

  4
"
  5
OPEN30
  6

  7

 40
1.0
 41
2.5
 42
1.0
 43
10.0
 44
1.0
 45
0.0
 46
0.0
 47
0.1
 48
0.1
140
2.7999999999999989
141
0.0
142
0.0
143
0.0393701
144
1.0
145
0.0
146
0.71
147
1.5
 71
     0
 72
     0
 73
     0
 74
     0
 75
     0
 76
     0
 77
     0
 78
     8
170
     0
171
     2
172
     1
173
     0
174
     0
175
     0
176
   256
177
   256
178
    40
  0
DIMSTYLE
  2
TECHNICAL_OSAKA$7
 70
     0
  3

  4
"
  5
OPEN30
  6

  7

 40
1.0
 41
2.5
 42
1.0
 43
10.0
 44
1.0
 45
0.0
 46
0.0
 47
0.1
 48
0.1
140
2.7999999999999989
141
0.0
142
0.0
143
0.0393701
144
1.0
145
0.0
146
0.71
147
1.5
 71
     0
 72
     0
 73
     0
 74
     0
 75
     0
 76
     0
 77
     3
 78
     8
170
     0
171
     2
172
     1
173
     0
174
     0
175
     0
176
   256
177
   256
178
    40
  0
DIMSTYLE
  2
TECHNICAL_OSAKA$SF
 70
     0
  3

  4
"
  5
OPEN30
  6
OPEN30
  7
OPEN30
 40
1.0
 41
2.5
 42
1.0
 43
10.0
 44
1.0
 45
0.0
 46
0.0
 47
0.1
 48
0.1
140
3.5
141
0.0
142
0.0
143
0.0393701
144
1.0
145
0.0
146
0.71
147
1.5
 71
     0
 72
     0
 73
     0
 74
     0
 75
     1
 76
     1
 77
     3
 78
     8
170
     0
171
     2
172
     1
173
     0
174
     0
175
     0
176
   256
177
   256
178
    40
  0
DIMSTYLE
  2
TECHNICAL_OSAKA$SH
 70
     0
  3

  4
"
  5
OPEN30
  6
GENAXEH
  7
OPEN30
 40
1.0
 41
2.5
 42
1.0
 43
10.0
 44
1.0
 45
0.0
 46
0.0
 47
0.1
 48
0.1
140
3.5
141
0.0
142
0.0
143
0.0393701
144
2.0
145
0.0
146
0.71
147
1.5
 71
     0
 72
     0
 73
     0
 74
     0
 75
     1
 76
     1
 77
     3
 78
     8
170
     0
171
     2
172
     1
173
     1
174
     0
175
     0
176
   256
177
   256
178
    40
  0
ENDTAB
  0
ENDSEC
  0
SECTION
  2
BLOCKS
  0
BLOCK
  8
0
  2
$MODEL_SPACE
 70
     0
 10
0.0
 20
0.0
 30
0.0
  3
$MODEL_SPACE
  1

  0
ENDBLK
  5
1C
  8
0
  0
BLOCK
 67
     1
  8
0
  2
$PAPER_SPACE
 70
     0
 10
0.0
 20
0.0
 30
0.0
  3
$PAPER_SPACE
  1

  0
ENDBLK
  5
19
 67
     1
  8
0
  0
BLOCK
  8
0
  2
_OPEN
 70
     0
 10
0.0
 20
0.0
 30
0.0
  3
_OPEN
  1

  0
LINE
  5
1A64
  8
0
  6
BYBLOCK
 62
     0
 10
-1.0
 20
0.1666666666666666
 30
0.0
 11
0.0
 21
0.0
 31
0.0
  0
LINE
  5
1A65
  8
0
  6
BYBLOCK
 62
     0
 10
-1.0
 20
-0.1666666666666666
 30
0.0
 11
0.0
 21
0.0
 31
0.0
  0
LINE
  5
1A66
  8
0
  6
BYBLOCK
 62
     0
 10
0.0
 20
0.0
 30
0.0
 11
-1.0
 21
0.0
 31
0.0
  0
ENDBLK
  5
1A67
  8
0
  0
BLOCK
  8
0
  2
GENAXEH
 70
     0
 10
0.0
 20
0.0
 30
0.0
  3
GENAXEH
  1

  0
LINE
  5
1A8F
  8
0
 10
-1.0
 20
0.0
 30
0.0
 11
1.0
 21
0.0
 31
0.0
  0
ENDBLK
  5
1A90
  8
0
  0
BLOCK
  8
0
  2
_OPEN30
 70
     0
 10
0.0
 20
0.0
 30
0.0
  3
_OPEN30
  1

  0
LINE
  5
1AB4
  8
0
  6
BYBLOCK
 62
     0
 10
-1.0
 20
0.26794919
 30
0.0
 11
0.0
 21
0.0
 31
0.0
  0
LINE
  5
1AB5
  8
0
  6
BYBLOCK
 62
     0
 10
0.0
 20
0.0
 30
0.0
 11
-1.0
 21
-0.26794919
 31
0.0
  0
LINE
  5
1AB6
  8
0
  6
BYBLOCK
 62
     0
 10
0.0
 20
0.0
 30
0.0
 11
-1.0
 21
0.0
 31
0.0
  0
ENDBLK
  5
1AB7
  8
0
  0
BLOCK
  8
0
  2
A$C69BC205B
 70
     0
 10
0.0
 20
0.0
 30
0.0
  3
A$C69BC205B
  1

  0
LINE
  5
1958
  8
240
 10
121.8000000000102
 20
47.0
 30
0.0
 11
150.5252125362112
 21
47.0
 31
0.0
  0
LINE
  5
1959
  8
240
 10
121.8000000000102
 20
-47.0
 30
0.0
 11
150.5252125362112
 21
-47.0
 31
0.0
  0
LINE
  5
195A
  8
240
 10
46.000000000003631
 20
-46.999999999996817
 30
0.0
 11
117.200000000008
 21
-47.0
 31
0.0
  0
LINE
  5
195B
  8
240
 10
165.0000000000054
 20
-42.115981118655327
 30
0.0
 11
165.00000000000179
 21
42.115981118655327
 31
0.0
  0
ARC
  5
195C
  8
240
 10
150.52521253621299
 20
-32.000000000001819
 30
0.0
 40
15.0
 50
270.0
 51
284.99999999999437
1001
GENIUS_GENOBJ-N-FIL_13
1002
{
1000
OWNER
1000
GEN
1002
}
1001
GENIUS_GENODEF_13
1002
{
1000
HIER
1070
     0
1002
}
1002
{
1000
MANEDIT
1070
     0
1002
}
1002
{
1000
NOSEL
1070
     0
1002
}
1002
{
1000
BEHIND
1070
     0
1002
}
1002
{
1000
OTHER
1070
     0
1002
}
1002
{
1000
REACTOR
1002
}
  0
LINE
  5
195D
  8
240
 10
154.4074982127531
 20
-46.488887394336409
 30
0.0
 11
163.5176380902121
 21
-44.047832771233509
 31
0.0
  0
LINE
  5
195E
  8
241
 10
140.0000000000073
 20
-46.799999999999727
 30
0.0
 11
139.99999999994901
 21
46.799999999999727
 31
0.0
  0
ARC
  5
195F
  8
240
 10
163.0000000000054
 20
-42.115981118655327
 30
0.0
 40
2.0
 50
285.00000000004468
 51
0.0
1001
GENIUS_GENODEF_13
1002
{
1000
HIER
1070
     0
1002
}
1002
{
1000
MANEDIT
1070
     0
1002
}
1002
{
1000
NOSEL
1070
     0
1002
}
1002
{
1000
BEHIND
1070
     0
1002
}
1002
{
1000
OTHER
1070
     0
1002
}
1002
{
1000
REACTOR
1002
}
1001
GENIUS_GENOBJ-N-FIL_13
1002
{
1000
OWNER
1000
GEN
1002
}
  0
ARC
  5
1960
  8
240
 10
163.0000000000054
 20
42.115981118655327
 30
0.0
 40
2.0
 50
0.0
 51
74.999999999955222
1001
GENIUS_GENODEF_13
1002
{
1000
HIER
1070
     0
1002
}
1002
{
1000
MANEDIT
1070
     0
1002
}
1002
{
1000
NOSEL
1070
     0
1002
}
1002
{
1000
BEHIND
1070
     0
1002
}
1002
{
1000
OTHER
1070
     0
1002
}
1002
{
1000
REACTOR
1002
}
1001
GENIUS_GENOBJ-N-FIL_13
1002
{
1000
OWNER
1000
GEN
1002
}
  0
LINE
  5
1961
  8
240
 10
154.4074982127531
 20
46.488887394336409
 30
0.0
 11
163.5176380902121
 21
44.047832771233509
 31
0.0
  0
ARC
  5
1962
  8
240
 10
150.52521253621299
 20
32.000000000001819
 30
0.0
 40
15.0
 50
75.000000000005556
 51
90.0
1001
GENIUS_GENOBJ-N-FIL_13
1002
{
1000
OWNER
1000
GEN
1002
}
1001
GENIUS_GENODEF_13
1002
{
1000
HIER
1070
     0
1002
}
1002
{
1000
MANEDIT
1070
     0
1002
}
1002
{
1000
NOSEL
1070
     0
1002
}
1002
{
1000
BEHIND
1070
     0
1002
}
1002
{
1000
OTHER
1070
     0
1002
}
1002
{
1000
REACTOR
1002
}
  0
LINE
  5
1963
  8
240
 10
46.000000000003631
 20
46.999999999996817
 30
0.0
 11
117.200000000008
 21
47.0
 31
0.0
  0
LINE
  5
1964
  8
245
  6
CENTER2
 10
-49.999999999998181
 20
0.0
 30
0.0
 11
172.23348356276199
 21
0.0
 31
0.0
  0
LINE
  5
1965
  8
245
  6
CENTER2
 10
99.000000000003638
 20
-14.75620134992363
 30
0.0
 11
99.000000000003624
 21
11.962073767418071
 31
0.0
1001
GENIUS_GENOREF_13
1005
19D6
  0
LINE
  5
1966
  8
241
 10
120.200000000008
 20
-47.0
 30
0.0
 11
120.200000000008
 21
47.0
 31
0.0
  0
LINE
  5
1967
  8
241
 10
121.8000000000138
 20
-47.0
 30
0.0
 11
121.8000000000138
 21
47.0
 31
0.0
  0
LINE
  5
1968
  8
241
 10
117.200000000008
 20
-47.0
 30
0.0
 11
117.200000000008
 21
47.0
 31
0.0
  0
LINE
  5
1969
  8
241
 10
118.80000000000651
 20
-46.999999999998181
 30
0.0
 11
118.80000000000651
 21
46.999999999998167
 31
0.0
  0
ARC
  5
196A
  8
240
 10
46.000000000003631
 20
-45.999999999996362
 30
0.0
 40
1.0
 50
180.0
 51
270.0
1001
GENIUS_GENODEF_13
1002
{
1000
HIER
1070
     0
1002
}
1002
{
1000
MANEDIT
1070
     0
1002
}
1002
{
1000
NOSEL
1070
     0
1002
}
1002
{
1000
BEHIND
1070
     0
1002
}
1002
{
1000
OTHER
1070
     0
1002
}
1002
{
1000
REACTOR
1002
}
1001
GENIUS_GENOBJ-N-FIL_13
1002
{
1000
OWNER
1000
GEN
1002
}
  0
LINE
  5
196B
  8
240
 10
29.0
 20
-42.5
 30
0.0
 11
45.000000000004597
 21
-42.5
 31
0.0
  0
LINE
  5
196C
  8
240
 10
29.0
 20
42.5
 30
0.0
 11
45.000000000004597
 21
42.5
 31
0.0
  0
LINE
  5
196D
  8
241
 10
45.000000000004597
 20
42.5
 30
0.0
 11
45.00000000002813
 21
-42.5
 31
0.0
  0
ARC
  5
196E
  8
240
 10
46.000000000003631
 20
45.999999999996362
 30
0.0
 40
1.0
 50
90.0
 51
180.0
1001
GENIUS_GENODEF_13
1002
{
1000
HIER
1070
     0
1002
}
1002
{
1000
MANEDIT
1070
     0
1002
}
1002
{
1000
NOSEL
1070
     0
1002
}
1002
{
1000
BEHIND
1070
     0
1002
}
1002
{
1000
OTHER
1070
     0
1002
}
1002
{
1000
REACTOR
1002
}
1001
GENIUS_GENOBJ-N-FIL_13
1002
{
1000
OWNER
1000
GEN
1002
}
  0
LINE
  5
196F
  8
241
 10
152.50000000003089
 20
-46.869438942770557
 30
0.0
 11
152.50000000002731
 21
46.86943894277146
 31
0.0
  0
LINE
  5
1970
  8
240
 10
118.8000000000047
 20
46.999999999998181
 30
0.0
 11
118.0000000000072
 21
46.538119784649098
 31
0.0
  0
LINE
  5
1971
  8
240
 10
117.200000000008
 20
47.0
 30
0.0
 11
118.0000000000072
 21
46.538119784649098
 31
0.0
  0
LINE
  5
1972
  8
240
 10
118.80000000000651
 20
46.999999999998181
 30
0.0
 11
120.2000000000116
 21
46.999999999998181
 31
0.0
  0
LINE
  5
1973
  8
240
 10
120.20000000000429
 20
47.0
 30
0.0
 11
121.0000000000073
 21
46.53811978464676
 31
0.0
  0
LINE
  5
1974
  8
240
 10
121.8000000000102
 20
47.0
 30
0.0
 11
121.0000000000073
 21
46.53811978464676
 31
0.0
  0
LINE
  5
1975
  8
240
 10
118.8000000000047
 20
-46.999999999998181
 30
0.0
 11
118.0000000000072
 21
-46.538119784649098
 31
0.0
  0
LINE
  5
1976
  8
240
 10
117.200000000008
 20
-47.0
 30
0.0
 11
118.0000000000072
 21
-46.538119784649098
 31
0.0
  0
LINE
  5
1977
  8
240
 10
118.80000000000651
 20
-46.999999999998181
 30
0.0
 11
120.2000000000116
 21
-46.999999999998181
 31
0.0
  0
LINE
  5
1978
  8
240
 10
120.20000000000429
 20
-47.0
 30
0.0
 11
121.0000000000073
 21
-46.53811978464676
 31
0.0
  0
LINE
  5
1979
  8
240
 10
121.8000000000102
 20
-47.0
 30
0.0
 11
121.0000000000073
 21
-46.53811978464676
 31
0.0
  0
LINE
  5
197A
  8
241
 10
29.0
 20
42.5
 30
0.0
 11
29.0
 21
-42.5
 31
0.0
1001
GRPNAME
1000
PASTMD07
  0
LINE
  5
197B
  8
245
 10
-15.0
 20
-9.4548470758663221
 30
0.0
 11
-15.0
 21
9.9183158485010932
 31
0.0
1001
GRPNAME
1000
PASTMD07
  0
LINE
  5
197C
  8
241
 10
0.0
 20
-37.89999999999975
 30
0.0
 11
0.0
 21
37.89999999999992
 31
0.0
1001
GRPNAME
1000
PASTMD07
  0
ARC
  5
197D
  8
241
 10
15.0
 20
-0.0000000000000568
 30
0.0
 40
10.0
 50
89.999999981992673
 51
179.9999999819926
1001
GRPNAME
1000
PASTMD07
  0
LINE
  5
197E
  8
241
 10
-40.0
 20
13.72250391448568
 30
0.0
 11
-40.0
 21
8.0099999999999341
 31
0.0
1001
GRPNAME
1000
PASTMD07
  0
ARC
  5
197F
  8
243
 10
-37.0
 20
8.0099999999999341
 30
0.0
 40
1.9999999999999709
 50
0.0
 51
90.0
1001
GRPNAME
1000
PASTMD07
  0
ARC
  5
1980
  8
240
 10
-42.0
 20
8.0099999999999341
 30
0.0
 40
2.0
 50
0.0
 51
90.0
1001
GRPNAME
1000
PASTMD07
  0
CIRCLE
  5
1981
  8
241
 10
-15.0
 20
-0.0000000000000568
 30
0.0
 40
6.0
1001
GRPNAME
1000
PASTMD07
  0
LINE
  5
1982
  8
240
 10
-1.9999999999997149
 20
-37.900000000000041
 30
0.0
 11
-48.099875233887701
 21
-35.595006238305643
 31
0.0
1001
GRPNAME
1000
PASTMD07
  0
LINE
  5
1983
  8
240
 10
-50.0
 20
-33.597501560549922
 30
0.0
 11
-50.0
 21
-11.510000000000041
 31
0.0
1001
GRPNAME
1000
PASTMD07
  0
ARC
  5
1984
  8
240
 10
-48.0
 20
-33.597501560549922
 30
0.0
 40
2.0
 50
180.00000007197059
 51
267.13759484585989
1001
GRPNAME
1000
PASTMD07
  0
LINE
  5
1985
  8
240
 10
-48.5
 20
-10.010000000000041
 30
0.0
 11
-42.0
 21
-10.010000000000041
 31
0.0
1001
GRPNAME
1000
PASTMD07
  0
LINE
  5
1986
  8
241
 10
-50.0
 20
-14.45883579800573
 30
0.0
 11
-42.03487001120493
 21
-15.50711481825072
 31
0.0
1001
GRPNAME
1000
PASTMD07
  0
LINE
  5
1987
  8
240
 10
-48.5
 20
-10.010000000000041
 30
0.0
 11
-50.0
 21
-11.510000000000041
 31
0.0
1001
GRPNAME
1000
PASTMD07
  0
LINE
  5
1988
  8
240
 10
-40.0
 20
-8.0100000000000477
 30
0.0
 11
-40.0
 21
-0.0000000000000568
 31
0.0
1001
GRPNAME
1000
PASTMD07
  0
LINE
  5
1989
  8
243
 10
-35.0
 20
-8.0100000000000477
 30
0.0
 11
-35.0
 21
-0.0000000000000568
 31
0.0
1001
GRPNAME
1000
PASTMD07
  0
LINE
  5
198A
  8
243
 10
-42.0
 20
-10.010000000000041
 30
0.0
 11
-37.0
 21
-10.010000000000041
 31
0.0
1001
GRPNAME
1000
PASTMD07
  0
LINE
  5
198B
  8
241
 10
-40.0
 20
-13.72250391448579
 30
0.0
 11
-40.0
 21
-8.0100000000000477
 31
0.0
1001
GRPNAME
1000
PASTMD07
  0
ARC
  5
198C
  8
241
 10
-41.799999999999947
 20
-13.72250391448579
 30
0.0
 40
1.799999999999994
 50
262.50247636545851
 51
359.99999990936072
1001
GRPNAME
1000
PASTMD07
  0
ARC
  5
198D
  8
240
 10
-42.0
 20
-8.0100000000000477
 30
0.0
 40
2.0
 50
269.99999995112381
 51
359.99999995112381
1001
GRPNAME
1000
PASTMD07
  0
ARC
  5
198E
  8
243
 10
-37.0
 20
-8.0100000000000477
 30
0.0
 40
2.0
 50
269.99999995112381
 51
359.99999995112381
1001
GRPNAME
1000
PASTMD07
  0
LINE
  5
198F
  8
240
 10
-40.0
 20
8.0099999999999341
 30
0.0
 11
-40.0
 21
-0.0000000000000568
 31
0.0
1001
GRPNAME
1000
PASTMD07
  0
LINE
  5
1990
  8
243
 10
-35.0
 20
8.0099999999999341
 30
0.0
 11
-35.0
 21
-0.0000000000000568
 31
0.0
1001
GRPNAME
1000
PASTMD07
  0
LINE
  5
1991
  8
240
 10
29.0
 20
-49.00000000000005
 30
0.0
 11
29.0
 21
-42.5
 31
0.0
1001
GRPNAME
1000
PASTMD07
  0
LINE
  5
1992
  8
240
 10
21.875
 20
-47.62259526419183
 30
0.0
 11
23.247595264191641
 21
-50.000000000000071
 31
0.0
1001
GRPNAME
1000
PASTMD07
  0
LINE
  5
1993
  8
240
 10
18.125
 20
-47.62259526419183
 30
0.0
 11
16.752404735808341
 21
-50.000000000000071
 31
0.0
1001
GRPNAME
1000
PASTMD07
  0
LINE
  5
1994
  8
241
 10
16.752404735808341
 20
-50.000000000000071
 30
0.0
 11
16.752404735808341
 21
-38.829756630707891
 31
0.0
1001
GRPNAME
1000
PASTMD07
  0
LINE
  5
1995
  8
241
 10
23.247595264191641
 20
-50.000000000000071
 30
0.0
 11
23.247595264191641
 21
-38.829756630707891
 31
0.0
1001
GRPNAME
1000
PASTMD07
  0
LINE
  5
1996
  8
240
 10
0.0
 20
-49.00000000000005
 30
0.0
 11
0.0000000000000568
 21
-37.900000000000041
 31
0.0
1001
GRPNAME
1000
PASTMD07
  0
LINE
  5
1997
  8
240
 10
1.0
 20
-50.000000000000071
 30
0.0
 11
16.752404735808341
 21
-50.000000000000071
 31
0.0
1001
GRPNAME
1000
PASTMD07
  0
ARC
  5
1998
  8
240
 10
1.0
 20
-49.00000000000005
 30
0.0
 40
1.0
 50
180.00000007196411
 51
270.000000071974
1001
GRPNAME
1000
PASTMD07
  0
LINE
  5
1999
  8
240
 10
23.247595264191641
 20
-50.000000000000071
 30
0.0
 11
28.0
 21
-50.000000000000071
 31
0.0
1001
GRPNAME
1000
PASTMD07
  0
ARC
  5
199A
  8
240
 10
28.0
 20
-49.00000000000005
 30
0.0
 40
1.0
 50
269.99999995369677
 51
359.99999995369348
1001
GRPNAME
1000
PASTMD07
  0
ARC
  5
199B
  8
241
 10
15.0
 20
-0.0000000000000568
 30
0.0
 40
10.0
 50
180.00000007197059
 51
270.0000000719707
1001
GRPNAME
1000
PASTMD07
  0
ARC
  5
199C
  8
241
 10
14.636897859205069
 20
-41.500000000000043
 30
0.0
 40
10.0
 50
89.999999984565605
 51
164.51272598576961
1001
GRPNAME
1000
PASTMD07
  0
LINE
  5
199D
  8
241
 10
5.0
 20
-38.829756630707891
 30
0.0
 11
16.752404735808341
 21
-38.829756630707891
 31
0.0
1001
GRPNAME
1000
PASTMD07
  0
LINE
  5
199E
  8
241
 10
-2.0
 20
-37.900000000000041
 30
0.0
 11
-2.0
 21
37.89999999999992
 31
0.0
1001
GRPNAME
1000
PASTMD07
  0
LINE
  5
199F
  8
240
 10
-1.9999999999997149
 20
-37.900000000000041
 30
0.0
 11
0.0000000000000568
 21
-37.900000000000041
 31
0.0
  0
LINE
  5
19A0
  8
241
 10
16.752404735808341
 20
-31.50000000000006
 30
0.0
 11
16.752404735808341
 21
-10.00000000000005
 31
0.0
1001
GRPNAME
1000
PASTMD07
  0
LINE
  5
19A1
  8
241
 10
18.125
 20
-10.00000000000005
 30
0.0
 11
18.125
 21
-31.50000000000006
 31
0.0
1001
GRPNAME
1000
PASTMD07
  0
LINE
  5
19A2
  8
241
 10
21.875
 20
-10.00000000000005
 30
0.0
 11
21.875
 21
-31.50000000000006
 31
0.0
1001
GRPNAME
1000
PASTMD07
  0
LINE
  5
19A3
  8
241
 10
23.247595264191641
 20
-31.50000000000006
 30
0.0
 11
23.247595264191641
 21
-10.00000000000005
 31
0.0
1001
GRPNAME
1000
PASTMD07
  0
LINE
  5
19A4
  8
241
 10
23.247595264191641
 20
-38.829756630707891
 30
0.0
 11
29.0
 21
-38.829756630707891
 31
0.0
1001
GRPNAME
1000
PASTMD07
  0
LINE
  5
19A5
  8
241
 10
14.636897859205069
 20
-31.50000000000006
 30
0.0
 11
28.5
 21
-31.50000000000006
 31
0.0
1001
GRPNAME
1000
PASTMD07
  0
LINE
  5
19A6
  8
241
 10
21.875
 20
-33.522380583723532
 30
0.0
 11
21.875
 21
-47.00000000000005
 31
0.0
1001
GRPNAME
1000
PASTMD07
  0
LINE
  5
19A7
  8
241
 10
18.125
 20
-33.522380583723532
 30
0.0
 11
18.125
 21
-47.00000000000005
 31
0.0
1001
GRPNAME
1000
PASTMD07
  0
LINE
  5
19A8
  8
240
 10
19.125
 20
-46.000000000000043
 30
0.0
 11
20.874999999999989
 21
-46.000000000000043
 31
0.0
1001
GRPNAME
1000
PASTMD07
  0
ARC
  5
19A9
  8
240
 10
19.125
 20
-47.00000000000005
 30
0.0
 40
1.0
 50
89.999999981989404
 51
179.99999998198939
1001
GRPNAME
1000
PASTMD07
  0
LINE
  5
19AA
  8
240
 10
18.125
 20
-47.00000000000005
 30
0.0
 11
18.125
 21
-47.62259526419183
 31
0.0
1001
GRPNAME
1000
PASTMD07
  0
LINE
  5
19AB
  8
241
 10
16.752404735808341
 20
-38.829756630707891
 30
0.0
 11
18.125
 21
-35.716404910027393
 31
0.0
1001
GRPNAME
1000
PASTMD07
  0
ARC
  5
19AC
  8
240
 10
20.874999999999989
 20
-47.00000000000005
 30
0.0
 40
1.0
 50
0.0000000899747877
 51
90.000000089974762
1001
GRPNAME
1000
PASTMD07
  0
LINE
  5
19AD
  8
240
 10
21.875
 20
-47.00000000000005
 30
0.0
 11
21.875
 21
-47.62259526419183
 31
0.0
1001
GRPNAME
1000
PASTMD07
  0
LINE
  5
19AE
  8
241
 10
23.247595264191641
 20
-38.829756630707891
 30
0.0
 11
21.875
 21
-35.716404910027393
 31
0.0
1001
GRPNAME
1000
PASTMD07
  0
LINE
  5
19AF
  8
241
 10
18.125
 20
-33.522380583723532
 30
0.0
 11
21.875
 21
-33.522380583723532
 31
0.0
1001
GRPNAME
1000
PASTMD07
  0
LINE
  5
19B0
  8
241
 10
28.5
 20
-31.50000000000006
 30
0.0
 11
29.0
 21
-31.00000000000005
 31
0.0
1001
GRPNAME
1000
PASTMD07
  0
LINE
  5
19B1
  8
241
 10
15.0
 20
-10.00000000000005
 30
0.0
 11
28.5
 21
-10.00000000000005
 31
0.0
1001
GRPNAME
1000
PASTMD07
  0
LINE
  5
19B2
  8
241
 10
28.5
 20
-10.00000000000005
 30
0.0
 11
29.0
 21
-10.50000000000005
 31
0.0
1001
GRPNAME
1000
PASTMD07
  0
LINE
  5
19B3
  8
240
 10
-2.0000000000002842
 20
37.89999999999992
 30
0.0
 11
-48.099875233887701
 21
35.59500623830553
 31
0.0
1001
GRPNAME
1000
PASTMD07
  0
LINE
  5
19B4
  8
240
 10
-48.5
 20
10.009999999999931
 30
0.0
 11
-42.0
 21
10.009999999999931
 31
0.0
1001
GRPNAME
1000
PASTMD07
  0
LINE
  5
19B5
  8
241
 10
-50.0
 20
14.458835798005619
 30
0.0
 11
-42.03487001120493
 21
15.50711481825061
 31
0.0
1001
GRPNAME
1000
PASTMD07
  0
LINE
  5
19B6
  8
240
 10
-50.0
 20
11.509999999999931
 30
0.0
 11
-50.0
 21
33.597501560549802
 31
0.0
1001
GRPNAME
1000
PASTMD07
  0
LINE
  5
19B7
  8
240
 10
-48.5
 20
10.009999999999931
 30
0.0
 11
-50.0
 21
11.509999999999931
 31
0.0
1001
GRPNAME
1000
PASTMD07
  0
ARC
  5
19B8
  8
240
 10
-48.0
 20
33.597501560549802
 30
0.0
 40
2.0000000000000608
 50
92.862405229810491
 51
180.0000000036998
1001
GRPNAME
1000
PASTMD07
  0
LINE
  5
19B9
  8
243
 10
-42.0
 20
10.009999999999931
 30
0.0
 11
-37.0
 21
10.009999999999931
 31
0.0
1001
GRPNAME
1000
PASTMD07
  0
ARC
  5
19BA
  8
241
 10
-41.799999999999947
 20
13.72250391448568
 30
0.0
 40
1.8000000000000109
 50
0.0
 51
97.497523543899447
1001
GRPNAME
1000
PASTMD07
  0
LINE
  5
19BB
  8
240
 10
1.0
 20
49.999999999999929
 30
0.0
 11
16.752404735808341
 21
49.999999999999929
 31
0.0
1001
GRPNAME
1000
PASTMD07
  0
LINE
  5
19BC
  8
240
 10
-0.0000000000000568
 20
37.89999999999992
 30
0.0
 11
0.0
 21
48.99999999999995
 31
0.0
1001
GRPNAME
1000
PASTMD07
  0
LINE
  5
19BD
  8
240
 10
-2.0000000000002842
 20
37.89999999999992
 30
0.0
 11
-0.0000000000000568
 21
37.89999999999992
 31
0.0
  0
ARC
  5
19BE
  8
240
 10
1.0
 20
48.99999999999995
 30
0.0
 40
1.0
 50
89.999999984559096
 51
179.99999998456229
1001
GRPNAME
1000
PASTMD07
  0
LINE
  5
19BF
  8
241
 10
21.875
 20
9.9999999999999432
 30
0.0
 11
21.875
 21
46.999999999999929
 31
0.0
1001
GRPNAME
1000
PASTMD07
  0
LINE
  5
19C0
  8
241
 10
18.125
 20
9.9999999999999432
 30
0.0
 11
18.125
 21
46.999999999999929
 31
0.0
1001
GRPNAME
1000
PASTMD07
  0
LINE
  5
19C1
  8
241
 10
23.247595264191641
 20
49.999999999999929
 30
0.0
 11
23.247595264191641
 21
9.9999999999999432
 31
0.0
1001
GRPNAME
1000
PASTMD07
  0
LINE
  5
19C2
  8
241
 10
16.752404735808341
 20
49.999999999999929
 30
0.0
 11
16.752404735808341
 21
9.9999999999999432
 31
0.0
1001
GRPNAME
1000
PASTMD07
  0
LINE
  5
19C3
  8
241
 10
15.0
 20
9.9999999999999432
 30
0.0
 11
28.5
 21
9.9999999999999432
 31
0.0
1001
GRPNAME
1000
PASTMD07
  0
LINE
  5
19C4
  8
241
 10
28.5
 20
9.9999999999999432
 30
0.0
 11
29.0
 21
10.49999999999994
 31
0.0
1001
GRPNAME
1000
PASTMD07
  0
LINE
  5
19C5
  8
240
 10
23.247595264191641
 20
49.999999999999929
 30
0.0
 11
28.0
 21
49.999999999999929
 31
0.0
1001
GRPNAME
1000
PASTMD07
  0
LINE
  5
19C6
  8
240
 10
19.125
 20
45.999999999999929
 30
0.0
 11
20.874999999999989
 21
45.999999999999929
 31
0.0
1001
GRPNAME
1000
PASTMD07
  0
LINE
  5
19C7
  8
240
 10
18.125
 20
46.999999999999929
 30
0.0
 11
18.125
 21
47.622595264191709
 31
0.0
1001
GRPNAME
1000
PASTMD07
  0
ARC
  5
19C8
  8
240
 10
19.125
 20
46.999999999999929
 30
0.0
 40
1.0
 50
180.00000007196411
 51
270.000000071974
1001
GRPNAME
1000
PASTMD07
  0
LINE
  5
19C9
  8
240
 10
18.125
 20
47.622595264191709
 30
0.0
 11
16.752404735808341
 21
49.999999999999929
 31
0.0
1001
GRPNAME
1000
PASTMD07
  0
LINE
  5
19CA
  8
240
 10
21.875
 20
47.622595264191709
 30
0.0
 11
23.247595264191641
 21
49.999999999999929
 31
0.0
1001
GRPNAME
1000
PASTMD07
  0
LINE
  5
19CB
  8
240
 10
21.875
 20
46.999999999999929
 30
0.0
 11
21.875
 21
47.622595264191709
 31
0.0
1001
GRPNAME
1000
PASTMD07
  0
ARC
  5
19CC
  8
240
 10
20.874999999999989
 20
46.999999999999929
 30
0.0
 40
1.0
 50
269.99999995369677
 51
359.99999995369348
1001
GRPNAME
1000
PASTMD07
  0
LINE
  5
19CD
  8
240
 10
29.0
 20
42.5
 30
0.0
 11
29.0
 21
48.99999999999995
 31
0.0
1001
GRPNAME
1000
PASTMD07
  0
ARC
  5
19CE
  8
240
 10
28.0
 20
48.99999999999995
 30
0.0
 40
1.0
 50
0.0000000899813015
 51
90.000000089974762
1001
GRPNAME
1000
PASTMD07
  0
LINE
  5
19CF
  8
240
 10
45.000000000004597
 20
42.5
 30
0.0
 11
45.000000000003638
 21
45.999999999996078
 31
0.0
  0
LINE
  5
19D0
  8
240
 10
45.000000000004597
 20
-42.5
 30
0.0
 11
45.000000000003638
 21
-45.999999999996078
 31
0.0
  0
LINE
  5
19D1
  8
243
 10
45.000000000001819
 20
19.999999999997758
 30
0.0
 11
146.0
 21
19.999999999999389
 31
0.0
  0
LINE
  5
19D2
  8
243
 10
45.000000000001819
 20
19.999999999997758
 30
0.0
 11
45.000000000001819
 21
-0.0000000000000568
 31
0.0
  0
LINE
  5
19D3
  8
243
 10
165.0000000000048
 20
27.19999999999521
 30
0.0
 11
146.0
 21
27.19999999999521
 31
0.0
  0
LINE
  5
19D4
  8
243
 10
146.0
 20
27.19999999999521
 30
0.0
 11
146.0
 21
0.0
 31
0.0
  0
CIRCLE
  5
19D5
  8
241
 10
99.000000000003638
 20
0.0
 30
0.0
 40
9.5000000000036362
  0
POINT
  5
19D6
  8
0
 10
-12520.21565603775
 20
-893.28630002118359
 30
0.0
1001
GENIUS_GENOLIS_13
1002
{
1000
ENT
1005
0
1005
0
1005
1965
1005
0
1002
}
1001
GENIUS_GENOENT_13
1002
{
1000
MYREF
1005
19D6
1002
}
1002
{
1000
GRP
1005
0
1002
}
1001
GENIUS_GENOBJ-N-CRS_13
1002
{
1000
OWNER
1000
GEN
1002
}
1001
GENIUS_GENODEF_13
1002
{
1000
HIER
1070
    10
1002
}
1002
{
1000
MANEDIT
1070
     1
1002
}
1002
{
1000
NOSEL
1070
     0
1002
}
1002
{
1000
BEHIND
1070
     0
1002
}
1002
{
1000
OTHER
1070
     0
1002
}
1002
{
1000
REACTOR
1002
}
  0
ENDBLK
  5
19DA
  8
0
  0
BLOCK
  8
0
  2
*U5
 70
     1
 10
0.0
 20
0.0
 30
0.0
  3
*U5
  1

  0
TEXT
  5
1ACF
  8
250
 10
-53.28206231099233
 20
-48.1386442721153
 30
0.0
 40
3.0
  1
HSK-A100
  7
YOKO
  0
ENDBLK
  5
1AD1
  8
0
  0
ENDSEC
  0
SECTION
  2
ENTITIES
  0
TEXT
  5
1631
  8
241
 10
-48.716877975853997
 20
84.0
 30
0.0
 40
5.0
  1
HSK-A100-MGT36-165
  7
YOKO
  0
INSERT
  5
184F
  8
240
  2
*U5
 10
0.0
 20
0.0
 30
0.0
  0
LINE
  5
1850
  8
250
 10
-26.853490882420878
 20
-49.1386442721153
 30
0.0
 11
-55.710633739563768
 21
-49.1386442721153
 31
0.0
1001
ITEMNAME
1000
LNSP2
  0
LINE
  5
1930
  8
250
 10
0.0
 20
50.000000000002267
 30
0.0
 11
0.0000000000000013
 21
71.0
 31
0.0
  0
LINE
  5
1931
  8
250
 10
165.0000000000054
 20
42.615981118653963
 30
0.0
 11
165.0000000000054
 21
71.0
 31
0.0
  0
LINE
  5
1932
  8
250
 10
2.2300000000000009
 20
70.0
 30
0.0
 11
162.77000000000541
 21
70.0
 31
0.0
  0
LINE
  5
1936
  8
250
 10
151.0252125362131
 20
47.000000000001819
 30
0.0
 11
185.23348456276199
 21
47.000000000001812
 31
0.0
  0
LINE
  5
1937
  8
250
 10
151.0252125362131
 20
-47.000000000001819
 30
0.0
 11
185.23348456276199
 21
-47.000000000001833
 31
0.0
  0
LINE
  5
1938
  8
250
 10
184.23348456276199
 20
44.770000000001808
 30
0.0
 11
184.23348456276199
 21
-44.770000000001829
 31
0.0
  0
LINE
  5
193E
  8
250
 10
-20.96458349480621
 20
-38.938757475699042
 30
0.0
 11
-26.853490882420878
 21
-49.1386442721153
 31
0.0
1001
ACAD
1000
DSTYLE
1002
{
1070
     5
1000
OPEN
1070
    78
1070
     8
1070
   140
1040
3.0
1002
}
  0
LINE
  5
193F
  8
250
 10
-21.28645626987943
 20
-38.752924142365707
 30
0.0
 11
-19.849583494806211
 21
-37.007520825259753
 31
0.0
  0
LINE
  5
1940
  8
250
 10
-20.642710719733
 20
-39.124590809032377
 30
0.0
 11
-19.849583494806211
 21
-37.007520825259753
 31
0.0
  0
LINE
  5
1941
  8
250
 10
-19.849583494806211
 20
-37.007520825259753
 30
0.0
 11
-20.96458349480622
 21
-38.938757475699042
 31
0.0
  0
TEXT
  5
1942
  8
250
 10
78.300000000002726
 20
71.0
 30
0.0
 40
2.7999999999999989
  1
165
  0
LINE
  5
1943
  8
250
 10
162.77000000000541
 20
70.37166666666667
 30
0.0
 11
165.0000000000054
 21
70.0
 31
0.0
  0
LINE
  5
1944
  8
250
 10
162.77000000000541
 20
69.62833333333333
 30
0.0
 11
165.0000000000054
 21
70.0
 31
0.0
  0
LINE
  5
1945
  8
250
 10
165.0000000000054
 20
70.0
 30
0.0
 11
162.77000000000541
 21
70.0
 31
0.0
  0
LINE
  5
1946
  8
250
 10
2.2300000000000009
 20
69.62833333333333
 30
0.0
 11
0.0000000000000013
 21
70.0
 31
0.0
  0
LINE
  5
1947
  8
250
 10
2.2300000000000009
 20
70.37166666666667
 30
0.0
 11
0.0000000000000013
 21
70.0
 31
0.0
  0
LINE
  5
1948
  8
250
 10
0.0000000000000013
 20
70.0
 30
0.0
 11
2.2300000000000009
 21
70.0
 31
0.0
  0
TEXT
  5
1949
  8
250
 10
183.23348456276199
 20
-3.8666666666666418
 30
0.0
 40
2.7999999999999989
  1
\U+220594
 50
90.0
  0
LINE
  5
194A
  8
250
 10
184.6051512294286
 20
-44.770000000001829
 30
0.0
 11
184.23348456276199
 21
-47.000000000001833
 31
0.0
  0
LINE
  5
194B
  8
250
 10
183.86181789609529
 20
-44.770000000001829
 30
0.0
 11
184.23348456276199
 21
-47.000000000001833
 31
0.0
  0
LINE
  5
194C
  8
250
 10
184.23348456276199
 20
-47.000000000001833
 30
0.0
 11
184.23348456276199
 21
-44.770000000001829
 31
0.0
  0
LINE
  5
194D
  8
250
 10
183.86181789609529
 20
44.770000000001808
 30
0.0
 11
184.23348456276199
 21
47.000000000001812
 31
0.0
  0
LINE
  5
194E
  8
250
 10
184.6051512294286
 20
44.770000000001808
 30
0.0
 11
184.23348456276199
 21
47.000000000001812
 31
0.0
  0
LINE
  5
194F
  8
250
 10
184.23348456276199
 20
47.000000000001812
 30
0.0
 11
184.23348456276199
 21
44.770000000001808
 31
0.0
  0
INSERT
  5
19DC
  8
240
  2
A$C69BC205B
 10
0.0
 20
0.0
 30
0.0
  0
VIEWPORT
  5
22
 67
     1
  8
0
 10
261.51769911504419
 20
148.5
 30
0.0
 40
523.0353982300885
 41
297.0
 68
     1
 69
     1
1001
ACAD
1000
MVIEW
1002
{
1070
    16
1010
0.0
1020
0.0
1030
0.0
1010
0.0
1020
0.0
1030
1.0
1040
0.0
1040
297.0
1040
261.51769911504419
1040
148.5
1040
50.0
1040
0.0
1040
0.0
1070
     0
1070
   100
1070
     1
1070
     1
1070
     0
1070
     0
1070
     0
1070
     0
1040
0.0
1040
0.0
1040
0.0
1040
1.0
1040
1.0
1040
10.0
1040
10.0
1070
     0
1002
{
1002
}
1002
}
1001
GENIUS_GENODEF_13
1002
{
1000
HIER
1070
     0
1002
}
1002
{
1000
MANEDIT
1070
     0
1002
}
1002
{
1000
NOSEL
1070
     0
1002
}
1002
{
1000
BEHIND
1070
     0
1002
}
1002
{
1000
OTHER
1070
     0
1002
}
1002
{
1000
REACTOR
1002
}
1001
GENIUS_GENOBJ-N-SDF_13
1002
{
1000
OWNER
1000
GEN
1002
}
1001
GENIUS_GENSCREG_15
1000
PF
1040
1.0
1000
DF
1040
1.0
1000
MIN
1011
0.0
1021
-6.9992023226667475E+100
1031
0.0
1021
0.0
1031
0.0
1000
MAX
1011
523.0353982300885
1021
-6.9992023226667475E+100
1031
0.0
1021
297.0
1031
0.0
1000
FLAGS
1070
     2
  0
ENDSEC
  0
EOF
