  0
SECTION
  2
HEADER
  9
$ACADVER
  1
AC1009
  9
$INSBASE
 10
0.0
 20
0.0
 30
0.0
  9
$EXTMIN
 10
-55.2997036900000012
 20
-51.1206780055417909
 30
0.0
  9
$EXTMAX
 10
398.9999999999985221
 20
82.0000000000000426
 30
0.0
  9
$LIMMIN
 10
0.0
 20
0.0
  9
$LIMMAX
 10
297.0
 20
210.0
  9
$ORTHOMODE
 70
     1
  9
$REGENMODE
 70
     1
  9
$FILLMODE
 70
     1
  9
$QTEXTMODE
 70
     0
  9
$MIRRTEXT
 70
     1
  9
$DRAGMODE
 70
     2
  9
$LTSCALE
 40
10.0
  9
$OSMODE
 70
   807
  9
$ATTMODE
 70
     1
  9
$TEXTSIZE
 40
3.0
  9
$TRACEWID
 40
1.0
  9
$TEXTSTYLE
  7
YOKO
  9
$CLAYER
  8
240
  9
$CELTYPE
  6
BYLAYER
  9
$CECOLOR
 62
   256
  9
$DIMSCALE
 40
1.0
  9
$DIMASZ
 40
2.2299999999999991
  9
$DIMEXO
 40
0.5
  9
$DIMDLI
 40
7.0
  9
$DIMRND
 40
0.0
  9
$DIMDLE
 40
0.0
  9
$DIMEXE
 40
1.0
  9
$DIMTP
 40
0.0
  9
$DIMTM
 40
0.01
  9
$DIMTXT
 40
2.799999999999998
  9
$DIMCEN
 40
0.0
  9
$DIMTSZ
 40
0.0
  9
$DIMTOL
 70
     0
  9
$DIMLIM
 70
     0
  9
$DIMTIH
 70
     0
  9
$DIMTOH
 70
     0
  9
$DIMSE1
 70
     0
  9
$DIMSE2
 70
     0
  9
$DIMTAD
 70
     3
  9
$DIMZIN
 70
     9
  9
$DIMBLK
  1
OPEN
  9
$DIMASO
 70
     1
  9
$DIMSHO
 70
     1
  9
$DIMPOST
  1

  9
$DIMAPOST
  1

  9
$DIMALT
 70
     0
  9
$DIMALTD
 70
     2
  9
$DIMALTF
 40
25.3999999999999986
  9
$DIMLFAC
 40
1.0
  9
$DIMTOFL
 70
     1
  9
$DIMTVP
 40
0.0
  9
$DIMTIX
 70
     1
  9
$DIMSOXD
 70
     0
  9
$DIMSAH
 70
     0
  9
$DIMBLK1
  1

  9
$DIMBLK2
  1

  9
$DIMSTYLE
  2
BIGT
  9
$DIMCLRD
 70
   256
  9
$DIMCLRE
 70
   256
  9
$DIMCLRT
 70
    40
  9
$DIMTFAC
 40
1.0
  9
$DIMGAP
 40
1.0
  9
$LUNITS
 70
     2
  9
$LUPREC
 70
     3
  9
$SKETCHINC
 40
1.0
  9
$FILLETRAD
 40
0.0
  9
$AUNITS
 70
     0
  9
$AUPREC
 70
     3
  9
$MENU
  1
.
  9
$ELEVATION
 40
0.0
  9
$PELEVATION
 40
0.0
  9
$THICKNESS
 40
0.0
  9
$LIMCHECK
 70
     0
  9
$BLIPMODE
 70
     0
  9
$CHAMFERA
 40
0.25
  9
$CHAMFERB
 40
0.25
  9
$SKPOLY
 70
     0
  9
$TDCREATE
 40
2456584.6380902780219913
  9
$TDUPDATE
 40
2458292.6470833332277834
  9
$TDINDWG
 40
0.0111561574
  9
$TDUSRTIMER
 40
0.0111559838
  9
$USRTIMER
 70
     1
  9
$ANGBASE
 50
0.0
  9
$ANGDIR
 70
     0
  9
$PDMODE
 70
     1
  9
$PDSIZE
 40
0.0
  9
$PLINEWID
 40
0.0
  9
$COORDS
 70
     1
  9
$SPLFRAME
 70
     0
  9
$SPLINETYPE
 70
     6
  9
$SPLINESEGS
 70
     4
  9
$ATTDIA
 70
     1
  9
$ATTREQ
 70
     1
  9
$HANDLING
 70
     1
  9
$HANDSEED
  5
1A5A
  9
$SURFTAB1
 70
     6
  9
$SURFTAB2
 70
     6
  9
$SURFTYPE
 70
     6
  9
$SURFU
 70
     6
  9
$SURFV
 70
     6
  9
$UCSNAME
  2

  9
$UCSORG
 10
0.0
 20
0.0
 30
0.0
  9
$UCSXDIR
 10
1.0
 20
0.0
 30
0.0
  9
$UCSYDIR
 10
0.0
 20
1.0
 30
0.0
  9
$PUCSNAME
  2

  9
$PUCSORG
 10
0.0
 20
0.0
 30
0.0
  9
$PUCSXDIR
 10
1.0
 20
0.0
 30
0.0
  9
$PUCSYDIR
 10
0.0
 20
1.0
 30
0.0
  9
$USERI1
 70
     1
  9
$USERI2
 70
     0
  9
$USERI3
 70
     0
  9
$USERI4
 70
     0
  9
$USERI5
 70
     0
  9
$USERR1
 40
0.0
  9
$USERR2
 40
0.0
  9
$USERR3
 40
0.0
  9
$USERR4
 40
0.0
  9
$USERR5
 40
0.0
  9
$WORLDVIEW
 70
     1
  9
$SHADEDGE
 70
     3
  9
$SHADEDIF
 70
    70
  9
$TILEMODE
 70
     1
  9
$MAXACTVP
 70
    16
  9
$PLIMCHECK
 70
     0
  9
$PEXTMIN
 10
1.0000000000000000E+20
 20
1.0000000000000000E+20
 30
1.0000000000000000E+20
  9
$PEXTMAX
 10
-1.0000000000000000E+20
 20
-1.0000000000000000E+20
 30
-1.0000000000000000E+20
  9
$PLIMMIN
 10
0.0
 20
0.0
  9
$PLIMMAX
 10
420.0
 20
297.0
  9
$UNITMODE
 70
     0
  9
$VISRETAIN
 70
     1
  9
$PLINEGEN
 70
     0
  9
$PSLTSCALE
 70
     1
  0
ENDSEC
  0
SECTION
  2
TABLES
  0
TABLE
  2
VPORT
 70
     1
  0
VPORT
  2
*ACTIVE
 70
     0
 10
0.0
 20
0.0
 11
1.0
 21
1.0
 12
170.715224078832307
 22
9.2895089669358981
 13
0.0
 23
0.0
 14
7.0
 24
7.0
 15
7.0
 25
7.0
 16
0.0
 26
0.0
 36
1.0
 17
0.0
 27
0.0
 37
0.0
 40
316.7839218434841086
 41
1.887387387387387
 42
50.0
 43
0.0
 44
0.0
 50
0.0
 51
0.0
 71
     0
 72
  2000
 73
     1
 74
     0
 75
     0
 76
     0
 77
     0
 78
     0
  0
ENDTAB
  0
TABLE
  2
LTYPE
 70
    17
  0
LTYPE
  2
CONTINUOUS
 70
     0
  3
Solid line
 72
    65
 73
     0
 40
0.0
  0
LTYPE
  2
CENTER2
 70
     0
  3
___ _ ___ _ ___ _ ___ _ ___ _ ___ _ ___ _ ___ _
 72
    65
 73
     4
 40
1.125
 49
0.75
 49
-0.125
 49
0.125
 49
-0.125
  0
LTYPE
  2
HIDDEN2
 70
     0
  3
_ _ _ _ _ _ _ _ _ _ _ _ _ _ _ _ _ _ _ _ _ _ _ _
 72
    65
 73
     2
 40
0.1875
 49
0.125
 49
-0.0625
  0
LTYPE
  2
PHANTOM2
 70
     0
  3
___ _ _ ___ _ _ ___ _ _ ___ _ _ ___ _ _ ___ _ _
 72
    65
 73
     6
 40
1.25
 49
0.625
 49
-0.125
 49
0.125
 49
-0.125
 49
0.125
 49
-0.125
  0
LTYPE
  2
CENTER
 70
     0
  3
____ _ ____ _ ____ _ ____ _ ____ _ ____ _ ____ 
 72
    65
 73
     4
 40
2.0
 49
1.25
 49
-0.25
 49
0.25
 49
-0.25
  0
LTYPE
  2
AMCONSTR
 70
     0
  3
_______________________
 72
    65
 73
     2
 40
9999.0
 49
9999.0
 49
0.0
  0
LTYPE
  2
HIDDEN
 70
     0
  3
Hidden __ __ __ __ __ __ __ __ __ __ __ __ __ _
 72
    65
 73
     2
 40
9.5249999999999986
 49
6.349999999999997
 49
-3.174999999999998
  0
LTYPE
  2
AMZIGZAG2
 70
     0
  3
/\/-/\/-/\/-/\/-/\/-/\/
 72
    65
 73
     2
 40
0.4401
 49
0.0001
 49
-0.4400000000000002
  0
LTYPE
  2
ACANSTGB
 70
     0
  3
__ . . __ . .
 72
    65
 73
     6
 40
0.35433070866
 49
0.15748031496
 49
-0.03937007874
 49
0.03937007874
 49
-0.03937007874
 49
0.03937007874
 49
-0.03937007874
  0
LTYPE
  2
ACANSTGL
 70
     0
  3
_ _ _ _ _
 72
    65
 73
     2
 40
0.11811023622
 49
0.07874015748
 49
-0.03937007874
  0
ENDTAB
  0
TABLE
  2
LAYER
 70
     8
  0
LAYER
  2
0
 70
     0
 62
     7
  6
CONTINUOUS
  0
LAYER
  2
240
 70
     0
 62
     4
  6
CONTINUOUS
  0
LAYER
  2
DEFPOINTS
 70
     0
 62
     7
  6
CONTINUOUS
  0
LAYER
  2
245
 70
     0
 62
     2
  6
CENTER2
  0
LAYER
  2
241
 70
     0
 62
   211
  6
CONTINUOUS
  0
LAYER
  2
242
 70
     0
 62
     3
  6
CONTINUOUS
  0
LAYER
  2
243
 70
     0
 62
   211
  6
HIDDEN2
  0
LAYER
  2
250
 70
     0
 62
     3
  6
CONTINUOUS
  0
ENDTAB
  0
TABLE
  2
STYLE
 70
     7
  0
STYLE
  2
STANDARD
 70
     0
 40
0.0
 41
1.0
 50
0.0
 71
     0
 42
3.0
  3
romans.shx
  4
extfont.shx
  0
STYLE
  2
YOKO
 70
     0
 40
0.0
 41
1.0
 50
0.0
 71
     0
 42
3.0
  3
romans.shx
  4
extfont.shx
  0
STYLE
  2
ACANSGDT
 70
     0
 40
0.0
 41
1.0
 50
0.0
 71
     0
 42
3.0
  3
amgdt.shx
  4

  0
ENDTAB
  0
TABLE
  2
VIEW
 70
     0
  0
ENDTAB
  0
TABLE
  2
UCS
 70
     0
  0
ENDTAB
  0
TABLE
  2
APPID
 70
    36
  0
APPID
  2
ACAD
 70
     0
  0
APPID
  2
ACADANNOTATIVE
 70
     0
  0
APPID
  2
GLOBAL
 70
     0
  0
APPID
  2
DETAIL
 70
     0
  0
APPID
  2
GRPNAME
 70
     0
  0
APPID
  2
GPARA
 70
     0
  0
APPID
  2
MCAD_NO_VIS
 70
     0
  0
APPID
  2
ACAD_TEMP_GRAPHIC
 70
     0
  0
APPID
  2
ACATTRIBSERVICES
 70
     0
  0
APPID
  2
GENIUS_GENSCREG_15
 70
     0
  0
APPID
  2
GENIUS_GENODEF_13
 70
     0
  0
APPID
  2
GENIUS_GENOBJ-N-SDF_13
 70
     0
  0
APPID
  2
GENIUS_GENREC_14
 70
     0
  0
APPID
  2
GENIUS_GENOBJ-N-REC_13
 70
     0
  0
APPID
  2
GENIUS_GENDIMSH_14
 70
     0
  0
APPID
  2
GENIUS_GENOBJ-N-DIM_13
 70
     0
  0
APPID
  2
GENIUS_GENDIM_13
 70
     0
  0
APPID
  2
GENIUS_GENDTOL_13
 70
     0
  0
APPID
  2
GENIUS_GENOLIS_13
 70
     0
  0
APPID
  2
GENIUS_GENOENT_13
 70
     0
  0
APPID
  2
GENIUS_GENOBJ-F-FEM_13
 70
     0
  0
APPID
  2
GENIUS_GENOREF_13
 70
     0
  0
APPID
  2
GENIUS_GEFFEM_13
 70
     0
  0
APPID
  2
GENIUS_GEFFEMP_13
 70
     0
  0
APPID
  2
AD_DRAW
 70
     0
  0
APPID
  2
DESIGNERASSEMBLIES
 70
     0
  0
APPID
  2
ACADM_DIM_EDIT
 70
     0
  0
APPID
  2
AMDT_DM_ADJ
 70
     0
  0
APPID
  2
GENIUS_GENOBJ-N-FIL_13
 70
     0
  0
APPID
  2
GENIUS_GENFIL_13
 70
     0
  0
APPID
  2
ITEMNAME
 70
     0
  0
APPID
  2
ACAD_DSTYLE_DIMBREAK
 70
     0
  0
APPID
  2
ACAD_DSTYLE_DIMJAG
 70
     0
  0
APPID
  2
ACAD_NAV_VCDISPLAY
 70
     0
  0
APPID
  2
ACAD_EXEMPT_FROM_CAD_STANDARDS
 70
     0
  0
APPID
  2
ACAD_MLEADERVER
 70
     0
  0
ENDTAB
  0
TABLE
  2
DIMSTYLE
 70
     9
  0
DIMSTYLE
  2
STANDARD
 70
     0
  3

  4

  5

  6

  7

 40
1.0
 41
0.18
 42
0.0625
 43
0.38
 44
0.18
 45
0.0
 46
0.0
 47
0.0
 48
0.0
140
0.18
141
0.09
142
0.0
143
25.3999999999999986
144
1.0
145
0.0
146
1.0
147
0.09
 71
     0
 72
     0
 73
     1
 74
     1
 75
     0
 76
     0
 77
     0
 78
     0
170
     0
171
     2
172
     0
173
     0
174
     0
175
     0
176
     0
177
     0
178
     0
  0
DIMSTYLE
  2
BIGT
 70
     0
  3

  4

  5

  6

  7

 40
1.0
 41
2.2299999999999991
 42
0.5
 43
7.0
 44
1.0
 45
0.0
 46
0.0
 47
0.0
 48
0.01
140
2.799999999999998
141
0.0
142
0.0
143
25.3999999999999986
144
1.0
145
0.0
146
1.0
147
1.0
 71
     0
 72
     0
 73
     0
 74
     0
 75
     0
 76
     0
 77
     3
 78
     9
170
     0
171
     2
172
     1
173
     0
174
     1
175
     0
176
   256
177
   256
178
    40
  0
DIMSTYLE
  2
AM_ANSI
 70
     0
  3

  4
mm
  5

  6

  7

 40
1.0
 41
0.1
 42
0.05
 43
0.5
 44
0.1
 45
0.0
 46
0.0
 47
0.1
 48
0.1
140
0.12
141
0.0
142
0.0
143
25.3999999999999986
144
1.0
145
0.0
146
0.71
147
0.06
 71
     0
 72
     0
 73
     1
 74
     1
 75
     0
 76
     0
 77
     0
 78
     7
170
     0
171
     2
172
     0
173
     0
174
     0
175
     0
176
   256
177
   256
178
     2
  0
DIMSTYLE
  2
AM_ANSI$3
 70
     0
  3

  4
mm
  5

  6

  7

 40
1.0
 41
0.1
 42
0.05
 43
0.5
 44
0.1
 45
0.0
 46
0.0
 47
0.1
 48
0.1
140
0.12
141
0.0
142
0.0
143
25.3999999999999986
144
1.0
145
0.0
146
0.71
147
0.06
 71
     0
 72
     0
 73
     1
 74
     1
 75
     0
 76
     0
 77
     0
 78
     7
170
     0
171
     2
172
     0
173
     0
174
     0
175
     0
176
   256
177
   256
178
     2
  0
DIMSTYLE
  2
AM_ANSI$4
 70
     0
  3

  4
mm
  5

  6

  7

 40
1.0
 41
0.1
 42
0.05
 43
0.5
 44
0.1
 45
0.0
 46
0.0
 47
0.1
 48
0.1
140
0.12
141
0.0
142
0.0
143
25.3999999999999986
144
1.0
145
0.0
146
0.71
147
0.06
 71
     0
 72
     0
 73
     1
 74
     1
 75
     0
 76
     0
 77
     0
 78
     7
170
     0
171
     2
172
     0
173
     0
174
     0
175
     0
176
   256
177
   256
178
     2
  0
DIMSTYLE
  2
AM_ANSI$7
 70
     0
  3

  4
mm
  5

  6

  7

 40
1.0
 41
0.1
 42
0.05
 43
0.5
 44
0.1
 45
0.0
 46
0.0
 47
0.1
 48
0.1
140
0.24
141
0.0
142
0.0
143
25.3999999999999986
144
1.0
145
0.0
146
0.71
147
0.06
 71
     0
 72
     0
 73
     1
 74
     1
 75
     0
 76
     0
 77
     0
 78
     7
170
     0
171
     2
172
     0
173
     0
174
     0
175
     0
176
   256
177
   256
178
     2
  0
DIMSTYLE
  2
AM_ANSI$SF
 70
     0
  3

  4
mm
  5

  6

  7

 40
1.0
 41
0.1
 42
0.05
 43
0.5
 44
0.1
 45
0.0
 46
0.0
 47
0.1
 48
0.1
140
0.12
141
0.0
142
0.0
143
25.3999999999999986
144
1.0
145
0.0
146
0.71
147
0.06
 71
     0
 72
     0
 73
     1
 74
     1
 75
     1
 76
     1
 77
     0
 78
     7
170
     0
171
     2
172
     0
173
     0
174
     0
175
     0
176
   256
177
   256
178
     2
  0
DIMSTYLE
  2
AM_ANSI$SH
 70
     0
  3

  4
mm
  5

  6

  7

 40
1.0
 41
0.1
 42
0.05
 43
0.5
 44
0.1
 45
0.0
 46
0.0
 47
0.1
 48
0.1
140
0.12
141
0.0
142
0.0
143
25.3999999999999986
144
1.0
145
0.0
146
0.71
147
0.06
 71
     0
 72
     0
 73
     1
 74
     1
 75
     1
 76
     1
 77
     0
 78
     7
170
     0
171
     2
172
     0
173
     1
174
     0
175
     0
176
   256
177
   256
178
     2
  0
ENDTAB
  0
ENDSEC
  0
SECTION
  2
BLOCKS
  0
BLOCK
  8
0
  2
$MODEL_SPACE
 70
     0
 10
0.0
 20
0.0
 30
0.0
  3
$MODEL_SPACE
  1

  0
ENDBLK
  5
193E
  8
0
  0
BLOCK
 67
     1
  8
0
  2
$PAPER_SPACE
 70
     0
 10
0.0
 20
0.0
 30
0.0
  3
$PAPER_SPACE
  1

  0
ENDBLK
  5
193A
 67
     1
  8
0
  0
BLOCK
  8
0
  2
_OPEN
 70
     0
 10
0.0
 20
0.0
 30
0.0
  3
_OPEN
  1

  0
LINE
  5
1746
  8
0
  6
BYBLOCK
 62
     0
 10
-1.0
 20
0.1666666666666666
 30
0.0
 11
0.0
 21
0.0
 31
0.0
  0
LINE
  5
1747
  8
0
  6
BYBLOCK
 62
     0
 10
-1.0
 20
-0.1666666666666666
 30
0.0
 11
0.0
 21
0.0
 31
0.0
  0
LINE
  5
1748
  8
0
  6
BYBLOCK
 62
     0
 10
0.0
 20
0.0
 30
0.0
 11
-1.0
 21
0.0
 31
0.0
  0
ENDBLK
  5
1749
  8
0
  0
BLOCK
  8
0
  2
_ACMFILLEDHALF
 70
     0
 10
0.0
 20
0.0
 30
0.0
  3
_ACMFILLEDHALF
  1

  0
TRACE
  5
19DA
  8
240
 62
     0
 10
-0.8
 20
0.0
 30
0.0
 11
-1.0
 21
0.166666666
 31
0.0
 12
0.0
 22
0.0
 32
0.0
 13
0.0
 23
0.0
 33
0.0
  0
LINE
  5
19DB
  8
240
 62
     0
 10
-1.0
 20
0.0
 30
0.0
 11
-0.8
 21
0.0
 31
0.0
  0
ENDBLK
  5
19D9
  8
0
  0
ENDSEC
  0
SECTION
  2
ENTITIES
  0
LINE
  5
140A
  8
241
 10
36.9999999999998934
 20
-37.0000000000094076
 30
0.0
 11
36.9999999999994102
 21
37.0000000000089528
 31
0.0
  0
LINE
  5
140B
  8
240
 10
328.5669872981061985
 20
-31.9999999999972395
 30
0.0
 11
41.9999999999998579
 21
-32.0000000000094076
 31
0.0
  0
LINE
  5
140C
  8
240
 10
328.566987298114384
 20
31.9999999999980709
 30
0.0
 11
41.9999999999990905
 21
31.9999999999989306
 31
0.0
  0
LINE
  5
140F
  8
240
 10
328.9999999999985221
 20
-31.7499999999972395
 30
0.0
 11
378.2499999999985221
 21
-31.7499999999972395
 31
0.0
  0
LINE
  5
1411
  8
240
 10
328.9999999999985221
 20
31.7500000000027285
 30
0.0
 11
378.2499999999985221
 21
31.7500000000027285
 31
0.0
  0
LINE
  5
1412
  8
240
  6
CONTINUOUS
 10
328.5669872981061985
 20
-31.9999999999972395
 30
0.0
 11
307.7011188341842853
 21
-31.9999999999972395
 31
0.0
  0
LINE
  5
1413
  8
241
  6
CONTINUOUS
 10
328.9999999999985221
 20
-31.7499999999972395
 30
0.0
 11
328.9999999999985221
 21
31.7499999999932001
 31
0.0
  0
LINE
  5
1415
  8
240
 10
328.9999999999985221
 20
-31.7499999999972395
 30
0.0
 11
328.5669872981061985
 21
-31.9999999999972395
 31
0.0
  0
LINE
  5
1416
  8
240
  6
CONTINUOUS
 10
328.5669872981061985
 20
32.0000000000027498
 30
0.0
 11
306.4298013736088251
 21
32.0000000000027498
 31
0.0
  0
LINE
  5
1417
  8
240
 10
328.9999999999985221
 20
31.7500000000027285
 30
0.0
 11
328.5669872981061985
 21
32.0000000000027498
 31
0.0
  0
LINE
  5
1418
  8
240
 10
378.9999999999985221
 20
30.9999999999976197
 30
0.0
 11
378.9999999999985221
 21
-30.9999999999972395
 31
0.0
  0
LINE
  5
141E
  8
240
 10
378.9999999999985221
 20
-30.9999999999972395
 30
0.0
 11
378.2499999999985221
 21
-31.7499999999972395
 31
0.0
  0
LINE
  5
1428
  8
240
 10
378.9999999999985221
 20
31.0000000000027285
 30
0.0
 11
378.2499999999985221
 21
31.7500000000027285
 31
0.0
  0
LINE
  5
142D
  8
243
 10
336.349999999998488
 20
5.0000000000008882
 30
0.0
 11
165.5773502691901058
 21
4.9999999999989484
 31
0.0
  0
LINE
  5
1434
  8
245
 10
337.6499999999984993
 20
0.0000000000008811
 30
0.0
 11
384.4625129794608256
 21
0.0000000000013074
 31
0.0
  0
LINE
  5
143C
  8
243
 10
336.349999999998488
 20
18.0000000000012506
 30
0.0
 11
336.3499999999983743
 21
-17.9999999999987388
 31
0.0
  0
ARC
  5
1449
  8
240
  6
CONTINUOUS
 10
41.9999999999990905
 20
36.99999999999892
 30
0.0
 40
5.0
 50
180.0
 51
270.0
1001
GENIUS_GENOBJ-N-FIL_13
1002
{
1000
OWNER
1000
GEN
1002
}
1001
GENIUS_GENODEF_13
1002
{
1000
HIER
1070
     0
1002
}
1002
{
1000
MANEDIT
1070
     0
1002
}
1002
{
1000
NOSEL
1070
     0
1002
}
1002
{
1000
BEHIND
1070
     0
1002
}
1002
{
1000
OTHER
1070
     0
1002
}
1002
{
1000
REACTOR
1002
}
  0
ARC
  5
144A
  8
240
  6
CONTINUOUS
 10
41.9999999999998579
 20
-37.0000000000094076
 30
0.0
 40
5.0
 50
90.0
 51
180.0
1001
GENIUS_GENOREF_13
1005
0
  0
LINE
  5
1454
  8
240
 10
-50.0
 20
0.0
 30
0.0
 11
-50.0
 21
33.5975015605499721
 31
0.0
1001
GRPNAME
1000
PASTMD0M
  0
LINE
  5
1458
  8
240
 10
28.4999999999998899
 20
-50.0
 30
0.0
 11
23.2475952641916592
 21
-50.0
 31
0.0
1001
GRPNAME
1000
PASTMD0M
  0
LINE
  5
1459
  8
240
 10
-2.0
 20
-37.8999999999999773
 30
0.0
 11
-48.0998752338877011
 21
-35.5950062383055865
 31
0.0
1001
GRPNAME
1000
PASTMD0M
  0
LINE
  5
145A
  8
240
 10
-50.0
 20
-33.5975015605499721
 30
0.0
 11
-50.0
 21
0.0
 31
0.0
1001
GRPNAME
1000
PASTMD0M
  0
ARC
  5
145B
  8
240
 10
-48.0
 20
-33.5975015605499721
 30
0.0
 40
2.0
 50
179.9999999833312074
 51
267.1375947572238942
1001
GRPNAME
1000
PASTMD0M
  0
LINE
  5
145C
  8
245
 10
20.0
 20
-51.1206780055417909
 30
0.0
 11
20.0
 21
51.1206780055415422
 31
0.0
  0
LINE
  5
145D
  8
241
 10
23.2475952641915491
 20
-50.0
 30
0.0
 11
23.2475952641915384
 21
31.5000000000000107
 31
0.0
1001
GRPNAME
1000
PASTMD0M
  0
LINE
  5
145E
  8
241
 10
21.875
 20
-46.0
 30
0.0
 11
21.875
 21
31.5
 31
0.0
1001
GRPNAME
1000
PASTMD0M
  0
LINE
  5
145F
  8
241
 10
18.125
 20
-46.0
 30
0.0
 11
18.125
 21
31.5000000000000213
 31
0.0
1001
GRPNAME
1000
PASTMD0M
  0
LINE
  5
1463
  8
240
 10
16.7524047358083408
 20
-50.0
 30
0.0
 11
0.5
 21
-50.0
 31
0.0
1001
GRPNAME
1000
PASTMD0M
  0
LINE
  5
1464
  8
240
 10
0.0
 20
-49.5
 30
0.0
 11
0.0000000000169735
 21
-37.8999999999999773
 31
0.0
1001
GRPNAME
1000
PASTMD0M
  0
ARC
  5
1465
  8
240
 10
0.5
 20
-49.5
 30
0.0
 40
0.5
 50
180.000000002569692
 51
270.0000000025730174
1001
GRPNAME
1000
PASTMD0M
  0
LINE
  5
146A
  8
240
 10
18.125
 20
-47.6225952641917729
 30
0.0
 11
16.7524047358083408
 21
-50.0
 31
0.0
1001
GRPNAME
1000
PASTMD0M
  0
LINE
  5
146B
  8
240
 10
21.875
 20
-47.6225952641917729
 30
0.0
 11
23.2475952641916592
 21
-50.0
 31
0.0
1001
GRPNAME
1000
PASTMD0M
  0
LINE
  5
146D
  8
240
 10
18.125
 20
-46.0
 30
0.0
 11
18.125
 21
-47.6225952641917729
 31
0.0
1001
GRPNAME
1000
PASTMD0M
  0
LINE
  5
146F
  8
240
 10
21.875
 20
-46.0
 30
0.0
 11
18.125
 21
-46.0
 31
0.0
1001
GRPNAME
1000
PASTMD0M
  0
LINE
  5
1470
  8
240
 10
21.875
 20
-46.0
 30
0.0
 11
21.875
 21
-47.6225952641917729
 31
0.0
1001
GRPNAME
1000
PASTMD0M
  0
LINE
  5
1472
  8
241
 10
28.9999999999998899
 20
-42.7000000000000384
 30
0.0
 11
28.9999999999998899
 21
42.6999999999996831
 31
0.0
1001
GRPNAME
1000
PASTMD0M
  0
LINE
  5
1473
  8
240
 10
28.9999999999998899
 20
-49.5
 30
0.0
 11
28.9999999999998899
 21
-42.7000000000000384
 31
0.0
1001
GRPNAME
1000
PASTMD0M
  0
ARC
  5
1474
  8
240
 10
28.4999999999998899
 20
-49.5
 30
0.0
 40
0.5
 50
269.9999998945941115
 51
359.9999998945875745
1001
GRPNAME
1000
PASTMD0M
  0
LINE
  5
1475
  8
240
 10
29.1999999999998288
 20
-42.5
 30
0.0
 11
36.0000000000429665
 21
-42.5
 31
0.0
  0
ARC
  5
1476
  8
240
 10
29.1999999999998288
 20
-42.7000000000000384
 30
0.0
 40
0.1999999999999886
 50
90.0
 51
180.0
  0
LINE
  5
147A
  8
243
 10
28.9999999999998899
 20
44.0
 30
0.0
 11
4.9999999999993161
 21
44.0
 31
0.0
1001
GRPNAME
1000
PASTMD0M
  0
LINE
  5
147B
  8
240
 10
28.5
 20
50.0
 30
0.0
 11
23.2475952641915491
 21
50.0
 31
0.0
1001
GRPNAME
1000
PASTMD0M
  0
LINE
  5
147D
  8
240
 10
-2.0
 20
37.9000000000000981
 30
0.0
 11
-48.0998752338877011
 21
35.5950062383055865
 31
0.0
1001
GRPNAME
1000
PASTMD0M
  0
ARC
  5
1484
  8
240
 10
-48.0
 20
33.5975015605499721
 30
0.0
 40
2.0000000000000191
 50
92.8624051341731587
 51
179.9999999080644955
1001
GRPNAME
1000
PASTMD0M
  0
LINE
  5
148E
  8
240
 10
16.7524047358083408
 20
50.0
 30
0.0
 11
0.5
 21
50.0
 31
0.0
1001
GRPNAME
1000
PASTMD0M
  0
LINE
  5
148F
  8
240
 10
0.0
 20
37.9000000000000981
 30
0.0
 11
0.0
 21
49.5
 31
0.0
1001
GRPNAME
1000
PASTMD0M
  0
ARC
  5
1495
  8
240
 10
0.5
 20
49.5
 30
0.0
 40
0.5
 50
89.9999999048793455
 51
179.9999999048727943
1001
GRPNAME
1000
PASTMD0M
  0
LINE
  5
1497
  8
243
 10
4.9999999999993161
 20
44.0
 30
0.0
 11
4.9999999999993161
 21
50.0
 31
0.0
1001
GRPNAME
1000
PASTMD0M
  0
LINE
  5
1498
  8
240
 10
21.875
 20
47.6225952641917729
 30
0.0
 11
23.2475952641916592
 21
50.0
 31
0.0
1001
GRPNAME
1000
PASTMD0M
  0
LINE
  5
1499
  8
240
 10
18.125
 20
47.6225952641917729
 30
0.0
 11
16.7524047358083408
 21
50.0
 31
0.0
1001
GRPNAME
1000
PASTMD0M
  0
LINE
  5
149B
  8
240
 10
18.125
 20
46.0
 30
0.0
 11
18.125
 21
47.6225952641917729
 31
0.0
1001
GRPNAME
1000
PASTMD0M
  0
LINE
  5
149D
  8
240
 10
21.875
 20
46.0
 30
0.0
 11
18.125
 21
46.0
 31
0.0
1001
GRPNAME
1000
PASTMD0M
  0
LINE
  5
149E
  8
240
 10
21.875
 20
46.0
 30
0.0
 11
21.875
 21
47.6225952641917729
 31
0.0
1001
GRPNAME
1000
PASTMD0M
  0
LINE
  5
149F
  8
240
 10
28.9999999999998899
 20
42.7000000000000384
 30
0.0
 11
29.0
 21
49.5
 31
0.0
1001
GRPNAME
1000
PASTMD0M
  0
LINE
  5
14A0
  8
242
 10
29.4999999999998792
 20
41.0308203419673418
 30
0.0
 11
36.4999999999997726
 21
40.1784157463343874
 31
0.0
  0
LINE
  5
14A1
  8
242
 10
29.4999999999998792
 20
40.1784157463343874
 30
0.0
 11
36.1875929600753423
 21
41.013067195528258
 31
0.0
  0
LINE
  5
14A2
  8
241
 10
29.4999999999998792
 20
40.1784157463343874
 30
0.0
 11
36.4999999999997726
 21
40.1784157463343874
 31
0.0
  0
LINE
  5
14A3
  8
240
 10
29.4999999999998792
 20
41.0308203419673418
 30
0.0
 11
35.9999999999996589
 21
41.0308203419673418
 31
0.0
  0
LINE
  5
14A4
  8
241
 10
29.4999999999998792
 20
40.1784157463343874
 30
0.0
 11
29.4999999999998792
 21
41.0308203419673418
 31
0.0
  0
LINE
  5
14A5
  8
240
 10
29.4999999999998792
 20
41.0308203419673418
 30
0.0
 11
29.4999999999998792
 21
42.5
 31
0.0
  0
LINE
  5
14A6
  8
240
 10
29.1999999999998288
 20
42.5
 30
0.0
 11
29.4999999999998792
 21
42.5
 31
0.0
  0
ARC
  5
14A7
  8
240
 10
29.1999999999998288
 20
42.7000000000000384
 30
0.0
 40
0.1999999999999886
 50
180.0
 51
270.0
  0
LINE
  5
14A8
  8
241
 10
36.4999999999997726
 20
40.1784157463343874
 30
0.0
 11
36.4999999999997726
 21
40.8968457457280934
 31
0.0
  0
ARC
  5
14A9
  8
240
 10
28.5
 20
49.5
 30
0.0
 40
0.5
 50
0.0000000025729415
 51
90.0000000025663667
1001
GRPNAME
1000
PASTMD0M
  0
LINE
  5
14AA
  8
240
  6
CONTINUOUS
 10
37.0000000000429807
 20
-41.4999999999990621
 30
0.0
 11
36.9999999999998934
 21
-37.0000000000094076
 31
0.0
  0
ARC
  5
14AB
  8
240
  6
CONTINUOUS
 10
36.0000000000429665
 20
-41.4999999999990621
 30
0.0
 40
1.0
 50
270.0000000000032969
 51
0.0
  0
ARC
  5
14AC
  8
240
 10
35.9999999999997726
 20
40.0308203419674484
 30
0.0
 40
1.0
 50
0.0
 51
90.0
  0
LINE
  5
14AD
  8
240
 10
36.9999999999997726
 20
36.99999999999892
 30
0.0
 11
36.9999999999997726
 21
40.0308203419674484
 31
0.0
  0
LINE
  5
14AE
  8
245
 10
-55.0743411719557869
 20
0.0
 30
0.0
 11
337.6499999999984993
 21
0.0000000000008811
 31
0.0
1001
GRPNAME
1000
PASTMD0R
  0
LINE
  5
14FF
  8
250
 10
374.2345233399735207
 20
-40.8875826790957007
 30
0.0
 11
388.2345233399735207
 21
-40.8875826790957007
 31
0.0
1001
ITEMNAME
1000
LNSP2
  0
TEXT
  5
1500
  8
250
 10
376.8059519114021896
 20
-39.8875826790957433
 30
0.0
 40
3.0
  1
CK6
  7
YOKO
1001
ITEMNAME
1000
LNSP3
1001
ACAD
1000
MTEXTBEGIN
1070
    73
1070
     1
1070
    44
1040
1.0
1070
    74
1070
     0
1000
MTEXTEND
  0
LINE
  5
1501
  8
250
 10
368.0172979364089088
 20
-20.1361846333368995
 30
0.0
 11
374.2345233399735207
 21
-40.8875826790957007
 31
0.0
1001
ACAD
1000
DSTYLE
1002
{
1070
     5
1000
OPEN
1070
    78
1070
     8
1070
   140
1040
3.0
1002
}
  0
LINE
  5
1502
  8
250
 10
367.6612671641856878
 20
-20.2428532807520902
 30
0.0
 11
367.3772860519172809
 21
-17.9999999999987388
 31
0.0
  0
LINE
  5
1503
  8
250
 10
368.373328708631675
 20
-20.0295159859216696
 30
0.0
 11
367.3772860519172809
 21
-17.9999999999987388
 31
0.0
  0
LINE
  5
1504
  8
250
 10
367.3772860519172809
 20
-17.9999999999987388
 30
0.0
 11
368.0172979364089088
 21
-20.1361846333368995
 31
0.0
  0
LINE
  5
1505
  8
250
 10
378.7499999999984084
 20
31.7500000000027214
 30
0.0
 11
398.9999999999985221
 21
31.7500000000027214
 31
0.0
  0
LINE
  5
1506
  8
250
 10
378.7499999999984084
 20
-31.7499999999972395
 30
0.0
 11
398.9999999999985221
 21
-31.7499999999972395
 31
0.0
  0
LINE
  5
1507
  8
250
 10
397.9999999999985221
 20
29.5200000000027316
 30
0.0
 11
397.9999999999985221
 21
-29.5199999999972391
 31
0.0
  0
TEXT
  5
1508
  8
250
 10
396.9999999999985221
 20
-5.7999999999971932
 30
0.0
 40
2.799999999999998
  1
\U+220563.5
 50
90.0
  0
LINE
  5
1509
  8
250
 10
398.3716666666651918
 20
-29.5199999999972391
 30
0.0
 11
397.9999999999985221
 21
-31.7499999999972395
 31
0.0
  0
LINE
  5
150A
  8
250
 10
397.6283333333319092
 20
-29.5199999999972391
 30
0.0
 11
397.9999999999985221
 21
-31.7499999999972395
 31
0.0
  0
LINE
  5
150B
  8
250
 10
397.9999999999985221
 20
-31.7499999999972395
 30
0.0
 11
397.9999999999985221
 21
-29.5199999999972391
 31
0.0
  0
LINE
  5
150C
  8
250
 10
397.6283333333319092
 20
29.5200000000027316
 30
0.0
 11
397.9999999999985221
 21
31.7500000000027214
 31
0.0
  0
LINE
  5
150D
  8
250
 10
398.3716666666651918
 20
29.5200000000027316
 30
0.0
 11
397.9999999999985221
 21
31.7500000000027214
 31
0.0
  0
LINE
  5
150E
  8
250
 10
397.9999999999985221
 20
31.7500000000027214
 30
0.0
 11
397.9999999999985221
 21
29.5200000000027316
 31
0.0
  0
LINE
  5
150F
  8
243
 10
362.2999999999985903
 20
-25.1499999999987409
 30
0.0
 11
362.2999999999985903
 21
-17.9999999999987388
 31
0.0
  0
LINE
  5
1510
  8
243
 10
362.2999999999985903
 20
-25.1499999999987409
 30
0.0
 11
378.9999999999985221
 21
-25.1499999999987409
 31
0.0
  0
LINE
  5
1511
  8
241
 10
362.9999999999985221
 20
-3.464101615136419
 30
0.0
 11
365.9999999999985221
 21
-1.73205080756758
 31
0.0
1001
GRPNAME
1000
00000001
  0
CIRCLE
  5
1512
  8
242
 10
362.9999999999985221
 20
0.0000000000012577
 30
0.0
 40
6.0
  0
CIRCLE
  5
1513
  8
241
 10
362.9999999999985221
 20
0.0000000000012577
 30
0.0
 40
5.5
  0
LINE
  5
1514
  8
241
 10
365.9999999999985221
 20
1.7320508075701531
 30
0.0
 11
362.9999999999985221
 21
3.4641016151389361
 31
0.0
1001
GRPNAME
1000
00000001
  0
LINE
  5
1515
  8
243
 10
336.3499999999983743
 20
-17.9999999999987388
 30
0.0
 11
378.9999999999985221
 21
-17.9999999999987388
 31
0.0
  0
LINE
  5
1516
  8
241
 10
362.9999999999985221
 20
-3.464101615136419
 30
0.0
 11
359.9999999999984084
 21
-1.73205080756758
 31
0.0
1001
GRPNAME
1000
00000001
  0
LINE
  5
1517
  8
245
 10
362.9999999999985221
 20
8.588299000001264
 30
0.0
 11
362.9999999999985221
 21
-8.8958089999987209
 31
0.0
  0
LINE
  5
1518
  8
241
 10
359.9999999999984084
 20
1.732050807570096
 30
0.0
 11
359.9999999999984084
 21
-1.73205080756758
 31
0.0
1001
GRPNAME
1000
00000001
  0
LINE
  5
1519
  8
241
 10
359.9999999999984084
 20
1.732050807570096
 30
0.0
 11
362.9999999999985221
 21
3.4641016151389361
 31
0.0
1001
GRPNAME
1000
00000001
  0
LINE
  5
151A
  8
241
 10
365.9999999999985221
 20
1.7320508075701531
 30
0.0
 11
365.9999999999985221
 21
-1.73205080756758
 31
0.0
1001
GRPNAME
1000
00000001
  0
LINE
  5
151B
  8
243
 10
362.2999999999985903
 20
25.1500000000012989
 30
0.0
 11
378.9999999999985221
 21
25.1500000000012989
 31
0.0
  0
LINE
  5
151C
  8
243
 10
336.349999999998488
 20
18.0000000000012506
 30
0.0
 11
378.9999999999985221
 21
18.0000000000012506
 31
0.0
  0
LINE
  5
151D
  8
243
 10
362.2999999999985903
 20
25.1500000000012989
 30
0.0
 11
362.2999999999985903
 21
18.0000000000012506
 31
0.0
  0
LINE
  5
1528
  8
243
 10
336.3499999999983743
 20
-5.0000000000050191
 30
0.0
 11
165.5773502691901058
 21
-5.0000000000009832
 31
0.0
  0
LINE
  5
152D
  8
241
 10
16.7524047358089483
 20
49.9999999999997797
 30
0.0
 11
16.7524047358088204
 21
38.8297566300000128
 31
0.0
1001
GRPNAME
1000
PASTMD0M
  0
LINE
  5
152E
  8
241
 10
0.0
 20
37.9000000000000981
 30
0.0
 11
0.0
 21
-37.8999999999999773
 31
0.0
1001
GRPNAME
1000
PASTMD0M
  0
LINE
  5
152F
  8
241
 10
-1.999999999999533
 20
37.8999999999999986
 30
0.0
 11
-2.000000000000465
 21
-37.8999999999999915
 31
0.0
1001
GRPNAME
1000
PASTMD0M
  0
LINE
  5
1531
  8
240
 10
-2.0
 20
37.9000000000000981
 30
0.0
 11
0.0
 21
37.9000000000000981
 31
0.0
  0
LINE
  5
1533
  8
240
 10
-2.0
 20
-37.8999999999999773
 30
0.0
 11
0.0000000000169735
 21
-37.8999999999999773
 31
0.0
  0
LINE
  5
154C
  8
243
 10
-30.0033756700000005
 20
26.5000000000000107
 30
0.0
 11
-50.0
 21
26.5000000000000107
 31
0.0
1001
GRPNAME
1000
PASTMD19
  0
ARC
  5
154D
  8
243
 10
-9.4966925399999962
 20
19.5000000000000107
 30
0.0
 40
11.9999999980548804
 50
43.7127665700001131
 51
89.9999999399999666
1001
GRPNAME
1000
PASTMD19
  0
LINE
  5
154E
  8
243
 10
-9.4966925399999962
 20
31.5000000000000107
 30
0.0
 11
-26.5392740600000003
 21
31.5000000000000107
 31
0.0
1001
GRPNAME
1000
PASTMD19
  0
LINE
  5
154F
  8
243
 10
-30.0033756700000005
 20
26.5000000000000107
 30
0.0
 11
-27.4052994599999984
 21
31.0000000000000107
 31
0.0
1001
GRPNAME
1000
PASTMD19
  0
LINE
  5
1550
  8
243
 10
-40.0
 20
26.5000000000000107
 30
0.0
 11
-40.0
 21
36.2500000000000213
 31
0.0
1001
GRPNAME
1000
PASTMD19
  0
ARC
  5
1551
  8
243
 10
-26.5392740600000003
 20
30.5000000000000107
 30
0.0
 40
1.0
 50
90.0000000699998566
 51
150.0000000699997997
1001
GRPNAME
1000
PASTMD19
  0
LINE
  5
1552
  8
243
 10
-21.0
 20
31.5000000000000107
 30
0.0
 11
-21.0
 21
36.9500000000000171
 31
0.0
1001
GRPNAME
1000
PASTMD1J
  0
LINE
  5
1553
  8
243
 10
-9.0
 20
31.4897162800000103
 30
0.0
 11
-9.0
 21
37.5500000000000114
 31
0.0
1001
GRPNAME
1000
PASTMD1J
  0
LINE
  5
1554
  8
241
 10
5.0
 20
31.5000000000000107
 30
0.0
 11
29.0
 21
31.5000000000000107
 31
0.0
1001
GRPNAME
1000
PASTMD1F
  0
ARC
  5
1555
  8
241
 10
14.6368978599999995
 20
28.8297566300000092
 30
0.0
 40
9.9999999999997158
 50
90.0000000800001345
 51
164.5127260499999124
1001
GRPNAME
1000
PASTMD1F
  0
LINE
  5
1556
  8
241
 10
21.875
 20
36.452351890000017
 30
0.0
 11
23.2475952600000006
 21
38.8297566300000128
 31
0.0
1001
GRPNAME
1000
PASTMD1F
  0
LINE
  5
1557
  8
241
 10
18.125
 20
33.5000000000000071
 30
0.0
 11
21.875
 21
33.5000000000000071
 31
0.0
1001
GRPNAME
1000
PASTMD1F
  0
LINE
  5
1558
  8
241
 10
18.125
 20
36.452351890000017
 30
0.0
 11
16.7524047399999994
 21
38.8297566300000128
 31
0.0
1001
GRPNAME
1000
PASTMD1F
  0
LINE
  5
1559
  8
241
 10
14.6368978599999995
 20
38.8297566300000128
 30
0.0
 11
16.7524047399999994
 21
38.8297566300000128
 31
0.0
1001
GRPNAME
1000
PASTMD1F
  0
LINE
  5
155A
  8
241
 10
23.2475952600000006
 20
38.8297566300000128
 30
0.0
 11
29.0
 21
38.8297566300000128
 31
0.0
1001
GRPNAME
1000
PASTMD1F
  0
LINE
  5
156E
  8
241
 10
21.875
 20
33.5000000000000071
 30
0.0
 11
21.875
 21
45.9999999999997229
 31
0.0
1001
GRPNAME
1000
PASTMD0M
  0
LINE
  5
1570
  8
241
 10
18.125
 20
33.5000000000000071
 30
0.0
 11
18.125
 21
45.9999999999997726
 31
0.0
1001
GRPNAME
1000
PASTMD0M
  0
LINE
  5
1571
  8
241
 10
16.7524047358087316
 20
31.5
 30
0.0
 11
16.752404735807719
 21
-50.0
 31
0.0
1001
GRPNAME
1000
PASTMD0M
  0
LINE
  5
1572
  8
241
 10
23.2475952641915384
 20
38.8297566300000128
 30
0.0
 11
23.2475952641915491
 21
49.9999999999997016
 31
0.0
1001
GRPNAME
1000
PASTMD0M
  0
TEXT
  5
15BB
  8
241
 10
-45.0
 20
77.0000000000000142
 30
0.0
 40
5.0
  1
HSK-A100-CKB6DP-379
  7
YOKO
 11
-45.0
 21
77.0000000000000142
 31
0.0
 73
     1
1001
GRPNAME
1000
PASTMD0I
  0
LINE
  5
15BE
  8
250
 10
-28.3663703600000012
 20
-48.9718588199999516
 30
0.0
 11
-55.2997036900000012
 21
-48.9718588199999516
 31
0.0
1001
ITEMNAME
1000
LNSP2
  0
TEXT
  5
15C0
  8
250
 10
-53.0330370233333213
 20
-47.9718588199999232
 30
0.0
 40
2.799999999999998
  1
HSK-A100
  7
YOKO
1001
ITEMNAME
1000
LNSP3
  0
LINE
  5
15C3
  8
250
 10
0.0
 20
50.0
 30
0.0
 11
0.0000000000000009
 21
64.0
 31
0.0
  0
LINE
  5
15C4
  8
250
 10
378.9999999999985221
 20
31.499999999997609
 30
0.0
 11
378.9999999999985221
 21
64.0
 31
0.0
  0
LINE
  5
15C5
  8
250
 10
2.2299999999999991
 20
63.0
 30
0.0
 11
376.7699999999983902
 21
63.0
 31
0.0
  0
LINE
  5
15C9
  8
250
 10
-22.4724920002473105
 20
-38.7633620502964575
 30
0.0
 11
-28.3663703600000012
 21
-48.9718588199999516
 31
0.0
1001
ACAD
1000
DSTYLE
1002
{
1070
     6
1000
OPEN
1070
   343
1005
594
1002
}
  0
LINE
  5
15CA
  8
250
 10
-22.7943647752967209
 20
-38.577528716921897
 30
0.0
 11
-21.3574920000000006
 21
-36.8321253999999385
 31
0.0
  0
LINE
  5
15CB
  8
250
 10
-22.1506192251978788
 20
-38.9491953836709968
 30
0.0
 11
-21.3574920000000006
 21
-36.8321253999999385
 31
0.0
  0
LINE
  5
15CC
  8
250
 10
-21.3574920000000006
 20
-36.8321253999999385
 30
0.0
 11
-22.4724920002473105
 21
-38.7633620502964575
 31
0.0
  0
TEXT
  5
15CD
  8
250
 10
185.5666666666658955
 20
64.0
 30
0.0
 40
2.799999999999998
  1
379
  0
LINE
  5
15CE
  8
250
 10
376.7699999999983902
 20
63.3716666666666697
 30
0.0
 11
378.9999999999985221
 21
63.0
 31
0.0
  0
LINE
  5
15CF
  8
250
 10
376.7699999999983902
 20
62.6283333333333303
 30
0.0
 11
378.9999999999985221
 21
63.0
 31
0.0
  0
LINE
  5
15D0
  8
250
 10
378.9999999999985221
 20
63.0
 30
0.0
 11
376.7699999999983902
 21
63.0
 31
0.0
  0
LINE
  5
15D1
  8
250
 10
2.2299999999999991
 20
62.6283333333333303
 30
0.0
 11
0.0000000000000008
 21
63.0
 31
0.0
  0
LINE
  5
15D2
  8
250
 10
2.2299999999999991
 20
63.3716666666666697
 30
0.0
 11
0.0000000000000008
 21
63.0
 31
0.0
  0
LINE
  5
15D3
  8
250
 10
0.0000000000000008
 20
63.0
 30
0.0
 11
2.2299999999999991
 21
63.0
 31
0.0
  0
VIEWPORT
  5
22
 67
     1
  8
0
 10
261.517699115044195
 20
148.5
 30
0.0
 40
523.0353982300885036
 41
297.0
 68
     1
 69
     1
1001
ACAD
1000
MVIEW
1002
{
1070
    16
1010
0.0
1020
0.0
1030
0.0
1010
0.0
1020
0.0
1030
1.0
1040
0.0
1040
297.0
1040
261.517699115044195
1040
148.5
1040
50.0
1040
0.0
1040
0.0
1070
     0
1070
   100
1070
     1
1070
     1
1070
     0
1070
     0
1070
     0
1070
     0
1040
0.0
1040
0.0
1040
0.0
1040
1.0
1040
1.0
1040
10.0
1040
10.0
1070
     0
1002
{
1002
}
1002
}
1001
GENIUS_GENODEF_13
1002
{
1000
HIER
1070
     0
1002
}
1002
{
1000
MANEDIT
1070
     0
1002
}
1002
{
1000
NOSEL
1070
     0
1002
}
1002
{
1000
BEHIND
1070
     0
1002
}
1002
{
1000
OTHER
1070
     0
1002
}
1002
{
1000
REACTOR
1002
}
1001
GENIUS_GENOBJ-N-SDF_13
1002
{
1000
OWNER
1000
GEN
1002
}
1001
GENIUS_GENSCREG_15
1000
PF
1040
1.0
1000
DF
1040
1.0
1000
MIN
1011
0.0
1021
0.0
1031
0.0
1021
0.0
1031
0.0
1000
MAX
1011
523.0353982300885036
1021
0.0
1031
0.0
1021
297.0
1031
0.0
1000
FLAGS
1070
     4
  0
ENDSEC
  0
EOF
