  0
SECTION
  2
HEADER
  9
$ACADVER
  1
AC1009
  9
$INSBASE
 10
0.0
 20
0.0
 30
0.0
  9
$EXTMIN
 10
-57.356991072065739
 20
-51.1206780055417127
 30
0.0
  9
$EXTMAX
 10
319.0000000000006253
 20
81.9999999999993747
 30
0.0
  9
$LIMMIN
 10
0.0
 20
0.0
  9
$LIMMAX
 10
297.0
 20
210.0
  9
$ORTHOMODE
 70
     1
  9
$REGENMODE
 70
     1
  9
$FILLMODE
 70
     1
  9
$QTEXTMODE
 70
     0
  9
$MIRRTEXT
 70
     1
  9
$DRAGMODE
 70
     2
  9
$LTSCALE
 40
10.0
  9
$OSMODE
 70
   807
  9
$ATTMODE
 70
     1
  9
$TEXTSIZE
 40
3.0
  9
$TRACEWID
 40
1.0
  9
$TEXTSTYLE
  7
YOKO
  9
$CLAYER
  8
240
  9
$CELTYPE
  6
BYLAYER
  9
$CECOLOR
 62
   256
  9
$DIMSCALE
 40
1.0
  9
$DIMASZ
 40
2.2299999999999991
  9
$DIMEXO
 40
0.5
  9
$DIMDLI
 40
7.0
  9
$DIMRND
 40
0.0
  9
$DIMDLE
 40
0.0
  9
$DIMEXE
 40
1.0
  9
$DIMTP
 40
0.0
  9
$DIMTM
 40
0.01
  9
$DIMTXT
 40
2.799999999999998
  9
$DIMCEN
 40
0.0
  9
$DIMTSZ
 40
0.0
  9
$DIMTOL
 70
     0
  9
$DIMLIM
 70
     0
  9
$DIMTIH
 70
     0
  9
$DIMTOH
 70
     0
  9
$DIMSE1
 70
     0
  9
$DIMSE2
 70
     0
  9
$DIMTAD
 70
     3
  9
$DIMZIN
 70
     9
  9
$DIMBLK
  1
OPEN
  9
$DIMASO
 70
     1
  9
$DIMSHO
 70
     1
  9
$DIMPOST
  1

  9
$DIMAPOST
  1

  9
$DIMALT
 70
     0
  9
$DIMALTD
 70
     2
  9
$DIMALTF
 40
25.3999999999999986
  9
$DIMLFAC
 40
1.0
  9
$DIMTOFL
 70
     1
  9
$DIMTVP
 40
0.0
  9
$DIMTIX
 70
     1
  9
$DIMSOXD
 70
     0
  9
$DIMSAH
 70
     0
  9
$DIMBLK1
  1

  9
$DIMBLK2
  1

  9
$DIMSTYLE
  2
BIGT
  9
$DIMCLRD
 70
   256
  9
$DIMCLRE
 70
   256
  9
$DIMCLRT
 70
    40
  9
$DIMTFAC
 40
1.0
  9
$DIMGAP
 40
1.0
  9
$LUNITS
 70
     2
  9
$LUPREC
 70
     3
  9
$SKETCHINC
 40
1.0
  9
$FILLETRAD
 40
0.0
  9
$AUNITS
 70
     0
  9
$AUPREC
 70
     3
  9
$MENU
  1
.
  9
$ELEVATION
 40
0.0
  9
$PELEVATION
 40
0.0
  9
$THICKNESS
 40
0.0
  9
$LIMCHECK
 70
     0
  9
$BLIPMODE
 70
     0
  9
$CHAMFERA
 40
0.25
  9
$CHAMFERB
 40
0.25
  9
$SKPOLY
 70
     0
  9
$TDCREATE
 40
2456584.624305556062609
  9
$TDUPDATE
 40
2458292.6473958329297602
  9
$TDINDWG
 40
0.0143914236
  9
$TDUSRTIMER
 40
0.0143914236
  9
$USRTIMER
 70
     1
  9
$ANGBASE
 50
0.0
  9
$ANGDIR
 70
     0
  9
$PDMODE
 70
     1
  9
$PDSIZE
 40
0.0
  9
$PLINEWID
 40
0.0
  9
$COORDS
 70
     1
  9
$SPLFRAME
 70
     0
  9
$SPLINETYPE
 70
     6
  9
$SPLINESEGS
 70
     4
  9
$ATTDIA
 70
     1
  9
$ATTREQ
 70
     1
  9
$HANDLING
 70
     1
  9
$HANDSEED
  5
1EF8
  9
$SURFTAB1
 70
     6
  9
$SURFTAB2
 70
     6
  9
$SURFTYPE
 70
     6
  9
$SURFU
 70
     6
  9
$SURFV
 70
     6
  9
$UCSNAME
  2

  9
$UCSORG
 10
0.0
 20
0.0
 30
0.0
  9
$UCSXDIR
 10
1.0
 20
0.0
 30
0.0
  9
$UCSYDIR
 10
0.0
 20
1.0
 30
0.0
  9
$PUCSNAME
  2

  9
$PUCSORG
 10
0.0
 20
0.0
 30
0.0
  9
$PUCSXDIR
 10
1.0
 20
0.0
 30
0.0
  9
$PUCSYDIR
 10
0.0
 20
1.0
 30
0.0
  9
$USERI1
 70
     1
  9
$USERI2
 70
     0
  9
$USERI3
 70
     0
  9
$USERI4
 70
     0
  9
$USERI5
 70
     0
  9
$USERR1
 40
0.0
  9
$USERR2
 40
0.0
  9
$USERR3
 40
0.0
  9
$USERR4
 40
0.0
  9
$USERR5
 40
0.0
  9
$WORLDVIEW
 70
     1
  9
$SHADEDGE
 70
     3
  9
$SHADEDIF
 70
    70
  9
$TILEMODE
 70
     1
  9
$MAXACTVP
 70
    16
  9
$PLIMCHECK
 70
     0
  9
$PEXTMIN
 10
1.0000000000000000E+20
 20
1.0000000000000000E+20
 30
1.0000000000000000E+20
  9
$PEXTMAX
 10
-1.0000000000000000E+20
 20
-1.0000000000000000E+20
 30
-1.0000000000000000E+20
  9
$PLIMMIN
 10
0.0
 20
0.0
  9
$PLIMMAX
 10
420.0
 20
297.0
  9
$UNITMODE
 70
     0
  9
$VISRETAIN
 70
     1
  9
$PLINEGEN
 70
     0
  9
$PSLTSCALE
 70
     1
  0
ENDSEC
  0
SECTION
  2
TABLES
  0
TABLE
  2
VPORT
 70
     1
  0
VPORT
  2
*ACTIVE
 70
     0
 10
0.0
 20
0.0
 11
1.0
 21
1.0
 12
120.1922302170713976
 22
29.6939314007885891
 13
0.0
 23
0.0
 14
7.0
 24
7.0
 15
7.0
 25
7.0
 16
0.0
 26
0.0
 36
1.0
 17
0.0
 27
0.0
 37
0.0
 40
261.364990333638616
 41
1.887387387387387
 42
50.0
 43
0.0
 44
0.0
 50
0.0
 51
0.0
 71
     0
 72
  2000
 73
     1
 74
     0
 75
     0
 76
     0
 77
     0
 78
     0
  0
ENDTAB
  0
TABLE
  2
LTYPE
 70
    16
  0
LTYPE
  2
CONTINUOUS
 70
     0
  3
Solid line
 72
    65
 73
     0
 40
0.0
  0
LTYPE
  2
CENTER2
 70
     0
  3
___ _ ___ _ ___ _ ___ _ ___ _ ___ _ ___ _ ___ _
 72
    65
 73
     4
 40
1.125
 49
0.75
 49
-0.125
 49
0.125
 49
-0.125
  0
LTYPE
  2
HIDDEN2
 70
     0
  3
_ _ _ _ _ _ _ _ _ _ _ _ _ _ _ _ _ _ _ _ _ _ _ _
 72
    65
 73
     2
 40
0.1875
 49
0.125
 49
-0.0625
  0
LTYPE
  2
PHANTOM2
 70
     0
  3
___ _ _ ___ _ _ ___ _ _ ___ _ _ ___ _ _ ___ _ _
 72
    65
 73
     6
 40
1.25
 49
0.625
 49
-0.125
 49
0.125
 49
-0.125
 49
0.125
 49
-0.125
  0
LTYPE
  2
CENTER
 70
     0
  3
____ _ ____ _ ____ _ ____ _ ____ _ ____ _ ____ 
 72
    65
 73
     4
 40
2.0
 49
1.25
 49
-0.25
 49
0.25
 49
-0.25
  0
LTYPE
  2
AMCONSTR
 70
     0
  3
_______________________
 72
    65
 73
     2
 40
9999.0
 49
9999.0
 49
0.0
  0
LTYPE
  2
HIDDEN
 70
     0
  3
Hidden __ __ __ __ __ __ __ __ __ __ __ __ __ _
 72
    65
 73
     2
 40
9.5249999999999986
 49
6.349999999999997
 49
-3.174999999999998
  0
LTYPE
  2
AMZIGZAG2
 70
     0
  3
/\/-/\/-/\/-/\/-/\/-/\/
 72
    65
 73
     2
 40
0.4401
 49
0.0001
 49
-0.4400000000000003
  0
LTYPE
  2
ACANSTGB
 70
     0
  3
__ . . __ . .
 72
    65
 73
     6
 40
0.35433070866
 49
0.15748031496
 49
-0.03937007874
 49
0.03937007874
 49
-0.03937007874
 49
0.03937007874
 49
-0.03937007874
  0
LTYPE
  2
ACANSTGL
 70
     0
  3
_ _ _ _ _
 72
    65
 73
     2
 40
0.11811023622
 49
0.07874015748
 49
-0.03937007874
  0
ENDTAB
  0
TABLE
  2
LAYER
 70
     9
  0
LAYER
  2
0
 70
     0
 62
     7
  6
CONTINUOUS
  0
LAYER
  2
240
 70
     0
 62
     4
  6
CONTINUOUS
  0
LAYER
  2
DEFPOINTS
 70
     0
 62
     7
  6
CONTINUOUS
  0
LAYER
  2
245
 70
     0
 62
     2
  6
CENTER2
  0
LAYER
  2
241
 70
     0
 62
   211
  6
CONTINUOUS
  0
LAYER
  2
242
 70
     0
 62
     3
  6
CONTINUOUS
  0
LAYER
  2
243
 70
     0
 62
   211
  6
HIDDEN2
  0
LAYER
  2
250
 70
     0
 62
     3
  6
CONTINUOUS
  0
LAYER
  2
ACAD_LAYER_240
 70
     0
 62
     4
  6
CONTINUOUS
  0
ENDTAB
  0
TABLE
  2
STYLE
 70
     6
  0
STYLE
  2
STANDARD
 70
     0
 40
0.0
 41
1.0
 50
0.0
 71
     0
 42
3.0
  3
romans.shx
  4
extfont.shx
  0
STYLE
  2
YOKO
 70
     0
 40
0.0
 41
1.0
 50
0.0
 71
     0
 42
3.0
  3
romans.shx
  4
extfont.shx
  0
STYLE
  2
ACANSGDT
 70
     0
 40
0.0
 41
1.0
 50
0.0
 71
     0
 42
3.0
  3
amgdt.shx
  4

  0
ENDTAB
  0
TABLE
  2
VIEW
 70
     0
  0
ENDTAB
  0
TABLE
  2
UCS
 70
     0
  0
ENDTAB
  0
TABLE
  2
APPID
 70
    36
  0
APPID
  2
ACAD
 70
     0
  0
APPID
  2
ACADANNOTATIVE
 70
     0
  0
APPID
  2
GLOBAL
 70
     0
  0
APPID
  2
DETAIL
 70
     0
  0
APPID
  2
GRPNAME
 70
     0
  0
APPID
  2
GPARA
 70
     0
  0
APPID
  2
MCAD_NO_VIS
 70
     0
  0
APPID
  2
ACAD_TEMP_GRAPHIC
 70
     0
  0
APPID
  2
ACATTRIBSERVICES
 70
     0
  0
APPID
  2
GENIUS_GENSCREG_15
 70
     0
  0
APPID
  2
GENIUS_GENODEF_13
 70
     0
  0
APPID
  2
GENIUS_GENOBJ-N-SDF_13
 70
     0
  0
APPID
  2
GENIUS_GENREC_14
 70
     0
  0
APPID
  2
GENIUS_GENOBJ-N-REC_13
 70
     0
  0
APPID
  2
GENIUS_GENDIMSH_14
 70
     0
  0
APPID
  2
GENIUS_GENOBJ-N-DIM_13
 70
     0
  0
APPID
  2
GENIUS_GENDIM_13
 70
     0
  0
APPID
  2
GENIUS_GENDTOL_13
 70
     0
  0
APPID
  2
GENIUS_GENOLIS_13
 70
     0
  0
APPID
  2
GENIUS_GENOENT_13
 70
     0
  0
APPID
  2
GENIUS_GENOBJ-F-FEM_13
 70
     0
  0
APPID
  2
GENIUS_GENOREF_13
 70
     0
  0
APPID
  2
GENIUS_GEFFEM_13
 70
     0
  0
APPID
  2
GENIUS_GEFFEMP_13
 70
     0
  0
APPID
  2
AD_DRAW
 70
     0
  0
APPID
  2
DESIGNERASSEMBLIES
 70
     0
  0
APPID
  2
ACADM_DIM_EDIT
 70
     0
  0
APPID
  2
AMDT_DM_ADJ
 70
     0
  0
APPID
  2
GENIUS_GENOBJ-N-FIL_13
 70
     0
  0
APPID
  2
GENIUS_GENFIL_13
 70
     0
  0
APPID
  2
ITEMNAME
 70
     0
  0
APPID
  2
ACAD_DSTYLE_DIMBREAK
 70
     0
  0
APPID
  2
ACAD_DSTYLE_DIMJAG
 70
     0
  0
APPID
  2
ACAD_NAV_VCDISPLAY
 70
     0
  0
APPID
  2
ACAD_EXEMPT_FROM_CAD_STANDARDS
 70
     0
  0
APPID
  2
ACAD_MLEADERVER
 70
     0
  0
ENDTAB
  0
TABLE
  2
DIMSTYLE
 70
     9
  0
DIMSTYLE
  2
STANDARD
 70
     0
  3

  4

  5

  6

  7

 40
1.0
 41
0.18
 42
0.0625
 43
0.38
 44
0.18
 45
0.0
 46
0.0
 47
0.0
 48
0.0
140
0.18
141
0.09
142
0.0
143
25.3999999999999986
144
1.0
145
0.0
146
1.0
147
0.09
 71
     0
 72
     0
 73
     1
 74
     1
 75
     0
 76
     0
 77
     0
 78
     0
170
     0
171
     2
172
     0
173
     0
174
     0
175
     0
176
     0
177
     0
178
     0
  0
DIMSTYLE
  2
BIGT
 70
     0
  3

  4

  5

  6

  7

 40
1.0
 41
2.2299999999999991
 42
0.5
 43
7.0
 44
1.0
 45
0.0
 46
0.0
 47
0.0
 48
0.01
140
2.799999999999998
141
0.0
142
0.0
143
25.3999999999999986
144
1.0
145
0.0
146
1.0
147
1.0
 71
     0
 72
     0
 73
     0
 74
     0
 75
     0
 76
     0
 77
     3
 78
     9
170
     0
171
     2
172
     1
173
     0
174
     1
175
     0
176
   256
177
   256
178
    40
  0
DIMSTYLE
  2
AM_ANSI
 70
     0
  3

  4
mm
  5

  6

  7

 40
1.0
 41
0.1
 42
0.05
 43
0.5
 44
0.1
 45
0.0
 46
0.0
 47
0.1
 48
0.1
140
0.12
141
0.0
142
0.0
143
25.3999999999999986
144
1.0
145
0.0
146
0.71
147
0.06
 71
     0
 72
     0
 73
     1
 74
     1
 75
     0
 76
     0
 77
     0
 78
     7
170
     0
171
     2
172
     0
173
     0
174
     0
175
     0
176
   256
177
   256
178
     2
  0
DIMSTYLE
  2
AM_ANSI$3
 70
     0
  3

  4
mm
  5

  6

  7

 40
1.0
 41
0.1
 42
0.05
 43
0.5
 44
0.1
 45
0.0
 46
0.0
 47
0.1
 48
0.1
140
0.12
141
0.0
142
0.0
143
25.3999999999999986
144
1.0
145
0.0
146
0.71
147
0.06
 71
     0
 72
     0
 73
     1
 74
     1
 75
     0
 76
     0
 77
     0
 78
     7
170
     0
171
     2
172
     0
173
     0
174
     0
175
     0
176
   256
177
   256
178
     2
  0
DIMSTYLE
  2
AM_ANSI$4
 70
     0
  3

  4
mm
  5

  6

  7

 40
1.0
 41
0.1
 42
0.05
 43
0.5
 44
0.1
 45
0.0
 46
0.0
 47
0.1
 48
0.1
140
0.12
141
0.0
142
0.0
143
25.3999999999999986
144
1.0
145
0.0
146
0.71
147
0.06
 71
     0
 72
     0
 73
     1
 74
     1
 75
     0
 76
     0
 77
     0
 78
     7
170
     0
171
     2
172
     0
173
     0
174
     0
175
     0
176
   256
177
   256
178
     2
  0
DIMSTYLE
  2
AM_ANSI$7
 70
     0
  3

  4
mm
  5

  6

  7

 40
1.0
 41
0.1
 42
0.05
 43
0.5
 44
0.1
 45
0.0
 46
0.0
 47
0.1
 48
0.1
140
0.24
141
0.0
142
0.0
143
25.3999999999999986
144
1.0
145
0.0
146
0.71
147
0.06
 71
     0
 72
     0
 73
     1
 74
     1
 75
     0
 76
     0
 77
     0
 78
     7
170
     0
171
     2
172
     0
173
     0
174
     0
175
     0
176
   256
177
   256
178
     2
  0
DIMSTYLE
  2
AM_ANSI$SF
 70
     0
  3

  4
mm
  5

  6

  7

 40
1.0
 41
0.1
 42
0.05
 43
0.5
 44
0.1
 45
0.0
 46
0.0
 47
0.1
 48
0.1
140
0.12
141
0.0
142
0.0
143
25.3999999999999986
144
1.0
145
0.0
146
0.71
147
0.06
 71
     0
 72
     0
 73
     1
 74
     1
 75
     1
 76
     1
 77
     0
 78
     7
170
     0
171
     2
172
     0
173
     0
174
     0
175
     0
176
   256
177
   256
178
     2
  0
DIMSTYLE
  2
AM_ANSI$SH
 70
     0
  3

  4
mm
  5

  6

  7

 40
1.0
 41
0.1
 42
0.05
 43
0.5
 44
0.1
 45
0.0
 46
0.0
 47
0.1
 48
0.1
140
0.12
141
0.0
142
0.0
143
25.3999999999999986
144
1.0
145
0.0
146
0.71
147
0.06
 71
     0
 72
     0
 73
     1
 74
     1
 75
     1
 76
     1
 77
     0
 78
     7
170
     0
171
     2
172
     0
173
     1
174
     0
175
     0
176
   256
177
   256
178
     2
  0
ENDTAB
  0
ENDSEC
  0
SECTION
  2
BLOCKS
  0
BLOCK
  8
0
  2
$MODEL_SPACE
 70
     0
 10
0.0
 20
0.0
 30
0.0
  3
$MODEL_SPACE
  1

  0
ENDBLK
  5
1DE7
  8
0
  0
BLOCK
 67
     1
  8
0
  2
$PAPER_SPACE
 70
     0
 10
0.0
 20
0.0
 30
0.0
  3
$PAPER_SPACE
  1

  0
ENDBLK
  5
1DE3
 67
     1
  8
0
  0
BLOCK
  8
0
  2
_OPEN
 70
     0
 10
0.0
 20
0.0
 30
0.0
  3
_OPEN
  1

  0
LINE
  5
1A5F
  8
0
  6
BYBLOCK
 62
     0
 10
-1.0
 20
0.1666666666666666
 30
0.0
 11
0.0
 21
0.0
 31
0.0
  0
LINE
  5
1A60
  8
0
  6
BYBLOCK
 62
     0
 10
-1.0
 20
-0.1666666666666666
 30
0.0
 11
0.0
 21
0.0
 31
0.0
  0
LINE
  5
1A61
  8
0
  6
BYBLOCK
 62
     0
 10
0.0
 20
0.0
 30
0.0
 11
-1.0
 21
0.0
 31
0.0
  0
ENDBLK
  5
1A62
  8
0
  0
BLOCK
  8
0
  2
_ACMFILLEDHALF
 70
     0
 10
0.0
 20
0.0
 30
0.0
  3
_ACMFILLEDHALF
  1

  0
TRACE
  5
1CF5
  8
240
 62
     0
 10
-0.8
 20
0.0
 30
0.0
 11
-1.0
 21
0.166666666
 31
0.0
 12
0.0
 22
0.0
 32
0.0
 13
0.0
 23
0.0
 33
0.0
  0
LINE
  5
1CF6
  8
240
 62
     0
 10
-1.0
 20
0.0
 30
0.0
 11
-0.8
 21
0.0
 31
0.0
  0
ENDBLK
  5
1CF4
  8
0
  0
ENDSEC
  0
SECTION
  2
ENTITIES
  0
LINE
  5
169F
  8
240
 10
36.9999999999997726
 20
30.0000000000005116
 30
0.0
 11
36.9999999999997726
 21
40.0308203419674911
 31
0.0
  0
ARC
  5
16A0
  8
240
 10
35.9999999999997726
 20
40.0308203419674911
 30
0.0
 40
1.0
 50
0.0
 51
90.0
  0
ARC
  5
16A1
  8
240
  6
CONTINUOUS
 10
36.0000000000429665
 20
-41.4999999999990266
 30
0.0
 40
1.0
 50
270.0000000000032969
 51
0.0
  0
LINE
  5
16A2
  8
240
  6
CONTINUOUS
 10
37.0000000000429807
 20
-41.4999999999990266
 30
0.0
 11
36.9999999999997726
 21
-29.9999999999995204
 31
0.0
  0
ARC
  5
16A3
  8
240
 10
28.5
 20
49.5000000000000568
 30
0.0
 40
0.5
 50
0.0000000025729415
 51
90.0000000025663667
1001
GRPNAME
1000
PASTMD0M
  0
LINE
  5
16A4
  8
241
 10
36.4999999999997726
 20
40.1784157463344513
 30
0.0
 11
36.4999999999997726
 21
40.8968457457281573
 31
0.0
  0
ARC
  5
16A5
  8
240
 10
29.1999999999998288
 20
42.7000000000000881
 30
0.0
 40
0.1999999999999886
 50
180.0
 51
270.0
  0
LINE
  5
16A6
  8
240
 10
29.1999999999998288
 20
42.5000000000000497
 30
0.0
 11
29.4999999999998792
 21
42.5000000000000497
 31
0.0
  0
LINE
  5
16A7
  8
240
 10
29.4999999999998792
 20
41.0308203419673987
 30
0.0
 11
29.4999999999998792
 21
42.5000000000000497
 31
0.0
  0
LINE
  5
16A8
  8
241
 10
29.4999999999998792
 20
40.1784157463344513
 30
0.0
 11
29.4999999999998792
 21
41.0308203419673987
 31
0.0
  0
LINE
  5
16A9
  8
240
 10
29.4999999999998792
 20
41.0308203419673987
 30
0.0
 11
35.9999999999996518
 21
41.0308203419673987
 31
0.0
  0
LINE
  5
16AA
  8
241
 10
29.4999999999998792
 20
40.1784157463344513
 30
0.0
 11
36.4999999999997726
 21
40.1784157463344513
 31
0.0
  0
LINE
  5
16AB
  8
242
 10
29.4999999999998792
 20
40.1784157463344513
 30
0.0
 11
36.1875929600753423
 21
41.0130671955283219
 31
0.0
  0
LINE
  5
16AC
  8
242
 10
29.4999999999998792
 20
41.0308203419673987
 30
0.0
 11
36.4999999999997726
 21
40.1784157463344513
 31
0.0
  0
LINE
  5
16AD
  8
240
 10
28.9999999999998899
 20
42.7000000000000881
 30
0.0
 11
29.0
 21
49.5000000000000568
 31
0.0
1001
GRPNAME
1000
PASTMD0M
  0
LINE
  5
16AE
  8
240
 10
21.875
 20
46.0000000000000426
 30
0.0
 11
21.875
 21
47.6225952641918369
 31
0.0
1001
GRPNAME
1000
PASTMD0M
  0
LINE
  5
16AF
  8
240
 10
21.875
 20
46.0000000000000426
 30
0.0
 11
18.125
 21
46.0000000000000426
 31
0.0
1001
GRPNAME
1000
PASTMD0M
  0
LINE
  5
16B1
  8
240
 10
18.125
 20
46.0000000000000426
 30
0.0
 11
18.125
 21
47.6225952641918369
 31
0.0
1001
GRPNAME
1000
PASTMD0M
  0
LINE
  5
16B3
  8
240
 10
18.125
 20
47.6225952641918369
 30
0.0
 11
16.7524047358083408
 21
50.0000000000000711
 31
0.0
1001
GRPNAME
1000
PASTMD0M
  0
LINE
  5
16B4
  8
240
 10
21.875
 20
47.6225952641918369
 30
0.0
 11
23.2475952641916592
 21
50.0000000000000711
 31
0.0
1001
GRPNAME
1000
PASTMD0M
  0
LINE
  5
16B5
  8
243
 10
4.9999999999993161
 20
44.0000000000000284
 30
0.0
 11
4.9999999999993161
 21
50.0000000000000711
 31
0.0
1001
GRPNAME
1000
PASTMD0M
  0
ARC
  5
16B7
  8
240
 10
0.5
 20
49.5000000000000568
 30
0.0
 40
0.5
 50
89.9999999048793455
 51
179.9999999048727943
1001
GRPNAME
1000
PASTMD0M
  0
LINE
  5
16BD
  8
240
 10
0.0
 20
37.900000000000162
 30
0.0
 11
0.0
 21
49.5000000000000568
 31
0.0
1001
GRPNAME
1000
PASTMD0M
  0
LINE
  5
16BE
  8
240
 10
16.7524047358083408
 20
50.0000000000000711
 30
0.0
 11
0.5
 21
50.0000000000000711
 31
0.0
1001
GRPNAME
1000
PASTMD0M
  0
ARC
  5
16C8
  8
240
 10
-48.0
 20
33.5975015605500289
 30
0.0
 40
2.0000000000000191
 50
92.8624051341731587
 51
179.9999999080644955
1001
GRPNAME
1000
PASTMD0M
  0
LINE
  5
16CF
  8
240
 10
-2.0
 20
37.900000000000162
 30
0.0
 11
-48.0998752338877011
 21
35.5950062383056505
 31
0.0
1001
GRPNAME
1000
PASTMD0M
  0
LINE
  5
16D1
  8
240
 10
28.5
 20
50.0000000000000711
 30
0.0
 11
23.2475952641915491
 21
50.0000000000000711
 31
0.0
1001
GRPNAME
1000
PASTMD0M
  0
LINE
  5
16D2
  8
243
 10
28.9999999999998899
 20
44.0000000000000284
 30
0.0
 11
4.9999999999993161
 21
44.0000000000000284
 31
0.0
1001
GRPNAME
1000
PASTMD0M
  0
ARC
  5
16D6
  8
240
 10
29.1999999999998288
 20
-42.6999999999999815
 30
0.0
 40
0.1999999999999886
 50
90.0
 51
180.0
  0
LINE
  5
16D7
  8
240
 10
29.1999999999998288
 20
-42.4999999999999218
 30
0.0
 11
36.0000000000429665
 21
-42.4999999999999218
 31
0.0
  0
ARC
  5
16D8
  8
240
 10
28.4999999999998899
 20
-49.4999999999999289
 30
0.0
 40
0.5
 50
269.9999998945941115
 51
359.9999998945875745
1001
GRPNAME
1000
PASTMD0M
  0
LINE
  5
16D9
  8
240
 10
28.9999999999998899
 20
-49.4999999999999289
 30
0.0
 11
28.9999999999998899
 21
-42.6999999999999815
 31
0.0
1001
GRPNAME
1000
PASTMD0M
  0
LINE
  5
16DA
  8
241
 10
28.9999999999998899
 20
-42.6999999999999815
 30
0.0
 11
28.9999999999998899
 21
42.7000000000000881
 31
0.0
1001
GRPNAME
1000
PASTMD0M
  0
LINE
  5
16DC
  8
240
 10
21.875
 20
-45.9999999999999289
 30
0.0
 11
21.875
 21
-47.6225952641916876
 31
0.0
1001
GRPNAME
1000
PASTMD0M
  0
LINE
  5
16DD
  8
240
 10
21.875
 20
-45.9999999999999289
 30
0.0
 11
18.125
 21
-45.9999999999999289
 31
0.0
1001
GRPNAME
1000
PASTMD0M
  0
LINE
  5
16DF
  8
240
 10
18.125
 20
-45.9999999999999289
 30
0.0
 11
18.125
 21
-47.6225952641916876
 31
0.0
1001
GRPNAME
1000
PASTMD0M
  0
LINE
  5
16E1
  8
240
 10
21.875
 20
-47.6225952641916876
 30
0.0
 11
23.2475952641916592
 21
-49.9999999999999218
 31
0.0
1001
GRPNAME
1000
PASTMD0M
  0
LINE
  5
16E2
  8
240
 10
18.125
 20
-47.6225952641916876
 30
0.0
 11
16.7524047358083408
 21
-49.9999999999999218
 31
0.0
1001
GRPNAME
1000
PASTMD0M
  0
ARC
  5
16EA
  8
240
 10
0.5
 20
-49.4999999999999289
 30
0.0
 40
0.5
 50
180.0000000025696067
 51
270.0000000025730174
1001
GRPNAME
1000
PASTMD0M
  0
LINE
  5
16EB
  8
240
 10
0.0
 20
-49.4999999999999289
 30
0.0
 11
0.0
 21
-37.8999999999999204
 31
0.0
1001
GRPNAME
1000
PASTMD0M
  0
LINE
  5
16EC
  8
240
 10
16.7524047358083408
 20
-49.9999999999999218
 30
0.0
 11
0.5
 21
-49.9999999999999218
 31
0.0
1001
GRPNAME
1000
PASTMD0M
  0
LINE
  5
16EF
  8
241
 10
16.7524047358083408
 20
-49.9999999999999218
 30
0.0
 11
16.7524047358083408
 21
31.4999999999993605
 31
0.0
1001
GRPNAME
1000
PASTMD0M
  0
LINE
  5
16F0
  8
241
 10
18.125
 20
-45.9999999999999289
 30
0.0
 11
18.125
 21
31.4999999999993605
 31
0.0
1001
GRPNAME
1000
PASTMD0M
  0
LINE
  5
16F1
  8
241
 10
21.875
 20
-45.9999999999999289
 30
0.0
 11
21.875
 21
31.4999999999993605
 31
0.0
1001
GRPNAME
1000
PASTMD0M
  0
LINE
  5
16F2
  8
241
 10
23.2475952641915491
 20
-49.9999999999999218
 30
0.0
 11
23.2475952641915491
 21
31.4999999999993605
 31
0.0
1001
GRPNAME
1000
PASTMD0M
  0
LINE
  5
16F3
  8
245
 10
20.0
 20
-51.1206780055417127
 30
0.0
 11
20.0
 21
51.1753559948711612
 31
0.0
  0
ARC
  5
16F4
  8
240
 10
-48.0
 20
-33.5975015605499223
 30
0.0
 40
2.0
 50
179.9999999833312074
 51
267.1375947572238942
1001
GRPNAME
1000
PASTMD0M
  0
LINE
  5
16F5
  8
240
 10
-50.0
 20
-33.5975015605499223
 30
0.0
 11
-50.0
 21
0.0000000000000568
 31
0.0
1001
GRPNAME
1000
PASTMD0M
  0
LINE
  5
16F6
  8
240
 10
-2.0
 20
-37.8999999999999204
 30
0.0
 11
-48.0998752338877011
 21
-35.5950062383055297
 31
0.0
1001
GRPNAME
1000
PASTMD0M
  0
LINE
  5
16F7
  8
240
 10
28.4999999999998899
 20
-49.9999999999999218
 30
0.0
 11
23.2475952641916592
 21
-49.9999999999999218
 31
0.0
1001
GRPNAME
1000
PASTMD0M
  0
LINE
  5
16FB
  8
240
 10
-50.0
 20
0.0000000000000568
 30
0.0
 11
-50.0
 21
33.5975015605500289
 31
0.0
1001
GRPNAME
1000
PASTMD0M
  0
ARC
  5
1706
  8
240
  6
CONTINUOUS
 10
41.9999999999996518
 20
-29.9999999999994884
 30
0.0
 40
5.0
 50
90.0
 51
180.0
1001
GENIUS_GENODEF_13
1002
{
1000
HIER
1070
     0
1002
}
1002
{
1000
MANEDIT
1070
     0
1002
}
1002
{
1000
NOSEL
1070
     0
1002
}
1002
{
1000
BEHIND
1070
     0
1002
}
1002
{
1000
OTHER
1070
     0
1002
}
1002
{
1000
REACTOR
1002
}
1001
GENIUS_GENOBJ-N-FIL_13
1002
{
1000
OWNER
1000
GEN
1002
}
  0
ARC
  5
1707
  8
240
  6
CONTINUOUS
 10
41.999999999999531
 20
30.0000000000005116
 30
0.0
 40
5.0
 50
180.0
 51
270.0
1001
GENIUS_GENOBJ-N-FIL_13
1002
{
1000
OWNER
1000
GEN
1002
}
1001
GENIUS_GENODEF_13
1002
{
1000
HIER
1070
     0
1002
}
1002
{
1000
MANEDIT
1070
     0
1002
}
1002
{
1000
NOSEL
1070
     0
1002
}
1002
{
1000
BEHIND
1070
     0
1002
}
1002
{
1000
OTHER
1070
     0
1002
}
1002
{
1000
REACTOR
1002
}
  0
LINE
  5
1709
  8
241
  6
CONTINUOUS
 10
253.0000000000007105
 20
-24.749999999999261
 30
0.0
 11
253.0000000000007105
 21
24.7499999999993712
 31
0.0
  0
LINE
  5
170A
  8
240
 10
303.0000000000006821
 20
-23.999999999999261
 30
0.0
 11
303.0000000000006821
 21
24.000000000000739
 31
0.0
  0
LINE
  5
170D
  8
240
  6
CONTINUOUS
 10
252.5669872981085007
 20
-24.999999999999261
 30
0.0
 11
41.9999999999996518
 21
-24.9999999999995595
 31
0.0
  0
LINE
  5
170F
  8
240
 10
253.0000000000007105
 20
-24.749999999999261
 30
0.0
 11
302.2500000000006821
 21
-24.749999999999261
 31
0.0
  0
LINE
  5
1711
  8
240
 10
253.0000000000007105
 20
-24.749999999999261
 30
0.0
 11
252.5669872981085007
 21
-24.999999999999261
 31
0.0
  0
LINE
  5
1715
  8
240
  6
CONTINUOUS
 10
252.566987298108387
 20
25.000000000000739
 30
0.0
 11
41.999999999999531
 21
25.0000000000007105
 31
0.0
  0
LINE
  5
1716
  8
240
 10
253.0000000000007105
 20
24.750000000000739
 30
0.0
 11
302.2500000000006821
 21
24.750000000000739
 31
0.0
  0
LINE
  5
1717
  8
245
  6
CENTER2
 10
310.0497756889561174
 20
0.000000000000739
 30
0.0
 11
146.9309280860983904
 21
0.0000000000013465
 31
0.0
  0
LINE
  5
1719
  8
240
 10
253.0000000000007105
 20
24.750000000000739
 30
0.0
 11
252.566987298108387
 21
25.000000000000739
 31
0.0
  0
LINE
  5
1736
  8
245
 10
-57.356991072065739
 20
0.0000000000000568
 30
0.0
 11
148.2512992500909945
 21
-0.0000000000024158
 31
0.0
  0
LINE
  5
1744
  8
241
 10
36.9999999999996518
 20
-29.9999999999995985
 30
0.0
 11
36.9999999999996518
 21
29.9999999999997087
 31
0.0
  0
LINE
  5
1792
  8
243
 10
289.3000000000006935
 20
19.6000000000049006
 30
0.0
 11
303.0000000000006821
 21
19.6000000000049006
 31
0.0
  0
LINE
  5
1793
  8
243
 10
289.3000000000006935
 20
-19.5999999999950809
 30
0.0
 11
303.0000000000006821
 21
-19.5999999999950809
 31
0.0
  0
LINE
  5
1794
  8
243
 10
289.3000000000006935
 20
-19.5999999999950809
 30
0.0
 11
289.3000000000006935
 21
-13.99999999999506
 31
0.0
  0
LINE
  5
1795
  8
243
 10
270.6500000000004889
 20
14.0000000000048708
 30
0.0
 11
303.0000000000006821
 21
14.0000000000048708
 31
0.0
  0
LINE
  5
1796
  8
243
 10
270.6500000000010004
 20
-13.99999999999506
 30
0.0
 11
303.0000000000006821
 21
-13.99999999999506
 31
0.0
  0
LINE
  5
1797
  8
243
 10
289.3000000000006935
 20
19.6000000000049006
 30
0.0
 11
289.3000000000006935
 21
14.0000000000048708
 31
0.0
  0
CIRCLE
  5
1798
  8
242
 10
290.0000000000006821
 20
0.0000000000049356
 30
0.0
 40
5.1500000000000004
  0
LINE
  5
1799
  8
241
 10
292.5000000000006821
 20
-1.443375672969134
 30
0.0
 11
292.5000000000006821
 21
1.443375672979003
 31
0.0
  0
LINE
  5
179A
  8
241
 10
287.5000000000006821
 20
-1.443375672969134
 30
0.0
 11
287.5000000000006821
 21
1.443375672979003
 31
0.0
  0
LINE
  5
179B
  8
241
 10
292.5000000000006821
 20
1.443375672979003
 30
0.0
 11
290.0000000000006821
 21
2.8867513459530709
 31
0.0
  0
LINE
  5
179C
  8
241
 10
287.5000000000006821
 20
1.443375672979003
 30
0.0
 11
290.0000000000006821
 21
2.8867513459530709
 31
0.0
  0
LINE
  5
179D
  8
241
 10
290.0000000000006821
 20
-2.886751345943146
 30
0.0
 11
292.5000000000006821
 21
-1.443375672969134
 31
0.0
  0
LINE
  5
179E
  8
241
 10
290.0000000000006821
 20
-2.886751345943146
 30
0.0
 11
287.5000000000006821
 21
-1.443375672969134
 31
0.0
  0
CIRCLE
  5
179F
  8
241
 10
290.0000000000006821
 20
0.0000000000049356
 30
0.0
 40
4.5
  0
LINE
  5
17A0
  8
ACAD_LAYER_240
  6
CONTINUOUS
 62
     4
 10
303.0000000000006821
 20
-23.9999999999950617
 30
0.0
 11
302.2500000000006821
 21
-24.7499999999950688
 31
0.0
  0
LINE
  5
17A1
  8
245
 10
290.0000000000006821
 20
7.000000000004877
 30
0.0
 11
290.0000000000006821
 21
-6.9999999999950644
 31
0.0
  0
LINE
  5
17A2
  8
250
 10
302.7500000000006821
 20
-24.7499999999950688
 30
0.0
 11
319.0000000000006253
 21
-24.7499999999950688
 31
0.0
  0
LINE
  5
17A3
  8
250
 10
302.7500000000006821
 20
24.7500000000049312
 30
0.0
 11
319.0000000000006253
 21
24.7500000000049312
 31
0.0
  0
LINE
  5
17A4
  8
250
 10
318.0000000000006253
 20
-22.5199999999950613
 30
0.0
 11
318.0000000000006253
 21
22.5200000000049414
 31
0.0
  0
TEXT
  5
17A5
  8
250
 10
317.0000000000006253
 20
-5.7999999999950083
 30
0.0
 40
2.799999999999998
  1
\U+220549.5
 50
90.0
  0
LINE
  5
17A6
  8
250
 10
317.628333333333785
 20
22.5200000000049414
 30
0.0
 11
318.0000000000006253
 21
24.7500000000049312
 31
0.0
  0
LINE
  5
17A7
  8
250
 10
318.3716666666671813
 20
22.5200000000049414
 30
0.0
 11
318.0000000000006253
 21
24.7500000000049312
 31
0.0
  0
LINE
  5
17A8
  8
250
 10
318.0000000000006253
 20
24.7500000000049312
 30
0.0
 11
318.0000000000006253
 21
22.5200000000049414
 31
0.0
  0
LINE
  5
17A9
  8
250
 10
318.3716666666671813
 20
-22.5199999999950613
 30
0.0
 11
318.0000000000006253
 21
-24.7499999999950688
 31
0.0
  0
LINE
  5
17AA
  8
250
 10
317.628333333333785
 20
-22.5199999999950613
 30
0.0
 11
318.0000000000006253
 21
-24.7499999999950688
 31
0.0
  0
LINE
  5
17AB
  8
250
 10
318.0000000000006253
 20
-24.7499999999950688
 30
0.0
 11
318.0000000000006253
 21
-22.5199999999950613
 31
0.0
  0
LINE
  5
17AC
  8
250
 10
303.7996231652982146
 20
-37.1152952200173232
 30
0.0
 11
293.5329564986313926
 21
-37.1152952200173232
 31
0.0
  0
LINE
  5
17AD
  8
250
 10
293.5329564986313926
 20
-37.1152952200173232
 30
0.0
 11
283.9246721263697282
 21
-16.0292563807206783
 31
0.0
  0
LINE
  5
17AE
  8
250
 10
283.9246721263697282
 20
-16.0292563807206783
 30
0.0
 11
283.0000000000006253
 21
-13.99999999999506
 31
0.0
  0
LINE
  5
17AF
  8
250
 10
284.1918287959455824
 20
-15.9075209863778699
 30
0.0
 11
283.0000000000006253
 21
-13.99999999999506
 31
0.0
  0
LINE
  5
17B0
  8
250
 10
283.0000000000006253
 20
-13.99999999999506
 30
0.0
 11
283.657515456794215
 21
-16.150991775063499
 31
0.0
  0
LINE
  5
17BB
  8
243
 10
160.9303379854169123
 20
4.0000000000007372
 30
0.0
 11
270.6500000000007162
 21
4.0000000000007372
 31
0.0
  0
LINE
  5
17BC
  8
243
 10
270.6500000000004889
 20
14.0000000000048708
 30
0.0
 11
270.6500000000010004
 21
-13.99999999999506
 31
0.0
  0
LINE
  5
17EF
  8
243
 10
160.9303379854167986
 20
-3.999999999998018
 30
0.0
 11
270.6500000000006025
 21
-3.9999999999989981
 31
0.0
  0
LINE
  5
17F9
  8
241
 10
-2.0
 20
37.9000000000000412
 30
0.0
 11
-2.0
 21
-37.8999999999999204
 31
0.0
1001
GRPNAME
1000
PASTMD0M
  0
LINE
  5
17FA
  8
241
 10
0.0
 20
37.900000000000162
 30
0.0
 11
0.0
 21
-37.8999999999999275
 31
0.0
1001
GRPNAME
1000
PASTMD0M
  0
LINE
  5
17FB
  8
241
 10
16.7524047358083408
 20
50.0000000000000711
 30
0.0
 11
16.7524047358083408
 21
38.8297566299993733
 31
0.0
1001
GRPNAME
1000
PASTMD0M
  0
LINE
  5
17FC
  8
241
 10
18.125
 20
46.0000000000000426
 30
0.0
 11
18.125
 21
33.4999999999993605
 31
0.0
1001
GRPNAME
1000
PASTMD0M
  0
LINE
  5
17FD
  8
241
 10
21.875
 20
46.0000000000000426
 30
0.0
 11
21.875
 21
33.4999999999993605
 31
0.0
1001
GRPNAME
1000
PASTMD0M
  0
LINE
  5
17FE
  8
241
 10
23.2475952641915491
 20
50.0000000000000711
 30
0.0
 11
23.2475952641915491
 21
38.8297566299993591
 31
0.0
1001
GRPNAME
1000
PASTMD0M
  0
LINE
  5
1801
  8
ACAD_LAYER_240
  6
CONTINUOUS
 62
     4
 10
303.0000000000006821
 20
23.9999999999951683
 30
0.0
 11
302.2500000000006821
 21
24.749999999995179
 31
0.0
  0
TEXT
  5
1817
  8
241
 10
-47.0
 20
76.9999999999993605
 30
0.0
 40
5.0
  1
HSK-A100-CKB5DP-303
  7
YOKO
 11
-47.0
 21
76.9999999999993605
 31
0.0
 73
     1
1001
GRPNAME
1000
PASTMD0I
  0
LINE
  5
181A
  8
250
 10
-30.3663703600000012
 20
-48.9718588200006408
 30
0.0
 11
-57.2997036900000012
 21
-48.9718588200006408
 31
0.0
1001
ITEMNAME
1000
LNSP2
  0
LINE
  5
181B
  8
243
 10
-30.0033756700000005
 20
26.4999999999993605
 30
0.0
 11
-50.0
 21
26.4999999999993605
 31
0.0
1001
GRPNAME
1000
PASTMD19
  0
ARC
  5
181C
  8
243
 10
-9.4966925399999997
 20
19.4999999999993605
 30
0.0
 40
11.9999999980548804
 50
43.7127665699999994
 51
89.9999999399999666
1001
GRPNAME
1000
PASTMD19
  0
LINE
  5
181D
  8
243
 10
-9.4966925399999997
 20
31.4999999999993605
 30
0.0
 11
-26.5392740600000003
 21
31.4999999999993605
 31
0.0
1001
GRPNAME
1000
PASTMD19
  0
LINE
  5
181E
  8
243
 10
-30.0033756700000005
 20
26.4999999999993605
 30
0.0
 11
-27.4052994599999984
 21
30.9999999999993605
 31
0.0
1001
GRPNAME
1000
PASTMD19
  0
LINE
  5
181F
  8
243
 10
-40.0
 20
26.4999999999993605
 30
0.0
 11
-40.0
 21
36.2499999999993605
 31
0.0
1001
GRPNAME
1000
PASTMD19
  0
ARC
  5
1820
  8
243
 10
-26.5392740600000003
 20
30.4999999999993605
 30
0.0
 40
1.0
 50
90.0000000699999561
 51
150.0000000699999987
1001
GRPNAME
1000
PASTMD19
  0
LINE
  5
1821
  8
243
 10
-21.0
 20
31.4999999999993605
 30
0.0
 11
-21.0
 21
36.9499999999993634
 31
0.0
1001
GRPNAME
1000
PASTMD1J
  0
LINE
  5
1822
  8
243
 10
-9.0
 20
31.4897162799993602
 30
0.0
 11
-9.0
 21
37.5499999999993577
 31
0.0
1001
GRPNAME
1000
PASTMD1J
  0
LINE
  5
1832
  8
241
 10
5.0
 20
31.4999999999993605
 30
0.0
 11
29.0
 21
31.4999999999993605
 31
0.0
1001
GRPNAME
1000
PASTMD1F
  0
ARC
  5
1833
  8
241
 10
14.6368978599999995
 20
28.8297566299993591
 30
0.0
 40
9.9999999999997158
 50
90.000000079999964
 51
164.5127260499999977
1001
GRPNAME
1000
PASTMD1F
  0
LINE
  5
1834
  8
241
 10
21.875
 20
36.4523518899993704
 30
0.0
 11
23.2475952600000006
 21
38.8297566299993591
 31
0.0
1001
GRPNAME
1000
PASTMD1F
  0
LINE
  5
1835
  8
241
 10
18.125
 20
33.4999999999993605
 30
0.0
 11
21.875
 21
33.4999999999993605
 31
0.0
1001
GRPNAME
1000
PASTMD1F
  0
LINE
  5
1836
  8
241
 10
18.125
 20
36.4523518899993704
 30
0.0
 11
16.7524047399999994
 21
38.8297566299993591
 31
0.0
1001
GRPNAME
1000
PASTMD1F
  0
LINE
  5
1837
  8
241
 10
14.6368978599999995
 20
38.8297566299993591
 30
0.0
 11
16.7524047399999994
 21
38.8297566299993591
 31
0.0
1001
GRPNAME
1000
PASTMD1F
  0
LINE
  5
1838
  8
241
 10
23.2475952600000006
 20
38.8297566299993591
 30
0.0
 11
29.0
 21
38.8297566299993591
 31
0.0
1001
GRPNAME
1000
PASTMD1F
  0
LINE
  5
183E
  8
240
 10
-2.0
 20
37.900000000000162
 30
0.0
 11
0.0
 21
37.900000000000162
 31
0.0
  0
LINE
  5
1840
  8
240
 10
-2.0
 20
-37.8999999999999204
 30
0.0
 11
0.0
 21
-37.8999999999999204
 31
0.0
  0
LINE
  5
18B3
  8
250
 10
0.0
 20
50.0000000000000711
 30
0.0
 11
0.0000000000000008
 21
62.5000000000000497
 31
0.0
  0
LINE
  5
18B4
  8
250
 10
303.0000000000006821
 20
24.4999999999951683
 30
0.0
 11
303.0000000000006821
 21
62.5000000000000071
 31
0.0
  0
LINE
  5
18B5
  8
250
 10
2.2299999999999991
 20
61.5000000000000497
 30
0.0
 11
300.7700000000007776
 21
61.5000000000000497
 31
0.0
  0
TEXT
  5
18B9
  8
250
 10
-55.0330370233333213
 20
-47.9718588200006266
 30
0.0
 40
2.799999999999998
  1
HSK-A100
  7
YOKO
1001
ITEMNAME
1000
LNSP3
  0
TEXT
  5
18BC
  8
250
 10
295.9329564986314836
 20
-35.7152952200173175
 30
0.0
 40
2.799999999999998
  1
CK5
  7
YOKO
  0
TEXT
  5
18BD
  8
250
 10
147.5000000000003126
 20
62.5000000000000497
 30
0.0
 40
2.799999999999998
  1
303
  0
LINE
  5
18BE
  8
250
 10
300.7700000000007776
 20
61.8716666666667265
 30
0.0
 11
303.0000000000006821
 21
61.5000000000000497
 31
0.0
  0
LINE
  5
18BF
  8
250
 10
300.7700000000007776
 20
61.12833333333338
 30
0.0
 11
303.0000000000006821
 21
61.5000000000000497
 31
0.0
  0
LINE
  5
18C0
  8
250
 10
303.0000000000006821
 20
61.5000000000000497
 30
0.0
 11
300.7700000000007776
 21
61.5000000000000497
 31
0.0
  0
LINE
  5
18C1
  8
250
 10
2.2299999999999991
 20
61.12833333333338
 30
0.0
 11
0.0000000000000007
 21
61.5000000000000497
 31
0.0
  0
LINE
  5
18C2
  8
250
 10
2.2299999999999991
 20
61.8716666666667265
 30
0.0
 11
0.0000000000000007
 21
61.5000000000000497
 31
0.0
  0
LINE
  5
18C3
  8
250
 10
0.0000000000000007
 20
61.5000000000000497
 30
0.0
 11
2.2299999999999991
 21
61.5000000000000497
 31
0.0
  0
LINE
  5
18C4
  8
250
 10
-24.4724920002472999
 20
-38.763362050297161
 30
0.0
 11
-30.3663703600000012
 21
-48.9718588200006408
 31
0.0
1001
ACAD
1000
DSTYLE
1002
{
1070
     6
1000
OPEN
1070
   343
1005
594
1002
}
  0
LINE
  5
18C5
  8
250
 10
-24.7943647752967209
 20
-38.5775287169226004
 30
0.0
 11
-23.3574920000000006
 21
-36.8321254000006277
 31
0.0
  0
LINE
  5
18C6
  8
250
 10
-24.1506192251978788
 20
-38.9491953836716931
 30
0.0
 11
-23.3574920000000006
 21
-36.8321254000006277
 31
0.0
  0
LINE
  5
18C7
  8
250
 10
-23.3574920000000006
 20
-36.8321254000006277
 30
0.0
 11
-24.4724920002472999
 21
-38.763362050297161
 31
0.0
  0
VIEWPORT
  5
22
 67
     1
  8
0
 10
261.517699115044195
 20
148.5
 30
0.0
 40
523.0353982300885036
 41
297.0
 68
     1
 69
     1
1001
ACAD
1000
MVIEW
1002
{
1070
    16
1010
0.0
1020
0.0
1030
0.0
1010
0.0
1020
0.0
1030
1.0
1040
0.0
1040
297.0
1040
261.517699115044195
1040
148.5
1040
50.0
1040
0.0
1040
0.0
1070
     0
1070
   100
1070
     1
1070
     1
1070
     0
1070
     0
1070
     0
1070
     0
1040
0.0
1040
0.0
1040
0.0
1040
1.0
1040
1.0
1040
10.0
1040
10.0
1070
     0
1002
{
1002
}
1002
}
1001
GENIUS_GENODEF_13
1002
{
1000
HIER
1070
     0
1002
}
1002
{
1000
MANEDIT
1070
     0
1002
}
1002
{
1000
NOSEL
1070
     0
1002
}
1002
{
1000
BEHIND
1070
     0
1002
}
1002
{
1000
OTHER
1070
     0
1002
}
1002
{
1000
REACTOR
1002
}
1001
GENIUS_GENOBJ-N-SDF_13
1002
{
1000
OWNER
1000
GEN
1002
}
1001
GENIUS_GENSCREG_15
1000
PF
1040
1.0
1000
DF
1040
1.0
1000
MIN
1011
0.0
1021
0.0
1031
0.0
1021
0.0
1031
0.0
1000
MAX
1011
523.0353982300885036
1021
0.0
1031
0.0
1021
297.0
1031
0.0
1000
FLAGS
1070
     4
  0
ENDSEC
  0
EOF
