  0
SECTION
  2
HEADER
  9
$ACADVER
  1
AC1009
  9
$INSBASE
 10
0.0
 20
0.0
 30
0.0
  9
$EXTMIN
 10
-56.0569904134041508
 20
-51.1206780055425298
 30
0.0
  9
$EXTMAX
 10
255.9999999999998863
 20
81.9999999999993037
 30
0.0
  9
$LIMMIN
 10
0.0
 20
0.0
  9
$LIMMAX
 10
297.0
 20
210.0
  9
$ORTHOMODE
 70
     1
  9
$REGENMODE
 70
     1
  9
$FILLMODE
 70
     1
  9
$QTEXTMODE
 70
     0
  9
$MIRRTEXT
 70
     1
  9
$DRAGMODE
 70
     2
  9
$LTSCALE
 40
10.0
  9
$OSMODE
 70
   807
  9
$ATTMODE
 70
     1
  9
$TEXTSIZE
 40
3.0
  9
$TRACEWID
 40
1.0
  9
$TEXTSTYLE
  7
YOKO
  9
$CLAYER
  8
240
  9
$CELTYPE
  6
BYLAYER
  9
$CECOLOR
 62
   256
  9
$DIMSCALE
 40
1.0
  9
$DIMASZ
 40
2.2299999999999991
  9
$DIMEXO
 40
0.5
  9
$DIMDLI
 40
7.0
  9
$DIMRND
 40
0.0
  9
$DIMDLE
 40
0.0
  9
$DIMEXE
 40
1.0
  9
$DIMTP
 40
0.0
  9
$DIMTM
 40
0.01
  9
$DIMTXT
 40
2.799999999999998
  9
$DIMCEN
 40
0.0
  9
$DIMTSZ
 40
0.0
  9
$DIMTOL
 70
     0
  9
$DIMLIM
 70
     0
  9
$DIMTIH
 70
     0
  9
$DIMTOH
 70
     0
  9
$DIMSE1
 70
     0
  9
$DIMSE2
 70
     0
  9
$DIMTAD
 70
     3
  9
$DIMZIN
 70
     9
  9
$DIMBLK
  1
OPEN
  9
$DIMASO
 70
     1
  9
$DIMSHO
 70
     1
  9
$DIMPOST
  1

  9
$DIMAPOST
  1

  9
$DIMALT
 70
     0
  9
$DIMALTD
 70
     2
  9
$DIMALTF
 40
25.3999999999999986
  9
$DIMLFAC
 40
1.0
  9
$DIMTOFL
 70
     1
  9
$DIMTVP
 40
0.0
  9
$DIMTIX
 70
     1
  9
$DIMSOXD
 70
     0
  9
$DIMSAH
 70
     0
  9
$DIMBLK1
  1

  9
$DIMBLK2
  1

  9
$DIMSTYLE
  2
BIGT
  9
$DIMCLRD
 70
   256
  9
$DIMCLRE
 70
   256
  9
$DIMCLRT
 70
    40
  9
$DIMTFAC
 40
1.0
  9
$DIMGAP
 40
1.0
  9
$LUNITS
 70
     2
  9
$LUPREC
 70
     3
  9
$SKETCHINC
 40
1.0
  9
$FILLETRAD
 40
5.0
  9
$AUNITS
 70
     0
  9
$AUPREC
 70
     3
  9
$MENU
  1
.
  9
$ELEVATION
 40
0.0
  9
$PELEVATION
 40
0.0
  9
$THICKNESS
 40
0.0
  9
$LIMCHECK
 70
     0
  9
$BLIPMODE
 70
     0
  9
$CHAMFERA
 40
0.25
  9
$CHAMFERB
 40
0.25
  9
$SKPOLY
 70
     0
  9
$TDCREATE
 40
2456584.6462500002235174
  9
$TDUPDATE
 40
2458292.6449074079282582
  9
$TDINDWG
 40
0.0093674421
  9
$TDUSRTIMER
 40
0.0093672685
  9
$USRTIMER
 70
     1
  9
$ANGBASE
 50
0.0
  9
$ANGDIR
 70
     0
  9
$PDMODE
 70
     1
  9
$PDSIZE
 40
0.0
  9
$PLINEWID
 40
0.0
  9
$COORDS
 70
     1
  9
$SPLFRAME
 70
     0
  9
$SPLINETYPE
 70
     6
  9
$SPLINESEGS
 70
     4
  9
$ATTDIA
 70
     1
  9
$ATTREQ
 70
     1
  9
$HANDLING
 70
     1
  9
$HANDSEED
  5
19FD
  9
$SURFTAB1
 70
     6
  9
$SURFTAB2
 70
     6
  9
$SURFTYPE
 70
     6
  9
$SURFU
 70
     6
  9
$SURFV
 70
     6
  9
$UCSNAME
  2

  9
$UCSORG
 10
0.0
 20
0.0
 30
0.0
  9
$UCSXDIR
 10
1.0
 20
0.0
 30
0.0
  9
$UCSYDIR
 10
0.0
 20
1.0
 30
0.0
  9
$PUCSNAME
  2

  9
$PUCSORG
 10
0.0
 20
0.0
 30
0.0
  9
$PUCSXDIR
 10
1.0
 20
0.0
 30
0.0
  9
$PUCSYDIR
 10
0.0
 20
1.0
 30
0.0
  9
$USERI1
 70
     1
  9
$USERI2
 70
     0
  9
$USERI3
 70
     0
  9
$USERI4
 70
     0
  9
$USERI5
 70
     0
  9
$USERR1
 40
0.0
  9
$USERR2
 40
0.0
  9
$USERR3
 40
0.0
  9
$USERR4
 40
0.0
  9
$USERR5
 40
0.0
  9
$WORLDVIEW
 70
     1
  9
$SHADEDGE
 70
     3
  9
$SHADEDIF
 70
    70
  9
$TILEMODE
 70
     1
  9
$MAXACTVP
 70
    16
  9
$PLIMCHECK
 70
     0
  9
$PEXTMIN
 10
1.0000000000000000E+20
 20
1.0000000000000000E+20
 30
1.0000000000000000E+20
  9
$PEXTMAX
 10
-1.0000000000000000E+20
 20
-1.0000000000000000E+20
 30
-1.0000000000000000E+20
  9
$PLIMMIN
 10
0.0
 20
0.0
  9
$PLIMMAX
 10
420.0
 20
297.0
  9
$UNITMODE
 70
     0
  9
$VISRETAIN
 70
     1
  9
$PLINEGEN
 70
     0
  9
$PSLTSCALE
 70
     1
  0
ENDSEC
  0
SECTION
  2
TABLES
  0
TABLE
  2
VPORT
 70
     1
  0
VPORT
  2
*ACTIVE
 70
     0
 10
0.0
 20
0.0
 11
1.0
 21
1.0
 12
100.7747099878944965
 22
11.4340081992215801
 13
0.0
 23
0.0
 14
7.0
 24
7.0
 15
7.0
 25
7.0
 16
0.0
 26
0.0
 36
1.0
 17
0.0
 27
0.0
 37
0.0
 40
209.1777835326018078
 41
1.887387387387387
 42
50.0
 43
0.0
 44
0.0
 50
0.0
 51
0.0
 71
     0
 72
  2000
 73
     1
 74
     0
 75
     0
 76
     0
 77
     0
 78
     0
  0
ENDTAB
  0
TABLE
  2
LTYPE
 70
    17
  0
LTYPE
  2
CONTINUOUS
 70
     0
  3
Solid line
 72
    65
 73
     0
 40
0.0
  0
LTYPE
  2
CENTER2
 70
     0
  3
___ _ ___ _ ___ _ ___ _ ___ _ ___ _ ___ _ ___ _
 72
    65
 73
     4
 40
1.125
 49
0.75
 49
-0.125
 49
0.125
 49
-0.125
  0
LTYPE
  2
HIDDEN2
 70
     0
  3
_ _ _ _ _ _ _ _ _ _ _ _ _ _ _ _ _ _ _ _ _ _ _ _
 72
    65
 73
     2
 40
0.1875
 49
0.125
 49
-0.0625
  0
LTYPE
  2
PHANTOM2
 70
     0
  3
___ _ _ ___ _ _ ___ _ _ ___ _ _ ___ _ _ ___ _ _
 72
    65
 73
     6
 40
1.25
 49
0.625
 49
-0.125
 49
0.125
 49
-0.125
 49
0.125
 49
-0.125
  0
LTYPE
  2
CENTER
 70
     0
  3
____ _ ____ _ ____ _ ____ _ ____ _ ____ _ ____ 
 72
    65
 73
     4
 40
2.0
 49
1.25
 49
-0.25
 49
0.25
 49
-0.25
  0
LTYPE
  2
AMCONSTR
 70
     0
  3
_______________________
 72
    65
 73
     2
 40
9999.0
 49
9999.0
 49
0.0
  0
LTYPE
  2
HIDDEN
 70
     0
  3
Hidden __ __ __ __ __ __ __ __ __ __ __ __ __ _
 72
    65
 73
     2
 40
9.5249999999999986
 49
6.349999999999997
 49
-3.174999999999998
  0
LTYPE
  2
AMZIGZAG2
 70
     0
  3
/\/-/\/-/\/-/\/-/\/-/\/
 72
    65
 73
     2
 40
0.4401
 49
0.0001
 49
-0.4400000000000002
  0
LTYPE
  2
ACANSTGB
 70
     0
  3
__ . . __ . .
 72
    65
 73
     6
 40
0.35433070866
 49
0.15748031496
 49
-0.03937007874
 49
0.03937007874
 49
-0.03937007874
 49
0.03937007874
 49
-0.03937007874
  0
LTYPE
  2
ACANSTGL
 70
     0
  3
_ _ _ _ _
 72
    65
 73
     2
 40
0.11811023622
 49
0.07874015748
 49
-0.03937007874
  0
ENDTAB
  0
TABLE
  2
LAYER
 70
     8
  0
LAYER
  2
0
 70
     0
 62
     7
  6
CONTINUOUS
  0
LAYER
  2
240
 70
     0
 62
     4
  6
CONTINUOUS
  0
LAYER
  2
DEFPOINTS
 70
     0
 62
     7
  6
CONTINUOUS
  0
LAYER
  2
245
 70
     0
 62
     2
  6
CENTER2
  0
LAYER
  2
241
 70
     0
 62
   211
  6
CONTINUOUS
  0
LAYER
  2
242
 70
     0
 62
     3
  6
CONTINUOUS
  0
LAYER
  2
243
 70
     0
 62
   211
  6
HIDDEN2
  0
LAYER
  2
250
 70
     0
 62
     3
  6
CONTINUOUS
  0
ENDTAB
  0
TABLE
  2
STYLE
 70
     7
  0
STYLE
  2
STANDARD
 70
     0
 40
0.0
 41
1.0
 50
0.0
 71
     0
 42
3.0
  3
romans.shx
  4
extfont.shx
  0
STYLE
  2
YOKO
 70
     0
 40
0.0
 41
1.0
 50
0.0
 71
     0
 42
3.0
  3
romans.shx
  4
extfont.shx
  0
STYLE
  2
ACANSGDT
 70
     0
 40
0.0
 41
1.0
 50
0.0
 71
     0
 42
3.0
  3
amgdt.shx
  4

  0
ENDTAB
  0
TABLE
  2
VIEW
 70
     0
  0
ENDTAB
  0
TABLE
  2
UCS
 70
     0
  0
ENDTAB
  0
TABLE
  2
APPID
 70
    35
  0
APPID
  2
ACAD
 70
     0
  0
APPID
  2
ACADANNOTATIVE
 70
     0
  0
APPID
  2
GLOBAL
 70
     0
  0
APPID
  2
DETAIL
 70
     0
  0
APPID
  2
GRPNAME
 70
     0
  0
APPID
  2
GPARA
 70
     0
  0
APPID
  2
MCAD_NO_VIS
 70
     0
  0
APPID
  2
ACAD_TEMP_GRAPHIC
 70
     0
  0
APPID
  2
ACATTRIBSERVICES
 70
     0
  0
APPID
  2
GENIUS_GENSCREG_15
 70
     0
  0
APPID
  2
GENIUS_GENODEF_13
 70
     0
  0
APPID
  2
GENIUS_GENOBJ-N-SDF_13
 70
     0
  0
APPID
  2
GENIUS_GENREC_14
 70
     0
  0
APPID
  2
GENIUS_GENOBJ-N-REC_13
 70
     0
  0
APPID
  2
GENIUS_GENDIMSH_14
 70
     0
  0
APPID
  2
GENIUS_GENOBJ-N-DIM_13
 70
     0
  0
APPID
  2
GENIUS_GENDIM_13
 70
     0
  0
APPID
  2
GENIUS_GENDTOL_13
 70
     0
  0
APPID
  2
GENIUS_GENOLIS_13
 70
     0
  0
APPID
  2
GENIUS_GENOENT_13
 70
     0
  0
APPID
  2
GENIUS_GENOBJ-F-FEM_13
 70
     0
  0
APPID
  2
GENIUS_GENOREF_13
 70
     0
  0
APPID
  2
GENIUS_GEFFEM_13
 70
     0
  0
APPID
  2
GENIUS_GEFFEMP_13
 70
     0
  0
APPID
  2
AD_DRAW
 70
     0
  0
APPID
  2
DESIGNERASSEMBLIES
 70
     0
  0
APPID
  2
ACADM_DIM_EDIT
 70
     0
  0
APPID
  2
AMDT_DM_ADJ
 70
     0
  0
APPID
  2
GENIUS_GENOBJ-N-FIL_13
 70
     0
  0
APPID
  2
ITEMNAME
 70
     0
  0
APPID
  2
ACAD_DSTYLE_DIMBREAK
 70
     0
  0
APPID
  2
ACAD_DSTYLE_DIMJAG
 70
     0
  0
APPID
  2
ACAD_NAV_VCDISPLAY
 70
     0
  0
APPID
  2
ACAD_EXEMPT_FROM_CAD_STANDARDS
 70
     0
  0
APPID
  2
ACAD_MLEADERVER
 70
     0
  0
ENDTAB
  0
TABLE
  2
DIMSTYLE
 70
     9
  0
DIMSTYLE
  2
STANDARD
 70
     0
  3

  4

  5

  6

  7

 40
1.0
 41
0.18
 42
0.0625
 43
0.38
 44
0.18
 45
0.0
 46
0.0
 47
0.0
 48
0.0
140
0.18
141
0.09
142
0.0
143
25.3999999999999986
144
1.0
145
0.0
146
1.0
147
0.09
 71
     0
 72
     0
 73
     1
 74
     1
 75
     0
 76
     0
 77
     0
 78
     0
170
     0
171
     2
172
     0
173
     0
174
     0
175
     0
176
     0
177
     0
178
     0
  0
DIMSTYLE
  2
BIGT
 70
     0
  3

  4

  5

  6

  7

 40
1.0
 41
2.2299999999999991
 42
0.5
 43
7.0
 44
1.0
 45
0.0
 46
0.0
 47
0.0
 48
0.01
140
2.799999999999998
141
0.0
142
0.0
143
25.3999999999999986
144
1.0
145
0.0
146
1.0
147
1.0
 71
     0
 72
     0
 73
     0
 74
     0
 75
     0
 76
     0
 77
     3
 78
     9
170
     0
171
     2
172
     1
173
     0
174
     1
175
     0
176
   256
177
   256
178
    40
  0
DIMSTYLE
  2
AM_ANSI
 70
     0
  3

  4
mm
  5

  6

  7

 40
1.0
 41
0.1
 42
0.05
 43
0.5
 44
0.1
 45
0.0
 46
0.0
 47
0.1
 48
0.1
140
0.12
141
0.0
142
0.0
143
25.3999999999999986
144
1.0
145
0.0
146
0.71
147
0.06
 71
     0
 72
     0
 73
     1
 74
     1
 75
     0
 76
     0
 77
     0
 78
     7
170
     0
171
     2
172
     0
173
     0
174
     0
175
     0
176
   256
177
   256
178
     2
  0
DIMSTYLE
  2
AM_ANSI$3
 70
     0
  3

  4
mm
  5

  6

  7

 40
1.0
 41
0.1
 42
0.05
 43
0.5
 44
0.1
 45
0.0
 46
0.0
 47
0.1
 48
0.1
140
0.12
141
0.0
142
0.0
143
25.3999999999999986
144
1.0
145
0.0
146
0.71
147
0.06
 71
     0
 72
     0
 73
     1
 74
     1
 75
     0
 76
     0
 77
     0
 78
     7
170
     0
171
     2
172
     0
173
     0
174
     0
175
     0
176
   256
177
   256
178
     2
  0
DIMSTYLE
  2
AM_ANSI$4
 70
     0
  3

  4
mm
  5

  6

  7

 40
1.0
 41
0.1
 42
0.05
 43
0.5
 44
0.1
 45
0.0
 46
0.0
 47
0.1
 48
0.1
140
0.12
141
0.0
142
0.0
143
25.3999999999999986
144
1.0
145
0.0
146
0.71
147
0.06
 71
     0
 72
     0
 73
     1
 74
     1
 75
     0
 76
     0
 77
     0
 78
     7
170
     0
171
     2
172
     0
173
     0
174
     0
175
     0
176
   256
177
   256
178
     2
  0
DIMSTYLE
  2
AM_ANSI$7
 70
     0
  3

  4
mm
  5

  6

  7

 40
1.0
 41
0.1
 42
0.05
 43
0.5
 44
0.1
 45
0.0
 46
0.0
 47
0.1
 48
0.1
140
0.24
141
0.0
142
0.0
143
25.3999999999999986
144
1.0
145
0.0
146
0.71
147
0.06
 71
     0
 72
     0
 73
     1
 74
     1
 75
     0
 76
     0
 77
     0
 78
     7
170
     0
171
     2
172
     0
173
     0
174
     0
175
     0
176
   256
177
   256
178
     2
  0
DIMSTYLE
  2
AM_ANSI$SF
 70
     0
  3

  4
mm
  5

  6

  7

 40
1.0
 41
0.1
 42
0.05
 43
0.5
 44
0.1
 45
0.0
 46
0.0
 47
0.1
 48
0.1
140
0.12
141
0.0
142
0.0
143
25.3999999999999986
144
1.0
145
0.0
146
0.71
147
0.06
 71
     0
 72
     0
 73
     1
 74
     1
 75
     1
 76
     1
 77
     0
 78
     7
170
     0
171
     2
172
     0
173
     0
174
     0
175
     0
176
   256
177
   256
178
     2
  0
DIMSTYLE
  2
AM_ANSI$SH
 70
     0
  3

  4
mm
  5

  6

  7

 40
1.0
 41
0.1
 42
0.05
 43
0.5
 44
0.1
 45
0.0
 46
0.0
 47
0.1
 48
0.1
140
0.12
141
0.0
142
0.0
143
25.3999999999999986
144
1.0
145
0.0
146
0.71
147
0.06
 71
     0
 72
     0
 73
     1
 74
     1
 75
     1
 76
     1
 77
     0
 78
     7
170
     0
171
     2
172
     0
173
     1
174
     0
175
     0
176
   256
177
   256
178
     2
  0
ENDTAB
  0
ENDSEC
  0
SECTION
  2
BLOCKS
  0
BLOCK
  8
0
  2
$MODEL_SPACE
 70
     0
 10
0.0
 20
0.0
 30
0.0
  3
$MODEL_SPACE
  1

  0
ENDBLK
  5
18E2
  8
0
  0
BLOCK
 67
     1
  8
0
  2
$PAPER_SPACE
 70
     0
 10
0.0
 20
0.0
 30
0.0
  3
$PAPER_SPACE
  1

  0
ENDBLK
  5
18DE
 67
     1
  8
0
  0
BLOCK
  8
0
  2
_OPEN
 70
     0
 10
0.0
 20
0.0
 30
0.0
  3
_OPEN
  1

  0
LINE
  5
16EB
  8
0
  6
BYBLOCK
 62
     0
 10
-1.0
 20
0.1666666666666666
 30
0.0
 11
0.0
 21
0.0
 31
0.0
  0
LINE
  5
16EC
  8
0
  6
BYBLOCK
 62
     0
 10
-1.0
 20
-0.1666666666666666
 30
0.0
 11
0.0
 21
0.0
 31
0.0
  0
LINE
  5
16ED
  8
0
  6
BYBLOCK
 62
     0
 10
0.0
 20
0.0
 30
0.0
 11
-1.0
 21
0.0
 31
0.0
  0
ENDBLK
  5
16EE
  8
0
  0
BLOCK
  8
0
  2
_ACMFILLEDHALF
 70
     0
 10
0.0
 20
0.0
 30
0.0
  3
_ACMFILLEDHALF
  1

  0
TRACE
  5
197D
  8
240
 62
     0
 10
-0.8
 20
0.0
 30
0.0
 11
-1.0
 21
0.166666666
 31
0.0
 12
0.0
 22
0.0
 32
0.0
 13
0.0
 23
0.0
 33
0.0
  0
LINE
  5
197E
  8
240
 62
     0
 10
-1.0
 20
0.0
 30
0.0
 11
-0.8
 21
0.0
 31
0.0
  0
ENDBLK
  5
197C
  8
0
  0
ENDSEC
  0
SECTION
  2
ENTITIES
  0
LINE
  5
13A4
  8
243
 10
230.2999999999998977
 20
15.4099999999997603
 30
0.0
 11
241.0
 21
15.4099999999997603
 31
0.0
  0
LINE
  5
13A5
  8
243
 10
230.2999999999998977
 20
-15.4100000000002009
 30
0.0
 11
230.2999999999998977
 21
-11.0000000000002398
 31
0.0
  0
LINE
  5
13A6
  8
243
 10
230.2999999999998977
 20
-15.4100000000002009
 30
0.0
 11
241.0
 21
-15.4100000000002009
 31
0.0
  0
LINE
  5
13A7
  8
243
 10
214.9499999999999886
 20
-11.0000000000002398
 30
0.0
 11
241.0
 21
-11.0000000000002398
 31
0.0
  0
LINE
  5
13A8
  8
243
 10
214.9499999999999886
 20
10.9999999999997407
 30
0.0
 11
241.0
 21
10.9999999999997407
 31
0.0
  0
LINE
  5
13A9
  8
243
 10
230.2999999999998977
 20
15.4099999999997603
 30
0.0
 11
230.2999999999998977
 21
10.9999999999997407
 31
0.0
  0
CIRCLE
  5
13AA
  8
242
 10
231.0
 20
-0.0000000000002524
 30
0.0
 40
4.0
  0
LINE
  5
13AB
  8
241
 10
233.0000000000001137
 20
1.1547005383790481
 30
0.0
 11
233.0000000000001137
 21
-1.154700538379497
 31
0.0
  0
LINE
  5
13AC
  8
241
 10
229.0
 20
1.1547005383790481
 30
0.0
 11
229.0
 21
-1.1547005383795521
 31
0.0
  0
LINE
  5
13AD
  8
241
 10
231.0
 20
-2.3094010767587401
 30
0.0
 11
229.0
 21
-1.1547005383795521
 31
0.0
  0
LINE
  5
13AE
  8
241
 10
229.0
 20
1.1547005383790481
 30
0.0
 11
231.0000000000001137
 21
2.3094010767582351
 31
0.0
  0
LINE
  5
13AF
  8
241
 10
231.0
 20
-2.3094010767587401
 30
0.0
 11
233.0000000000001137
 21
-1.154700538379497
 31
0.0
  0
LINE
  5
13B0
  8
241
 10
233.0000000000001137
 20
1.1547005383790481
 30
0.0
 11
231.0000000000001137
 21
2.3094010767582351
 31
0.0
  0
LINE
  5
13B1
  8
241
 10
201.0
 20
-19.2500000000002309
 30
0.0
 11
201.0
 21
19.2499999999975593
 31
0.0
  0
CIRCLE
  5
13B2
  8
241
 10
231.0
 20
-0.0000000000002524
 30
0.0
 40
3.5
  0
LINE
  5
13B3
  8
240
 10
240.5
 20
19.2499999999997016
 30
0.0
 11
241.0
 21
18.7499999999997193
 31
0.0
  0
LINE
  5
13B4
  8
240
 10
200.9999999999998863
 20
19.2499999999997016
 30
0.0
 11
200.5669872981075912
 21
19.4999999999997584
 31
0.0
  0
LINE
  5
13B5
  8
240
 10
200.5669872981075912
 20
19.4999999999997584
 30
0.0
 11
41.9999999999996874
 21
19.5000000000013287
 31
0.0
  0
LINE
  5
13B6
  8
240
 10
200.9999999999998863
 20
19.2499999999997016
 30
0.0
 11
240.5
 21
19.2499999999997016
 31
0.0
  0
LINE
  5
13B7
  8
240
 10
241.0
 20
-18.7500000000002807
 30
0.0
 11
240.5
 21
-19.2500000000002807
 31
0.0
  0
LINE
  5
13B8
  8
240
 10
201.0
 20
-19.2500000000002807
 30
0.0
 11
200.5669872981077901
 21
-19.5000000000002416
 31
0.0
  0
LINE
  5
13B9
  8
240
 10
200.5669872981077901
 20
-19.5000000000002416
 30
0.0
 11
41.9999999998802025
 21
-19.5000000000002416
 31
0.0
  0
LINE
  5
13BA
  8
240
 10
201.0
 20
-19.2500000000002807
 30
0.0
 11
240.5
 21
-19.2500000000002807
 31
0.0
  0
LINE
  5
13BB
  8
240
 10
241.0
 20
-18.7500000000002416
 30
0.0
 11
241.0
 21
18.7499999999997407
 31
0.0
  0
LINE
  5
13BC
  8
240
 10
241.0
 20
-18.7500000000002807
 30
0.0
 11
241.0
 21
18.7499999999997193
 31
0.0
  0
LINE
  5
13BD
  8
245
 10
231.0
 20
6.9999999999997451
 30
0.0
 11
231.0
 21
-7.0000000000002514
 31
0.0
  0
LINE
  5
13BE
  8
245
 10
-56.0569904134041508
 20
-0.0000000000004547
 30
0.0
 11
245.7192018050720037
 21
-0.0000000000015064
 31
0.0
  0
LINE
  5
13BF
  8
250
 10
241.0
 20
19.2499999999997016
 30
0.0
 11
255.9999999999998863
 21
19.2499999999997016
 31
0.0
  0
LINE
  5
13C0
  8
250
 10
240.9999999999998863
 20
-19.2500000000002807
 30
0.0
 11
255.9999999999998863
 21
-19.2500000000002807
 31
0.0
  0
LINE
  5
13C1
  8
250
 10
254.9999999999998863
 20
17.0199999999997011
 30
0.0
 11
254.9999999999998863
 21
-17.0200000000002696
 31
0.0
  0
LINE
  5
13C2
  8
250
 10
247.744907997167104
 20
-29.5921353937361289
 30
0.0
 11
237.344907997167212
 21
-29.5921353937361289
 31
0.0
  0
LINE
  5
13C3
  8
250
 10
237.344907997167212
 20
-29.5921353937361289
 30
0.0
 11
235.6940152704424065
 21
-29.5921353937361289
 31
0.0
  0
LINE
  5
13C4
  8
250
 10
235.6940152704424065
 20
-29.5921353937361289
 30
0.0
 11
227.3025790034186002
 21
-12.9902152965979507
 31
0.0
  0
LINE
  5
13C5
  8
250
 10
227.3025790034186002
 20
-12.9902152965979507
 30
0.0
 11
226.2966251907668038
 21
-11.0000000000002398
 31
0.0
  0
LINE
  5
13C6
  8
250
 10
227.5645958167833101
 20
-12.8577789652956795
 30
0.0
 11
226.2966251907668038
 21
-11.0000000000002398
 31
0.0
  0
LINE
  5
13C7
  8
250
 10
226.2966251907668038
 20
-11.0000000000002398
 30
0.0
 11
227.0405621900538904
 21
-13.1226516279002201
 31
0.0
  0
TEXT
  5
13C8
  8
250
 10
253.9999999999998863
 20
-5.8000000000002414
 30
0.0
 40
2.799999999999998
  1
\U+220538.5
 50
90.0
  0
LINE
  5
13C9
  8
250
 10
255.3716666666666981
 20
-17.0200000000002696
 30
0.0
 11
254.9999999999998863
 21
-19.2500000000002807
 31
0.0
  0
LINE
  5
13CA
  8
250
 10
254.6283333333331029
 20
-17.0200000000002696
 30
0.0
 11
254.9999999999998863
 21
-19.2500000000002807
 31
0.0
  0
LINE
  5
13CB
  8
250
 10
254.9999999999998863
 20
-19.2500000000002807
 30
0.0
 11
254.9999999999998863
 21
-17.0200000000002696
 31
0.0
  0
LINE
  5
13CC
  8
250
 10
254.6283333333331029
 20
17.0199999999997011
 30
0.0
 11
254.9999999999998863
 21
19.2499999999997016
 31
0.0
  0
LINE
  5
13CD
  8
250
 10
255.3716666666666981
 20
17.0199999999997011
 30
0.0
 11
254.9999999999998863
 21
19.2499999999997016
 31
0.0
  0
LINE
  5
13CE
  8
250
 10
254.9999999999998863
 20
19.2499999999997016
 30
0.0
 11
254.9999999999998863
 21
17.0199999999997011
 31
0.0
  0
TEXT
  5
13CF
  8
250
 10
239.7449079971671893
 20
-28.1921353937361303
 30
0.0
 40
2.799999999999998
  1
CK4
  7
YOKO
  0
LINE
  5
1446
  8
241
 10
36.9999999999998508
 20
-24.5000000000002487
 30
0.0
 11
36.9999999999997726
 21
24.5000000000013287
 31
0.0
  0
LINE
  5
1449
  8
240
 10
-50.0
 20
-0.0000000000007728
 30
0.0
 11
-50.0
 21
33.5975015605491976
 31
0.0
1001
GRPNAME
1000
PASTMD0M
  0
LINE
  5
144A
  8
240
 10
28.4999999999998899
 20
-50.0000000000007816
 30
0.0
 11
23.2475952641916592
 21
-50.0000000000007816
 31
0.0
1001
GRPNAME
1000
PASTMD0M
  0
LINE
  5
144B
  8
240
 10
-2.0
 20
-37.9000000000007518
 30
0.0
 11
-48.0998752338877011
 21
-35.595006238306361
 31
0.0
1001
GRPNAME
1000
PASTMD0M
  0
LINE
  5
144C
  8
240
 10
-50.0
 20
-33.5975015605507465
 30
0.0
 11
-50.0
 21
-0.0000000000007728
 31
0.0
1001
GRPNAME
1000
PASTMD0M
  0
ARC
  5
144D
  8
240
 10
-48.0
 20
-33.5975015605507465
 30
0.0
 40
2.0
 50
179.9999999833312074
 51
267.1375947572238942
1001
GRPNAME
1000
PASTMD0M
  0
LINE
  5
144E
  8
245
 10
20.0
 20
-51.1206780055425298
 30
0.0
 11
20.0
 21
51.1206780055407606
 31
0.0
  0
LINE
  5
144F
  8
241
 10
23.2475952641915491
 20
-50.0000000000007816
 30
0.0
 11
23.2475952641915384
 21
31.4999999999992397
 31
0.0
1001
GRPNAME
1000
PASTMD0M
  0
LINE
  5
1450
  8
241
 10
23.2475952641915384
 20
38.8297566299992525
 30
0.0
 11
23.2475952641915491
 21
49.9999999999989413
 31
0.0
1001
GRPNAME
1000
PASTMD0M
  0
LINE
  5
1451
  8
241
 10
21.875
 20
-46.0000000000007674
 30
0.0
 11
21.875
 21
31.4999999999992291
 31
0.0
1001
GRPNAME
1000
PASTMD0M
  0
LINE
  5
1452
  8
241
 10
21.875
 20
33.4999999999992397
 30
0.0
 11
21.875
 21
45.9999999999989271
 31
0.0
1001
GRPNAME
1000
PASTMD0M
  0
LINE
  5
1453
  8
241
 10
18.125
 20
-46.0000000000007674
 30
0.0
 11
18.125
 21
31.4999999999992397
 31
0.0
1001
GRPNAME
1000
PASTMD0M
  0
LINE
  5
1454
  8
241
 10
18.125
 20
33.4999999999992397
 30
0.0
 11
18.125
 21
45.9999999999989981
 31
0.0
1001
GRPNAME
1000
PASTMD0M
  0
LINE
  5
1455
  8
240
 10
16.7524047358083408
 20
-50.0000000000007816
 30
0.0
 11
0.5
 21
-50.0000000000007816
 31
0.0
1001
GRPNAME
1000
PASTMD0M
  0
LINE
  5
1456
  8
240
 10
0.0
 20
-49.5000000000007674
 30
0.0
 11
0.0000000000169735
 21
-37.9000000000007518
 31
0.0
1001
GRPNAME
1000
PASTMD0M
  0
ARC
  5
1457
  8
240
 10
0.5
 20
-49.5000000000007674
 30
0.0
 40
0.5
 50
180.000000002569692
 51
270.0000000025730174
1001
GRPNAME
1000
PASTMD0M
  0
LINE
  5
1458
  8
240
 10
18.125
 20
-47.6225952641925403
 30
0.0
 11
16.7524047358083408
 21
-50.0000000000007816
 31
0.0
1001
GRPNAME
1000
PASTMD0M
  0
LINE
  5
1459
  8
240
 10
21.875
 20
-47.6225952641925403
 30
0.0
 11
23.2475952641916592
 21
-50.0000000000007816
 31
0.0
1001
GRPNAME
1000
PASTMD0M
  0
LINE
  5
145A
  8
240
 10
18.125
 20
-46.0000000000007674
 30
0.0
 11
18.125
 21
-47.6225952641925403
 31
0.0
1001
GRPNAME
1000
PASTMD0M
  0
LINE
  5
145B
  8
240
 10
21.875
 20
-46.0000000000007674
 30
0.0
 11
18.125
 21
-46.0000000000007674
 31
0.0
1001
GRPNAME
1000
PASTMD0M
  0
LINE
  5
145C
  8
240
 10
21.875
 20
-46.0000000000007674
 30
0.0
 11
21.875
 21
-47.6225952641925403
 31
0.0
1001
GRPNAME
1000
PASTMD0M
  0
LINE
  5
145D
  8
241
 10
28.9999999999998899
 20
-42.70000000000082
 30
0.0
 11
28.9999999999998899
 21
42.6999999999989228
 31
0.0
1001
GRPNAME
1000
PASTMD0M
  0
LINE
  5
145E
  8
240
 10
28.9999999999998899
 20
-49.5000000000007674
 30
0.0
 11
28.9999999999998899
 21
-42.70000000000082
 31
0.0
1001
GRPNAME
1000
PASTMD0M
  0
ARC
  5
145F
  8
240
 10
28.4999999999998899
 20
-49.5000000000007674
 30
0.0
 40
0.5
 50
269.9999998945941115
 51
359.9999998945875745
1001
GRPNAME
1000
PASTMD0M
  0
LINE
  5
1460
  8
240
 10
29.1999999999998288
 20
-42.5000000000007674
 30
0.0
 11
36.0000000000429665
 21
-42.5000000000007674
 31
0.0
  0
ARC
  5
1461
  8
240
 10
29.1999999999998288
 20
-42.70000000000082
 30
0.0
 40
0.1999999999999886
 50
90.0
 51
180.0
  0
LINE
  5
1462
  8
243
 10
28.9999999999998899
 20
43.9999999999992326
 30
0.0
 11
4.9999999999993161
 21
43.9999999999992326
 31
0.0
1001
GRPNAME
1000
PASTMD0M
  0
LINE
  5
1463
  8
240
 10
28.5
 20
49.9999999999992113
 30
0.0
 11
23.2475952641915491
 21
49.9999999999992113
 31
0.0
1001
GRPNAME
1000
PASTMD0M
  0
LINE
  5
1464
  8
240
 10
-2.0
 20
37.8999999999993165
 30
0.0
 11
-48.0998752338877011
 21
35.595006238304812
 31
0.0
1001
GRPNAME
1000
PASTMD0M
  0
ARC
  5
1465
  8
240
 10
-48.0
 20
33.5975015605491976
 30
0.0
 40
2.0000000000000191
 50
92.8624051341731303
 51
179.9999999080644955
1001
GRPNAME
1000
PASTMD0M
  0
LINE
  5
1466
  8
240
 10
16.7524047358083408
 20
49.9999999999992113
 30
0.0
 11
0.5
 21
49.9999999999992113
 31
0.0
1001
GRPNAME
1000
PASTMD0M
  0
LINE
  5
1467
  8
240
 10
0.0
 20
37.8999999999993165
 30
0.0
 11
0.0
 21
49.4999999999992184
 31
0.0
1001
GRPNAME
1000
PASTMD0M
  0
ARC
  5
1468
  8
240
 10
0.5
 20
49.4999999999992184
 30
0.0
 40
0.5
 50
89.9999999048793455
 51
179.9999999048727943
1001
GRPNAME
1000
PASTMD0M
  0
LINE
  5
1469
  8
243
 10
4.9999999999993161
 20
43.9999999999992326
 30
0.0
 11
4.9999999999993161
 21
49.9999999999992113
 31
0.0
1001
GRPNAME
1000
PASTMD0M
  0
LINE
  5
146A
  8
240
 10
21.875
 20
47.6225952641909913
 30
0.0
 11
23.2475952641916592
 21
49.9999999999992113
 31
0.0
1001
GRPNAME
1000
PASTMD0M
  0
LINE
  5
146B
  8
240
 10
18.125
 20
47.6225952641909913
 30
0.0
 11
16.7524047358083408
 21
49.9999999999992113
 31
0.0
1001
GRPNAME
1000
PASTMD0M
  0
LINE
  5
146C
  8
240
 10
18.125
 20
45.9999999999992184
 30
0.0
 11
18.125
 21
47.6225952641909913
 31
0.0
1001
GRPNAME
1000
PASTMD0M
  0
LINE
  5
146D
  8
240
 10
21.875
 20
45.9999999999992184
 30
0.0
 11
18.125
 21
45.9999999999992184
 31
0.0
1001
GRPNAME
1000
PASTMD0M
  0
LINE
  5
146E
  8
240
 10
21.875
 20
45.9999999999992184
 30
0.0
 11
21.875
 21
47.6225952641909913
 31
0.0
1001
GRPNAME
1000
PASTMD0M
  0
LINE
  5
146F
  8
240
 10
28.9999999999998899
 20
42.699999999999271
 30
0.0
 11
29.0
 21
49.4999999999992184
 31
0.0
1001
GRPNAME
1000
PASTMD0M
  0
LINE
  5
1470
  8
242
 10
29.4999999999998792
 20
41.0308203419665389
 30
0.0
 11
36.4999999999997726
 21
40.17841574633362
 31
0.0
  0
LINE
  5
1471
  8
242
 10
29.4999999999998792
 20
40.17841574633362
 30
0.0
 11
36.1875929600753423
 21
41.0130671955274906
 31
0.0
  0
LINE
  5
1472
  8
241
 10
29.4999999999998792
 20
40.17841574633362
 30
0.0
 11
36.4999999999997726
 21
40.17841574633362
 31
0.0
  0
LINE
  5
1473
  8
240
 10
29.4999999999998792
 20
41.0308203419665389
 30
0.0
 11
35.9999999999996589
 21
41.0308203419665389
 31
0.0
  0
LINE
  5
1474
  8
241
 10
29.4999999999998792
 20
40.17841574633362
 30
0.0
 11
29.4999999999998792
 21
41.0308203419665389
 31
0.0
  0
LINE
  5
1475
  8
240
 10
29.4999999999998792
 20
41.0308203419665389
 30
0.0
 11
29.4999999999998792
 21
42.4999999999991971
 31
0.0
  0
LINE
  5
1476
  8
240
 10
29.1999999999998288
 20
42.4999999999991971
 30
0.0
 11
29.4999999999998792
 21
42.4999999999991971
 31
0.0
  0
ARC
  5
1477
  8
240
 10
29.1999999999998288
 20
42.699999999999271
 30
0.0
 40
0.1999999999999886
 50
180.0
 51
270.0
  0
LINE
  5
1478
  8
241
 10
36.4999999999997726
 20
40.17841574633362
 30
0.0
 11
36.4999999999997726
 21
40.8968457457273402
 31
0.0
  0
ARC
  5
1479
  8
240
 10
28.5
 20
49.4999999999992184
 30
0.0
 40
0.5
 50
0.0000000025729415
 51
90.0000000025663667
1001
GRPNAME
1000
PASTMD0M
  0
LINE
  5
147A
  8
240
  6
CONTINUOUS
 10
37.0000000000429807
 20
-41.4999999999998721
 30
0.0
 11
36.9999999998802025
 21
-24.5000000000481286
 31
0.0
  0
ARC
  5
147B
  8
240
  6
CONTINUOUS
 10
36.0000000000429665
 20
-41.4999999999998721
 30
0.0
 40
1.0
 50
270.0000000000032969
 51
0.0
  0
ARC
  5
147C
  8
240
 10
35.9999999999997726
 20
40.030820341966681
 30
0.0
 40
1.0
 50
0.0
 51
90.0
  0
LINE
  5
147D
  8
240
 10
36.9999999999997726
 20
24.5000000000013287
 30
0.0
 11
36.9999999999997726
 21
40.030820341966681
 31
0.0
  0
LINE
  5
147E
  8
241
 10
16.7524047358089483
 20
49.9999999999990266
 30
0.0
 11
16.7524047358088204
 21
38.8297566299992525
 31
0.0
1001
GRPNAME
1000
PASTMD0M
  0
LINE
  5
147F
  8
241
 10
16.7524047358087316
 20
31.4999999999992291
 30
0.0
 11
16.752404735807719
 21
-50.0000000000007816
 31
0.0
1001
GRPNAME
1000
PASTMD0M
  0
LINE
  5
1480
  8
241
 10
0.0
 20
37.8999999999993165
 30
0.0
 11
0.0
 21
-37.9000000000007518
 31
0.0
1001
GRPNAME
1000
PASTMD0M
  0
LINE
  5
1481
  8
241
 10
-1.999999999999533
 20
37.8999999999992312
 30
0.0
 11
-2.000000000000465
 21
-37.9000000000007589
 31
0.0
1001
GRPNAME
1000
PASTMD0M
  0
LINE
  5
1482
  8
240
 10
-2.0
 20
37.8999999999993165
 30
0.0
 11
0.0
 21
37.8999999999993165
 31
0.0
  0
LINE
  5
1483
  8
240
 10
-2.0
 20
-37.9000000000007518
 30
0.0
 11
0.0000000000169735
 21
-37.9000000000007518
 31
0.0
  0
LINE
  5
1484
  8
243
 10
-30.0033756700000005
 20
26.4999999999992397
 30
0.0
 11
-50.0
 21
26.4999999999992397
 31
0.0
1001
GRPNAME
1000
PASTMD19
  0
ARC
  5
1485
  8
243
 10
-9.4966925399999962
 20
19.4999999999992291
 30
0.0
 40
11.9999999980548804
 50
43.7127665700001131
 51
89.9999999399999666
1001
GRPNAME
1000
PASTMD19
  0
LINE
  5
1486
  8
243
 10
-9.4966925399999962
 20
31.4999999999992397
 30
0.0
 11
-26.5392740600000003
 21
31.4999999999992397
 31
0.0
1001
GRPNAME
1000
PASTMD19
  0
LINE
  5
1487
  8
243
 10
-30.0033756700000005
 20
26.4999999999992397
 30
0.0
 11
-27.4052994599999984
 21
30.9999999999992397
 31
0.0
1001
GRPNAME
1000
PASTMD19
  0
LINE
  5
1488
  8
243
 10
-40.0
 20
26.4999999999992397
 30
0.0
 11
-40.0
 21
36.2499999999992397
 31
0.0
1001
GRPNAME
1000
PASTMD19
  0
ARC
  5
1489
  8
243
 10
-26.5392740600000003
 20
30.4999999999992397
 30
0.0
 40
1.0
 50
90.0000000699998566
 51
150.0000000699997997
1001
GRPNAME
1000
PASTMD19
  0
LINE
  5
148A
  8
243
 10
-21.0
 20
31.4999999999992397
 30
0.0
 11
-21.0
 21
36.9499999999992426
 31
0.0
1001
GRPNAME
1000
PASTMD1J
  0
LINE
  5
148B
  8
243
 10
-9.0
 20
31.4897162799992394
 30
0.0
 11
-9.0
 21
37.5499999999992369
 31
0.0
1001
GRPNAME
1000
PASTMD1J
  0
LINE
  5
148C
  8
241
 10
5.0
 20
31.4999999999992397
 30
0.0
 11
29.0
 21
31.4999999999992397
 31
0.0
1001
GRPNAME
1000
PASTMD1F
  0
ARC
  5
148D
  8
241
 10
14.6368978599999995
 20
28.8297566299992312
 30
0.0
 40
9.9999999999997158
 50
90.0000000800001345
 51
164.5127260499999124
1001
GRPNAME
1000
PASTMD1F
  0
LINE
  5
148E
  8
241
 10
21.875
 20
36.4523518899992496
 30
0.0
 11
23.2475952600000006
 21
38.8297566299992525
 31
0.0
1001
GRPNAME
1000
PASTMD1F
  0
LINE
  5
148F
  8
241
 10
18.125
 20
33.4999999999992397
 30
0.0
 11
21.875
 21
33.4999999999992397
 31
0.0
1001
GRPNAME
1000
PASTMD1F
  0
LINE
  5
1490
  8
241
 10
18.125
 20
36.4523518899992496
 30
0.0
 11
16.7524047399999994
 21
38.8297566299992525
 31
0.0
1001
GRPNAME
1000
PASTMD1F
  0
LINE
  5
1491
  8
241
 10
14.6368978599999995
 20
38.8297566299992525
 30
0.0
 11
16.7524047399999994
 21
38.8297566299992525
 31
0.0
1001
GRPNAME
1000
PASTMD1F
  0
LINE
  5
1492
  8
241
 10
23.2475952600000006
 20
38.8297566299992525
 30
0.0
 11
29.0
 21
38.8297566299992525
 31
0.0
1001
GRPNAME
1000
PASTMD1F
  0
TEXT
  5
1493
  8
241
 10
-45.0
 20
76.9999999999992895
 30
0.0
 40
5.0
  1
HSK-A100-CKB4DP-241
  7
YOKO
 11
-45.0
 21
76.9999999999992895
 31
0.0
 73
     1
1001
GRPNAME
1000
PASTMD0I
  0
LINE
  5
1494
  8
250
 10
-22.7943647752967209
 20
-38.5775287169226786
 30
0.0
 11
-21.3574920000000006
 21
-36.832125400000713
 31
0.0
  0
LINE
  5
1495
  8
250
 10
-22.1506192251978788
 20
-38.9491953836717926
 30
0.0
 11
-21.3574920000000006
 21
-36.832125400000713
 31
0.0
  0
LINE
  5
1496
  8
250
 10
-21.3574920000000006
 20
-36.832125400000713
 30
0.0
 11
-22.4724920002473105
 21
-38.763362050297232
 31
0.0
  0
LINE
  5
1497
  8
250
 10
-22.4724920002473105
 20
-38.763362050297232
 30
0.0
 11
-28.3663703600000012
 21
-48.9718588200007119
 31
0.0
1001
ACAD
1000
DSTYLE
1002
{
1070
     6
1000
OPEN
1070
   343
1005
594
1002
}
  0
TEXT
  5
1498
  8
250
 10
-53.0330370233333213
 20
-47.9718588200007119
 30
0.0
 40
2.799999999999998
  1
HSK-A100
  7
YOKO
1001
ITEMNAME
1000
LNSP3
  0
LINE
  5
1499
  8
250
 10
-28.3663703600000012
 20
-48.9718588200007119
 30
0.0
 11
-55.2997036900000012
 21
-48.9718588200007119
 31
0.0
1001
ITEMNAME
1000
LNSP2
  0
ARC
  5
14F8
  8
240
 10
41.9999999999997726
 20
24.5000000000013287
 30
0.0
 40
5.0
 50
180.0
 51
269.9999999999993747
1001
GENIUS_GENOBJ-N-FIL_13
1002
{
1000
OWNER
1000
GEN
1002
}
1001
GENIUS_GENODEF_13
1002
{
1000
HIER
1070
     0
1002
}
1002
{
1000
MANEDIT
1070
     0
1002
}
1002
{
1000
NOSEL
1070
     0
1002
}
1002
{
1000
BEHIND
1070
     0
1002
}
1002
{
1000
OTHER
1070
     0
1002
}
1002
{
1000
REACTOR
1002
}
  0
ARC
  5
14FA
  8
240
 10
41.9999999998802025
 20
-24.5000000000002487
 30
0.0
 40
5.0
 50
90.0
 51
180.0000000005485958
1001
GENIUS_GENOBJ-N-FIL_13
1002
{
1000
OWNER
1000
GEN
1002
}
1001
GENIUS_GENODEF_13
1002
{
1000
HIER
1070
     0
1002
}
1002
{
1000
MANEDIT
1070
     0
1002
}
1002
{
1000
NOSEL
1070
     0
1002
}
1002
{
1000
BEHIND
1070
     0
1002
}
1002
{
1000
OTHER
1070
     0
1002
}
1002
{
1000
REACTOR
1002
}
  0
LINE
  5
1505
  8
241
  6
HIDDEN2
 10
133.6956769326992003
 20
4.9999999999999831
 30
0.0
 11
214.9499999999999886
 21
4.9999999999999831
 31
0.0
  0
LINE
  5
1506
  8
241
  6
HIDDEN2
 10
214.9499999999999886
 20
-11.0000000000002398
 30
0.0
 11
214.9499999999999886
 21
10.9999999999997407
 31
0.0
  0
LINE
  5
1509
  8
241
  6
HIDDEN2
 10
133.6956769326992003
 20
-5.000000000002208
 30
0.0
 11
214.9499999999999886
 21
-5.0000000000027827
 31
0.0
  0
LINE
  5
1545
  8
250
 10
0.0
 20
49.9999999999992113
 30
0.0
 11
0.0000000000000009
 21
64.0
 31
0.0
  0
LINE
  5
1546
  8
250
 10
241.0
 20
19.2499999999997016
 30
0.0
 11
241.0
 21
64.0
 31
0.0
  0
LINE
  5
1547
  8
250
 10
2.2299999999999991
 20
63.0
 30
0.0
 11
238.7700000000000102
 21
63.0
 31
0.0
  0
TEXT
  5
154B
  8
250
 10
116.9000000000000057
 20
64.0
 30
0.0
 40
2.799999999999998
  1
241
  0
LINE
  5
154C
  8
250
 10
238.7700000000000102
 20
63.3716666666666697
 30
0.0
 11
241.0
 21
63.0
 31
0.0
  0
LINE
  5
154D
  8
250
 10
238.7700000000000102
 20
62.6283333333333303
 30
0.0
 11
241.0
 21
63.0
 31
0.0
  0
LINE
  5
154E
  8
250
 10
241.0
 20
63.0
 30
0.0
 11
238.7700000000000102
 21
63.0
 31
0.0
  0
LINE
  5
154F
  8
250
 10
2.2299999999999991
 20
62.6283333333333303
 30
0.0
 11
0.0000000000000008
 21
63.0
 31
0.0
  0
LINE
  5
1550
  8
250
 10
2.2299999999999991
 20
63.3716666666666697
 30
0.0
 11
0.0000000000000008
 21
63.0
 31
0.0
  0
LINE
  5
1551
  8
250
 10
0.0000000000000008
 20
63.0
 30
0.0
 11
2.2299999999999991
 21
63.0
 31
0.0
  0
VIEWPORT
  5
22
 67
     1
  8
0
 10
261.517699115044195
 20
148.5
 30
0.0
 40
523.0353982300885036
 41
297.0
 68
     1
 69
     1
1001
ACAD
1000
MVIEW
1002
{
1070
    16
1010
0.0
1020
0.0
1030
0.0
1010
0.0
1020
0.0
1030
1.0
1040
0.0
1040
297.0
1040
261.517699115044195
1040
148.5
1040
50.0
1040
0.0
1040
0.0
1070
     0
1070
   100
1070
     1
1070
     1
1070
     0
1070
     0
1070
     0
1070
     0
1040
0.0
1040
0.0
1040
0.0
1040
1.0
1040
1.0
1040
10.0
1040
10.0
1070
     0
1002
{
1002
}
1002
}
1001
GENIUS_GENODEF_13
1002
{
1000
HIER
1070
     0
1002
}
1002
{
1000
MANEDIT
1070
     0
1002
}
1002
{
1000
NOSEL
1070
     0
1002
}
1002
{
1000
BEHIND
1070
     0
1002
}
1002
{
1000
OTHER
1070
     0
1002
}
1002
{
1000
REACTOR
1002
}
1001
GENIUS_GENOBJ-N-SDF_13
1002
{
1000
OWNER
1000
GEN
1002
}
1001
GENIUS_GENSCREG_15
1000
PF
1040
1.0
1000
DF
1040
1.0
1000
MIN
1011
0.0
1021
0.0
1031
0.0
1021
0.0
1031
0.0
1000
MAX
1011
523.0353982300885036
1021
0.0
1031
0.0
1021
297.0
1031
0.0
1000
FLAGS
1070
     4
  0
ENDSEC
  0
EOF
