  0
SECTION
  2
HEADER
  9
$ACADVER
  1
AC1009
  9
$INSBASE
 10
0.0
 20
0.0
 30
0.0
  9
$EXTMIN
 10
-59.8692390000000501
 20
-49.9999999999999574
 30
0.0
  9
$EXTMAX
 10
141.3898693799999933
 20
82.0
 30
0.0
  9
$LIMMIN
 10
0.0
 20
0.0
  9
$LIMMAX
 10
297.0
 20
210.0
  9
$ORTHOMODE
 70
     1
  9
$REGENMODE
 70
     1
  9
$FILLMODE
 70
     1
  9
$QTEXTMODE
 70
     0
  9
$MIRRTEXT
 70
     1
  9
$DRAGMODE
 70
     2
  9
$LTSCALE
 40
10.0
  9
$OSMODE
 70
   807
  9
$ATTMODE
 70
     1
  9
$TEXTSIZE
 40
3.0
  9
$TRACEWID
 40
1.0
  9
$TEXTSTYLE
  7
YOKO
  9
$CLAYER
  8
240
  9
$CELTYPE
  6
BYLAYER
  9
$CECOLOR
 62
   256
  9
$DIMSCALE
 40
1.0
  9
$DIMASZ
 40
2.2299999999999991
  9
$DIMEXO
 40
0.5
  9
$DIMDLI
 40
7.0
  9
$DIMRND
 40
0.0
  9
$DIMDLE
 40
0.0
  9
$DIMEXE
 40
1.0
  9
$DIMTP
 40
0.0
  9
$DIMTM
 40
0.01
  9
$DIMTXT
 40
2.799999999999998
  9
$DIMCEN
 40
0.0
  9
$DIMTSZ
 40
0.0
  9
$DIMTOL
 70
     0
  9
$DIMLIM
 70
     0
  9
$DIMTIH
 70
     0
  9
$DIMTOH
 70
     0
  9
$DIMSE1
 70
     0
  9
$DIMSE2
 70
     0
  9
$DIMTAD
 70
     3
  9
$DIMZIN
 70
     9
  9
$DIMBLK
  1
OPEN
  9
$DIMASO
 70
     1
  9
$DIMSHO
 70
     1
  9
$DIMPOST
  1

  9
$DIMAPOST
  1

  9
$DIMALT
 70
     0
  9
$DIMALTD
 70
     2
  9
$DIMALTF
 40
25.3999999999999986
  9
$DIMLFAC
 40
1.0
  9
$DIMTOFL
 70
     1
  9
$DIMTVP
 40
0.0
  9
$DIMTIX
 70
     1
  9
$DIMSOXD
 70
     0
  9
$DIMSAH
 70
     0
  9
$DIMBLK1
  1

  9
$DIMBLK2
  1

  9
$DIMSTYLE
  2
BIGT
  9
$DIMCLRD
 70
   256
  9
$DIMCLRE
 70
   256
  9
$DIMCLRT
 70
    40
  9
$DIMTFAC
 40
1.0
  9
$DIMGAP
 40
1.0
  9
$LUNITS
 70
     2
  9
$LUPREC
 70
     6
  9
$SKETCHINC
 40
1.0
  9
$FILLETRAD
 40
5.0
  9
$AUNITS
 70
     0
  9
$AUPREC
 70
     6
  9
$MENU
  1
.
  9
$ELEVATION
 40
0.0
  9
$PELEVATION
 40
0.0
  9
$THICKNESS
 40
0.0
  9
$LIMCHECK
 70
     0
  9
$BLIPMODE
 70
     0
  9
$CHAMFERA
 40
0.2
  9
$CHAMFERB
 40
0.2
  9
$SKPOLY
 70
     0
  9
$TDCREATE
 40
2457735.4724652781151235
  9
$TDUPDATE
 40
2458292.577604167163372
  9
$TDINDWG
 40
0.009786875
  9
$TDUSRTIMER
 40
0.0097868403
  9
$USRTIMER
 70
     1
  9
$ANGBASE
 50
0.0
  9
$ANGDIR
 70
     0
  9
$PDMODE
 70
     1
  9
$PDSIZE
 40
0.0
  9
$PLINEWID
 40
0.0
  9
$COORDS
 70
     1
  9
$SPLFRAME
 70
     0
  9
$SPLINETYPE
 70
     6
  9
$SPLINESEGS
 70
     4
  9
$ATTDIA
 70
     1
  9
$ATTREQ
 70
     1
  9
$HANDLING
 70
     1
  9
$HANDSEED
  5
469A
  9
$SURFTAB1
 70
     6
  9
$SURFTAB2
 70
     6
  9
$SURFTYPE
 70
     6
  9
$SURFU
 70
     6
  9
$SURFV
 70
     6
  9
$UCSNAME
  2

  9
$UCSORG
 10
0.0
 20
0.0
 30
0.0
  9
$UCSXDIR
 10
1.0
 20
0.0
 30
0.0
  9
$UCSYDIR
 10
0.0
 20
1.0
 30
0.0
  9
$PUCSNAME
  2

  9
$PUCSORG
 10
0.0
 20
0.0
 30
0.0
  9
$PUCSXDIR
 10
1.0
 20
0.0
 30
0.0
  9
$PUCSYDIR
 10
0.0
 20
1.0
 30
0.0
  9
$USERI1
 70
     1
  9
$USERI2
 70
     0
  9
$USERI3
 70
     0
  9
$USERI4
 70
     0
  9
$USERI5
 70
     0
  9
$USERR1
 40
0.0
  9
$USERR2
 40
0.0
  9
$USERR3
 40
0.0
  9
$USERR4
 40
0.0
  9
$USERR5
 40
0.0
  9
$WORLDVIEW
 70
     1
  9
$SHADEDGE
 70
     3
  9
$SHADEDIF
 70
    70
  9
$TILEMODE
 70
     1
  9
$MAXACTVP
 70
    16
  9
$PLIMCHECK
 70
     0
  9
$PEXTMIN
 10
1.0000000000000000E+20
 20
1.0000000000000000E+20
 30
1.0000000000000000E+20
  9
$PEXTMAX
 10
-1.0000000000000000E+20
 20
-1.0000000000000000E+20
 30
-1.0000000000000000E+20
  9
$PLIMMIN
 10
0.0
 20
0.0
  9
$PLIMMAX
 10
420.0
 20
297.0
  9
$UNITMODE
 70
     0
  9
$VISRETAIN
 70
     1
  9
$PLINEGEN
 70
     0
  9
$PSLTSCALE
 70
     1
  0
ENDSEC
  0
SECTION
  2
TABLES
  0
TABLE
  2
VPORT
 70
     1
  0
VPORT
  2
*ACTIVE
 70
     0
 10
0.0
 20
0.0
 11
1.0
 21
1.0
 12
44.872942468365089
 22
13.4565885313962799
 13
0.0
 23
0.0
 14
7.0
 24
7.0
 15
7.0
 25
7.0
 16
0.0
 26
0.0
 36
1.0
 17
0.0
 27
0.0
 37
0.0
 40
151.6808245697152131
 41
1.887387387387387
 42
50.0
 43
0.0
 44
0.0
 50
0.0
 51
0.0
 71
     0
 72
  2000
 73
     1
 74
     0
 75
     0
 76
     1
 77
     0
 78
     0
  0
ENDTAB
  0
TABLE
  2
LTYPE
 70
    22
  0
LTYPE
  2
CONTINUOUS
 70
     0
  3
Solid line
 72
    65
 73
     0
 40
0.0
  0
LTYPE
  2
CENTER2
 70
     0
  3
___ _ ___ _ ___ _ ___ _ ___ _ ___ _ ___ _ ___ _
 72
    65
 73
     4
 40
1.125
 49
0.75
 49
-0.125
 49
0.125
 49
-0.125
  0
LTYPE
  2
HIDDEN2
 70
     0
  3
_ _ _ _ _ _ _ _ _ _ _ _ _ _ _ _ _ _ _ _ _ _ _ _
 72
    65
 73
     2
 40
0.1875
 49
0.125
 49
-0.0625
  0
LTYPE
  2
PHANTOM2
 70
     0
  3
___ _ _ ___ _ _ ___ _ _ ___ _ _ ___ _ _ ___ _ _
 72
    65
 73
     6
 40
1.25
 49
0.625
 49
-0.125
 49
0.125
 49
-0.125
 49
0.125
 49
-0.125
  0
LTYPE
  2
AMCONSTR
 70
     0
  3
_______________________
 72
    65
 73
     2
 40
9999.0
 49
9999.0
 49
0.0
  0
LTYPE
  2
HIDDEN
 70
     0
  3
Hidden __ __ __ __ __ __ __ __ __ __ __ __ __ _
 72
    65
 73
     2
 40
0.375
 49
0.25
 49
-0.125
  0
LTYPE
  2
CENTER
 70
     0
  3
Center ____ _ ____ _ ____ _ ____ _ ____ _ ____
 72
    65
 73
     4
 40
2.0
 49
1.25
 49
-0.25
 49
0.25
 49
-0.25
  0
LTYPE
  2
AMZIGZAG2
 70
     0
  3
/\/-/\/-/\/-/\/-/\/-/\/
 72
    65
 73
     2
 40
0.4401
 49
0.0001
 49
-0.4400000000000001
  0
LTYPE
  2
ACANSTGB
 70
     0
  3
__ . . __ . .
 72
    65
 73
     6
 40
0.35433070866
 49
0.15748031496
 49
-0.03937007874
 49
0.03937007874
 49
-0.03937007874
 49
0.03937007874
 49
-0.03937007874
  0
LTYPE
  2
ACANSTGL
 70
     0
  3
_ _ _ _ _
 72
    65
 73
     2
 40
0.11811023622
 49
0.07874015748
 49
-0.03937007874
  0
ENDTAB
  0
TABLE
  2
LAYER
 70
     9
  0
LAYER
  2
0
 70
     0
 62
     7
  6
CONTINUOUS
  0
LAYER
  2
240
 70
     0
 62
     4
  6
CONTINUOUS
  0
LAYER
  2
DEFPOINTS
 70
     0
 62
     7
  6
CONTINUOUS
  0
LAYER
  2
245
 70
     0
 62
     2
  6
CENTER2
  0
LAYER
  2
241
 70
     0
 62
   211
  6
CONTINUOUS
  0
LAYER
  2
242
 70
     0
 62
     3
  6
CONTINUOUS
  0
LAYER
  2
243
 70
     0
 62
   211
  6
HIDDEN2
  0
LAYER
  2
247
 70
     0
 62
    60
  6
CONTINUOUS
  0
LAYER
  2
250
 70
     0
 62
     3
  6
CONTINUOUS
  0
ENDTAB
  0
TABLE
  2
STYLE
 70
    10
  0
STYLE
  2
STANDARD
 70
     0
 40
0.0
 41
1.0
 50
0.0
 71
     0
 42
3.0
  3
romans.shx
  4
extfont.shx
  0
STYLE
  2
YOKO
 70
     0
 40
0.0
 41
1.0
 50
0.0
 71
     0
 42
3.0
  3
romans.shx
  4
extfont.shx
  0
STYLE
  2

 70
     1
 40
0.0
 41
1.0
 50
0.0
 71
     0
 42
3.0
  3
genltshp.shx
  4

  0
STYLE
  2
ACANSGDT
 70
     0
 40
0.0
 41
1.0
 50
0.0
 71
     0
 42
3.0
  3
amgdt.shx
  4

  0
ENDTAB
  0
TABLE
  2
VIEW
 70
     0
  0
ENDTAB
  0
TABLE
  2
UCS
 70
     0
  0
ENDTAB
  0
TABLE
  2
APPID
 70
    37
  0
APPID
  2
ACAD
 70
     0
  0
APPID
  2
ACADANNOTATIVE
 70
     0
  0
APPID
  2
GLOBAL
 70
     0
  0
APPID
  2
DETAIL
 70
     0
  0
APPID
  2
GRPNAME
 70
     0
  0
APPID
  2
GPARA
 70
     0
  0
APPID
  2
MCAD_NO_VIS
 70
     0
  0
APPID
  2
ACAD_TEMP_GRAPHIC
 70
     0
  0
APPID
  2
ACATTRIBSERVICES
 70
     0
  0
APPID
  2
GENIUS_GENSCREG_15
 70
     0
  0
APPID
  2
GENIUS_GENODEF_13
 70
     0
  0
APPID
  2
GENIUS_GENOBJ-N-SDF_13
 70
     0
  0
APPID
  2
GENIUS_GENREC_14
 70
     0
  0
APPID
  2
GENIUS_GENOBJ-N-REC_13
 70
     0
  0
APPID
  2
GENIUS_GENDIMSH_14
 70
     0
  0
APPID
  2
GENIUS_GENOBJ-N-DIM_13
 70
     0
  0
APPID
  2
GENIUS_GENDIM_13
 70
     0
  0
APPID
  2
GENIUS_GENDTOL_13
 70
     0
  0
APPID
  2
GENIUS_GENOLIS_13
 70
     0
  0
APPID
  2
GENIUS_GENOENT_13
 70
     0
  0
APPID
  2
GENIUS_GENOBJ-F-FEM_13
 70
     0
  0
APPID
  2
GENIUS_GENOREF_13
 70
     0
  0
APPID
  2
GENIUS_GEFFEM_13
 70
     0
  0
APPID
  2
GENIUS_GEFFEMP_13
 70
     0
  0
APPID
  2
AD_DRAW
 70
     0
  0
APPID
  2
DESIGNERASSEMBLIES
 70
     0
  0
APPID
  2
ACADM_DIM_EDIT
 70
     0
  0
APPID
  2
AMDT_DM_ADJ
 70
     0
  0
APPID
  2
ITEMNAME
 70
     0
  0
APPID
  2
GENIUS_GENOBJ-N-FIL_13
 70
     0
  0
APPID
  2
GENIUS_GENFIL_13
 70
     0
  0
APPID
  2
GENIUS_GENOBJ-N-CHA_13
 70
     0
  0
APPID
  2
ACAD_NAV_VCDISPLAY
 70
     0
  0
APPID
  2
ACAD_MLEADERVER
 70
     0
  0
APPID
  2
ACAD_DSTYLE_DIMJAG
 70
     0
  0
APPID
  2
ACAD_DSTYLE_DIMBREAK
 70
     0
  0
APPID
  2
ACAD_EXEMPT_FROM_CAD_STANDARDS
 70
     0
  0
ENDTAB
  0
TABLE
  2
DIMSTYLE
 70
    31
  0
DIMSTYLE
  2
STANDARD
 70
     0
  3

  4

  5

  6

  7

 40
1.0
 41
0.18
 42
0.0625
 43
0.38
 44
0.18
 45
0.0
 46
0.0
 47
0.0
 48
0.0
140
0.18
141
0.09
142
0.0
143
25.3999999999999986
144
1.0
145
0.0
146
1.0
147
0.09
 71
     0
 72
     0
 73
     1
 74
     1
 75
     0
 76
     0
 77
     0
 78
     0
170
     0
171
     2
172
     0
173
     0
174
     0
175
     0
176
     0
177
     0
178
     0
  0
DIMSTYLE
  2
BIGT
 70
     0
  3

  4

  5

  6

  7

 40
1.0
 41
2.2299999999999991
 42
0.5
 43
7.0
 44
1.0
 45
0.0
 46
0.0
 47
0.0
 48
0.01
140
2.799999999999998
141
0.0
142
0.0
143
25.3999999999999986
144
1.0
145
0.0
146
1.0
147
1.0
 71
     0
 72
     0
 73
     0
 74
     0
 75
     0
 76
     0
 77
     3
 78
     9
170
     0
171
     2
172
     1
173
     0
174
     1
175
     0
176
   256
177
   256
178
    40
  0
DIMSTYLE
  2
AM_ANSI
 70
     0
  3

  4
mm
  5

  6

  7

 40
1.0
 41
0.12
 42
0.05
 43
0.5
 44
0.1
 45
0.0
 46
0.0
 47
0.1
 48
0.1
140
0.12
141
0.0
142
0.0
143
25.3999999999999986
144
1.0
145
0.0
146
0.71
147
0.06
 71
     0
 72
     0
 73
     1
 74
     1
 75
     0
 76
     0
 77
     0
 78
     7
170
     0
171
     2
172
     0
173
     0
174
     0
175
     0
176
   256
177
   256
178
     2
  0
DIMSTYLE
  2
AM_ANSI$3
 70
     0
  3

  4
mm
  5

  6

  7

 40
1.0
 41
0.12
 42
0.05
 43
0.5
 44
0.1
 45
0.0
 46
0.0
 47
0.1
 48
0.1
140
0.12
141
0.0
142
0.0
143
25.3999999999999986
144
1.0
145
0.0
146
0.71
147
0.06
 71
     0
 72
     0
 73
     1
 74
     1
 75
     0
 76
     0
 77
     0
 78
     7
170
     0
171
     2
172
     0
173
     0
174
     0
175
     0
176
   256
177
   256
178
     2
  0
DIMSTYLE
  2
AM_ANSI$4
 70
     0
  3

  4
mm
  5

  6

  7

 40
1.0
 41
0.12
 42
0.05
 43
0.5
 44
0.1
 45
0.0
 46
0.0
 47
0.1
 48
0.1
140
0.12
141
0.0
142
0.0
143
25.3999999999999986
144
1.0
145
0.0
146
0.71
147
0.06
 71
     0
 72
     0
 73
     1
 74
     1
 75
     0
 76
     0
 77
     0
 78
     7
170
     0
171
     2
172
     0
173
     0
174
     0
175
     0
176
   256
177
   256
178
     2
  0
DIMSTYLE
  2
AM_ANSI$7
 70
     0
  3

  4
mm
  5

  6

  7

 40
1.0
 41
0.12
 42
0.05
 43
0.5
 44
0.1
 45
0.0
 46
0.0
 47
0.1
 48
0.1
140
0.12
141
0.0
142
0.0
143
25.3999999999999986
144
1.0
145
0.0
146
0.71
147
0.06
 71
     0
 72
     0
 73
     1
 74
     1
 75
     0
 76
     0
 77
     0
 78
     7
170
     0
171
     2
172
     0
173
     0
174
     0
175
     0
176
   256
177
   256
178
     2
  0
DIMSTYLE
  2
AM_ANSI$SF
 70
     0
  3

  4
mm
  5

  6

  7

 40
1.0
 41
0.12
 42
0.05
 43
0.5
 44
0.1
 45
0.0
 46
0.0
 47
0.1
 48
0.1
140
0.12
141
0.0
142
0.0
143
25.3999999999999986
144
1.0
145
0.0
146
0.71
147
0.06
 71
     0
 72
     0
 73
     1
 74
     1
 75
     1
 76
     1
 77
     0
 78
     7
170
     0
171
     2
172
     0
173
     0
174
     0
175
     0
176
   256
177
   256
178
     2
  0
DIMSTYLE
  2
AM_ANSI$SH
 70
     0
  3

  4
mm
  5

  6
GENAXEH
  7

 40
1.0
 41
0.12
 42
0.05
 43
0.5
 44
0.1
 45
0.0
 46
0.0
 47
0.1
 48
0.1
140
0.12
141
0.0
142
0.0
143
25.3999999999999986
144
1.0
145
0.0
146
0.71
147
0.06
 71
     0
 72
     0
 73
     1
 74
     1
 75
     1
 76
     1
 77
     0
 78
     7
170
     0
171
     2
172
     0
173
     1
174
     0
175
     0
176
   256
177
   256
178
     2
  0
ENDTAB
  0
ENDSEC
  0
SECTION
  2
BLOCKS
  0
BLOCK
  8
0
  2
$MODEL_SPACE
 70
     0
 10
0.0
 20
0.0
 30
0.0
  3
$MODEL_SPACE
  1

  0
ENDBLK
  5
4559
  8
0
  0
BLOCK
 67
     1
  8
0
  2
$PAPER_SPACE
 70
     0
 10
0.0
 20
0.0
 30
0.0
  3
$PAPER_SPACE
  1

  0
ENDBLK
  5
4555
 67
     1
  8
0
  0
BLOCK
  8
0
  2
_OPEN
 70
     0
 10
0.0
 20
0.0
 30
0.0
  3
_OPEN
  1

  0
LINE
  5
43E2
  8
0
  6
BYBLOCK
 62
     0
 10
-1.0
 20
0.1666666666666666
 30
0.0
 11
0.0
 21
0.0
 31
0.0
  0
LINE
  5
43E3
  8
0
  6
BYBLOCK
 62
     0
 10
-1.0
 20
-0.1666666666666666
 30
0.0
 11
0.0
 21
0.0
 31
0.0
  0
LINE
  5
43E4
  8
0
  6
BYBLOCK
 62
     0
 10
0.0
 20
0.0
 30
0.0
 11
-1.0
 21
0.0
 31
0.0
  0
ENDBLK
  5
43E5
  8
0
  0
BLOCK
  8
0
  2
GENAXEH
 70
     0
 10
0.0
 20
0.0
 30
0.0
  3
GENAXEH
  1

  0
LINE
  5
441D
  8
0
 10
-1.0
 20
0.0
 30
0.0
 11
1.0
 21
0.0
 31
0.0
  0
ENDBLK
  5
441E
  8
0
  0
BLOCK
  8
0
  2
*U5
 70
     1
 10
0.0
 20
0.0
 30
0.0
  3
*U5
  1

  0
TEXT
  5
44DF
  8
250
 10
130.7232027199999891
 20
32.0411462299999599
 30
0.0
 40
2.799999999999998
  1
CK3
  7
YOKO
  0
ENDBLK
  5
44E1
  8
0
  0
BLOCK
  8
0
  2
_ACMFILLEDHALF
 70
     0
 10
0.0
 20
0.0
 30
0.0
  3
_ACMFILLEDHALF
  1

  0
TRACE
  5
461A
  8
240
 62
     0
 10
-0.8
 20
0.0
 30
0.0
 11
-1.0
 21
0.166666666
 31
0.0
 12
0.0
 22
0.0
 32
0.0
 13
0.0
 23
0.0
 33
0.0
  0
LINE
  5
461B
  8
240
 62
     0
 10
-1.0
 20
0.0
 30
0.0
 11
-0.8
 21
0.0
 31
0.0
  0
ENDBLK
  5
4619
  8
0
  0
ENDSEC
  0
SECTION
  2
ENTITIES
  0
LINE
  5
424C
  8
245
  6
CENTER2
 10
-51.7889332544016199
 20
-0.0000000000000711
 30
0.0
 11
127.4681994305241943
 21
0.0000000000000426
 31
0.0
1001
GRPNAME
1000
PASTMD3W
  0
ARC
  5
424D
  8
243
  6
HIDDEN2
 10
-9.4966925428961986
 20
-19.4999999999999503
 30
0.0
 40
11.9999999980547596
 50
270.0000000578423851
 51
321.9268767276412859
1001
GRPNAME
1000
PASTMD0M
  0
LINE
  5
424E
  8
243
  6
HIDDEN2
 10
-9.4966925428961986
 20
-31.4999999999999609
 30
0.0
 11
-27.1166243270255301
 21
-31.4999999999999609
 31
0.0
1001
GRPNAME
1000
PASTMD0M
  0
LINE
  5
424F
  8
243
  6
HIDDEN2
 10
-30.0033756729744709
 20
-26.4999999999999609
 30
0.0
 11
-50.0
 21
-26.4999999999999609
 31
0.0
1001
GRPNAME
1000
PASTMD0M
  0
LINE
  5
4250
  8
243
  6
HIDDEN2
 10
-30.0033756729744709
 20
-26.4999999999999609
 30
0.0
 11
-27.1166243270255301
 21
-31.4999999999999609
 31
0.0
1001
GRPNAME
1000
PASTMD0M
  0
LINE
  5
4251
  8
243
  6
HIDDEN2
 10
-35.0
 20
-36.2499999999999574
 30
0.0
 11
-35.0
 21
-26.4999999999999609
 31
0.0
1001
GRPNAME
1000
PASTMD0M
  0
LINE
  5
4252
  8
243
  6
HIDDEN2
 10
4.999999999999087
 20
-49.9999999999999574
 30
0.0
 11
4.999999999999087
 21
-43.9999999999999503
 31
0.0
1001
GRPNAME
1000
PASTMD0M
  0
LINE
  5
4253
  8
243
  6
HIDDEN2
 10
28.9999999999990905
 20
-43.9999999999999503
 30
0.0
 11
4.999999999999087
 21
-43.9999999999999503
 31
0.0
1001
GRPNAME
1000
PASTMD0M
  0
ARC
  5
4254
  8
243
  6
HIDDEN2
 10
-9.4966925428961986
 20
19.5000000000000391
 30
0.0
 40
11.9999999980547791
 50
38.0731233302143792
 51
90.0
1001
GRPNAME
1000
PASTMD0M
  0
LINE
  5
4255
  8
243
  6
HIDDEN2
 10
-9.4966925428961986
 20
31.4999999980555501
 30
0.0
 11
-27.1166243269875089
 21
31.5000000000659206
 31
0.0
1001
GRPNAME
1000
PASTMD0M
  0
LINE
  5
4256
  8
243
  6
HIDDEN2
 10
-40.0
 20
26.5000000000000391
 30
0.0
 11
-40.0
 21
36.0000000000000497
 31
0.0
1001
GRPNAME
1000
PASTMD0M
  0
LINE
  5
4257
  8
243
  6
HIDDEN2
 10
-30.0033756729744709
 20
26.5000000000000391
 30
0.0
 11
-27.1166243269875089
 21
31.5000000000659206
 31
0.0
1001
GRPNAME
1000
PASTMD0M
  0
LINE
  5
4258
  8
243
  6
HIDDEN2
 10
-30.0033756729744709
 20
26.5000000000000391
 30
0.0
 11
-50.0
 21
26.5000000000000391
 31
0.0
1001
GRPNAME
1000
PASTMD0M
  0
LINE
  5
4259
  8
241
  6
CONTINUOUS
 10
23.2475952641907497
 20
-49.9999999999999574
 30
0.0
 11
23.2475952641907497
 21
31.5000000000000391
 31
0.0
1001
GRPNAME
1000
PASTMD0M
  0
LINE
  5
425A
  8
241
  6
CONTINUOUS
 10
16.7524047358083408
 20
-49.9999999999999574
 30
0.0
 11
16.7524047358076587
 21
31.5000000000000391
 31
0.0
1001
GRPNAME
1000
PASTMD0M
  0
LINE
  5
425B
  8
243
  6
HIDDEN2
 10
4.999999999999087
 20
44.0000000000000213
 30
0.0
 11
4.999999999999087
 21
50.0000000000000213
 31
0.0
1001
GRPNAME
1000
PASTMD0M
  0
LINE
  5
425C
  8
243
  6
HIDDEN2
 10
28.9999999999990905
 20
44.0000000000000213
 30
0.0
 11
4.999999999999087
 21
44.0000000000000213
 31
0.0
1001
GRPNAME
1000
PASTMD0M
  0
LINE
  5
425D
  8
240
  6
CONTINUOUS
 10
16.7524047358083408
 20
-49.9999999999999574
 30
0.0
 11
0.0
 21
-49.9999999999999574
 31
0.0
1001
GRPNAME
1000
PASTMD0M
  0
LINE
  5
425E
  8
240
  6
CONTINUOUS
 10
28.9999999999990905
 20
-49.9999999999999574
 30
0.0
 11
23.2475952641907497
 21
-49.9999999999999574
 31
0.0
1001
GRPNAME
1000
PASTMD0M
  0
LINE
  5
425F
  8
240
  6
CONTINUOUS
 10
18.125
 20
-47.6225952641916024
 30
0.0
 11
16.7524047358083408
 21
-49.9999999999999574
 31
0.0
1001
GRPNAME
1000
PASTMD0M
  0
LINE
  5
4260
  8
240
  6
CONTINUOUS
 10
21.8749999999990798
 20
-47.6225952641916024
 30
0.0
 11
23.2475952641907497
 21
-49.9999999999999574
 31
0.0
1001
GRPNAME
1000
PASTMD0M
  0
LINE
  5
4261
  8
241
  6
CONTINUOUS
 10
21.8749999999991509
 20
31.5000000000000391
 30
0.0
 11
21.8749999999989804
 21
-45.9999999999999574
 31
0.0
1001
GRPNAME
1000
PASTMD0M
  0
LINE
  5
4262
  8
240
  6
CONTINUOUS
 10
21.8749999999987992
 20
-45.9999999999999574
 30
0.0
 11
21.8749999999990798
 21
-47.6225952641916024
 31
0.0
1001
GRPNAME
1000
PASTMD0M
  0
LINE
  5
4263
  8
240
  6
CONTINUOUS
 10
21.8749999999987992
 20
-45.9999999999999574
 30
0.0
 11
18.1249999999997016
 21
-45.9999999999999574
 31
0.0
1001
GRPNAME
1000
PASTMD0M
  0
LINE
  5
4264
  8
241
  6
CONTINUOUS
 10
18.1250000000000604
 20
31.5000000000000391
 30
0.0
 11
18.1249999999998792
 21
-45.9999999999999574
 31
0.0
1001
GRPNAME
1000
PASTMD0M
  0
LINE
  5
4265
  8
240
  6
CONTINUOUS
 10
18.1249999999997016
 20
-45.9999999999999574
 30
0.0
 11
18.125
 21
-47.6225952641916024
 31
0.0
1001
GRPNAME
1000
PASTMD0M
  0
LINE
  5
4266
  8
240
  6
CONTINUOUS
 10
0.0
 20
-49.9999999999999574
 30
0.0
 11
0.0
 21
-37.9999999999996021
 31
0.0
1001
GRPNAME
1000
PASTMD0M
  0
LINE
  5
4267
  8
241
  6
CONTINUOUS
 10
0.0
 20
-37.9999999999996021
 30
0.0
 11
0.0000000000000284
 21
37.9999999999996732
 31
0.0
1001
GRPNAME
1000
PASTMD0M
  0
LINE
  5
4268
  8
245
  6
CENTER2
 10
-15.0
 20
-37.8999999999996007
 30
0.0
 11
-15.0
 21
-29.577193358162571
 31
0.0
1001
GRPNAME
1000
PASTMD0M
  0
LINE
  5
4269
  8
245
  6
CENTER2
 10
-15.0
 20
29.5771933581624893
 30
0.0
 11
-15.0
 21
37.8999999999996788
 31
0.0
1001
GRPNAME
1000
PASTMD0M
  0
LINE
  5
426A
  8
243
  6
HIDDEN2
 10
-9.0000000000000568
 20
-37.5499999999996206
 30
0.0
 11
-9.0
 21
-31.4897162798435204
 31
0.0
1001
GRPNAME
1000
PASTMD0M
  0
LINE
  5
426B
  8
243
  6
HIDDEN2
 10
-9.0
 20
31.4897162798436483
 30
0.0
 11
-9.0
 21
37.5499999999996703
 31
0.0
1001
GRPNAME
1000
PASTMD0M
  0
LINE
  5
426C
  8
243
  6
HIDDEN2
 10
-21.0
 20
-36.9499999999996689
 30
0.0
 11
-21.0
 21
-31.4999999999999609
 31
0.0
1001
GRPNAME
1000
PASTMD0M
  0
LINE
  5
426D
  8
243
  6
HIDDEN2
 10
-21.0
 20
31.4999999993680611
 30
0.0
 11
-21.0
 21
36.949999999999747
 31
0.0
1001
GRPNAME
1000
PASTMD0M
  0
LINE
  5
426E
  8
240
  6
CONTINUOUS
 10
0.0
 20
-37.9999999999996021
 30
0.0
 11
-50.0
 21
-35.49999999999973
 31
0.0
1001
GRPNAME
1000
PASTMD0M
  0
LINE
  5
426F
  8
240
  6
CONTINUOUS
 10
28.9999999999990905
 20
-49.9999999999999574
 30
0.0
 11
28.9999999999990905
 21
-37.5000000000000924
 31
0.0
1001
GRPNAME
1000
PASTMD0M
  0
LINE
  5
4270
  8
241
  6
CONTINUOUS
 10
28.9999999999990905
 20
-37.5000000000000924
 30
0.0
 11
28.9999999999990905
 21
37.4999999999999289
 31
0.0
1001
GRPNAME
1000
PASTMD0M
  0
ARC
  5
4271
  8
241
  6
CONTINUOUS
 10
14.6368978579189406
 20
28.8297566260715001
 30
0.0
 40
10.0
 50
90.0
 51
164.5127259736298129
  0
LINE
  5
4272
  8
241
  6
CONTINUOUS
 10
4.999999999999087
 20
31.5000000000000391
 30
0.0
 11
28.9999999999990905
 21
31.5000000000000391
 31
0.0
  0
LINE
  5
4273
  8
241
  6
CONTINUOUS
 10
18.1249999999993214
 20
33.5000000000000497
 30
0.0
 11
18.1249999999997016
 21
46.0000000000000426
 31
0.0
1001
GRPNAME
1000
PASTMD0M
  0
LINE
  5
4274
  8
241
  6
CONTINUOUS
 10
18.1249999999993214
 20
33.5000000000000497
 30
0.0
 11
21.8749999999993214
 21
33.5000000000000497
 31
0.0
  0
LINE
  5
4275
  8
241
  6
CONTINUOUS
 10
21.8749999999993214
 20
33.5000000000000497
 30
0.0
 11
21.8749999999993214
 21
46.0000000000000426
 31
0.0
1001
GRPNAME
1000
PASTMD0M
  0
LINE
  5
4276
  8
241
  6
CONTINUOUS
 10
16.7524047358076587
 20
38.8297566260715001
 30
0.0
 11
16.7524047358076587
 21
50.0000000000000213
 31
0.0
1001
GRPNAME
1000
PASTMD0M
  0
LINE
  5
4277
  8
241
  6
CONTINUOUS
 10
23.2475952641907497
 20
38.8297566260715001
 30
0.0
 11
23.2475952641907497
 21
50.0000000000000213
 31
0.0
1001
GRPNAME
1000
PASTMD0M
  0
LINE
  5
4278
  8
241
  6
CONTINUOUS
 10
18.1249999999993214
 20
36.4523518902633796
 30
0.0
 11
16.7524047358078789
 21
38.8297566260715001
 31
0.0
  0
LINE
  5
4279
  8
241
  6
CONTINUOUS
 10
21.8749999999993214
 20
36.4523518902636212
 30
0.0
 11
23.2475952641907497
 21
38.8297566260715001
 31
0.0
  0
LINE
  5
427A
  8
241
  6
CONTINUOUS
 10
14.6368978579189406
 20
38.8297566260715001
 30
0.0
 11
16.7524047358076587
 21
38.8297566260715001
 31
0.0
  0
LINE
  5
427B
  8
241
  6
CONTINUOUS
 10
23.2475952641907497
 20
38.8297566260715001
 30
0.0
 11
28.9999999999990905
 21
38.8297566260715001
 31
0.0
  0
LINE
  5
427C
  8
240
  6
CONTINUOUS
 10
16.7524047358083408
 20
50.0000000000000213
 30
0.0
 11
0.0
 21
50.0000000000000213
 31
0.0
1001
GRPNAME
1000
PASTMD0M
  0
LINE
  5
427D
  8
240
  6
CONTINUOUS
 10
28.9999999999990905
 20
50.0000000000000213
 30
0.0
 11
23.2475952641907497
 21
50.0000000000000213
 31
0.0
1001
GRPNAME
1000
PASTMD0M
  0
LINE
  5
427E
  8
240
  6
CONTINUOUS
 10
18.125
 20
47.6225952641917019
 30
0.0
 11
16.7524047358083408
 21
50.0000000000000213
 31
0.0
1001
GRPNAME
1000
PASTMD0M
  0
LINE
  5
427F
  8
240
  6
CONTINUOUS
 10
21.8749999999990798
 20
47.6225952641917019
 30
0.0
 11
23.2475952641907497
 21
50.0000000000000213
 31
0.0
1001
GRPNAME
1000
PASTMD0M
  0
LINE
  5
4280
  8
240
  6
CONTINUOUS
 10
21.8749999999987992
 20
46.0000000000000426
 30
0.0
 11
21.8749999999990798
 21
47.6225952641917019
 31
0.0
1001
GRPNAME
1000
PASTMD0M
  0
LINE
  5
4281
  8
240
  6
CONTINUOUS
 10
21.8749999999987992
 20
46.0000000000000426
 30
0.0
 11
18.1249999999997016
 21
46.0000000000000426
 31
0.0
1001
GRPNAME
1000
PASTMD0M
  0
LINE
  5
4282
  8
240
  6
CONTINUOUS
 10
18.1249999999997016
 20
46.0000000000000426
 30
0.0
 11
18.125
 21
47.6225952641917019
 31
0.0
1001
GRPNAME
1000
PASTMD0M
  0
LINE
  5
4283
  8
240
  6
CONTINUOUS
 10
-50.0
 20
35.4999999999998295
 30
0.0
 11
-50.0
 21
-35.49999999999973
 31
0.0
1001
GRPNAME
1000
PASTMD0M
  0
LINE
  5
4284
  8
240
  6
CONTINUOUS
 10
0.0
 20
50.0000000000000213
 30
0.0
 11
0.0
 21
37.9999999999996732
 31
0.0
1001
GRPNAME
1000
PASTMD0M
  0
LINE
  5
4285
  8
240
  6
CONTINUOUS
 10
0.0
 20
37.9999999999996732
 30
0.0
 11
-50.0
 21
35.4999999999998295
 31
0.0
1001
GRPNAME
1000
PASTMD0M
  0
LINE
  5
4286
  8
240
  6
CONTINUOUS
 10
28.9999999999990905
 20
50.0000000000000213
 30
0.0
 11
28.9999999999990905
 21
37.4999999999999289
 31
0.0
1001
GRPNAME
1000
PASTMD0M
  0
LINE
  5
4289
  8
247
  6
CONTINUOUS
 10
9.9999999999999432
 20
-26.2500000000700489
 30
0.0
 11
9.9999999999999432
 21
-19.5576923080300418
 31
0.0
  0
ARC
  5
428A
  8
247
  6
CONTINUOUS
 10
8.2500000000699174
 20
-26.2500000000700489
 30
0.0
 40
1.7499999999299991
 50
180.0
 51
0.0
  0
ARC
  5
428B
  8
247
  6
CONTINUOUS
 10
8.2500000000699174
 20
-19.5576923080300418
 30
0.0
 40
1.7499999999299991
 50
0.0
 51
180.0
  0
LINE
  5
428C
  8
247
  6
CONTINUOUS
 10
6.5000000001399449
 20
-25.3846153847200213
 30
0.0
 11
9.5000000000199538
 21
-26.2448515419620385
 31
0.0
  0
LINE
  5
428D
  8
247
  6
CONTINUOUS
 10
7.9230769231599529
 20
-24.4849838183358415
 30
0.0
 11
7.9230769231599529
 21
-25.7926761259758592
 31
0.0
  0
ARC
  5
428E
  8
247
  6
CONTINUOUS
 10
7.0495986677029201
 20
-24.1451438160897993
 30
0.0
 40
0.5538165441895349
 50
72.9978896752953403
 51
172.9241662185135908
  0
ARC
  5
428F
  8
247
  6
CONTINUOUS
 10
6.936033044465713
 20
-24.5668783230287993
 30
0.0
 40
0.9904354236226808
 50
4.7429368522022122
 51
73.8492262732664244
1001
GENIUS_GENOBJ-N-FIL_13
1002
{
1000
OWNER
1000
GEN
1002
}
1001
GENIUS_GENODEF_13
1002
{
1000
HIER
1070
     0
1002
}
1002
{
1000
MANEDIT
1070
     0
1002
}
1002
{
1000
NOSEL
1070
     0
1002
}
1002
{
1000
BEHIND
1070
     0
1002
}
1002
{
1000
OTHER
1070
     0
1002
}
1002
{
1000
REACTOR
1002
}
  0
LINE
  5
4290
  8
247
  6
CONTINUOUS
 10
9.5000000000199538
 20
-24.9371592343220208
 30
0.0
 11
9.5000000000199538
 21
-26.2448515419620385
 31
0.0
  0
LINE
  5
4291
  8
247
  6
CONTINUOUS
 10
6.5000000001399449
 20
-25.3846153847200213
 30
0.0
 11
6.5000000001399449
 21
-24.07692307708
 31
0.0
  0
ARC
  5
4292
  8
247
  6
CONTINUOUS
 10
8.4820242326654807
 20
-24.5609196365469593
 30
0.0
 40
0.5640818586791229
 50
65.990941652528889
 51
172.2634434590690944
  0
ARC
  5
4293
  8
247
  6
CONTINUOUS
 10
8.4874290391865088
 20
-25.0382626853471102
 30
0.0
 40
1.0176059446230981
 50
5.7019851642564632
 51
77.2773384368221912
1001
GENIUS_GENOBJ-N-FIL_13
1002
{
1000
OWNER
1000
GEN
1002
}
1001
GENIUS_GENODEF_13
1002
{
1000
HIER
1070
     0
1002
}
1002
{
1000
MANEDIT
1070
     0
1002
}
1002
{
1000
NOSEL
1070
     0
1002
}
1002
{
1000
BEHIND
1070
     0
1002
}
1002
{
1000
OTHER
1070
     0
1002
}
1002
{
1000
REACTOR
1002
}
  0
LINE
  5
4294
  8
247
  6
CONTINUOUS
 10
9.5000000000199538
 20
-23.2833130805420403
 30
0.0
 11
6.5000000001399449
 21
-22.4230769233000302
 31
0.0
  0
LINE
  5
4295
  8
247
  6
CONTINUOUS
 10
6.5000000001399449
 20
-20.0000000003199894
 30
0.0
 11
6.5000000001399449
 21
-20.5657366194565903
 31
0.0
  0
LINE
  5
4296
  8
247
  6
CONTINUOUS
 10
9.5000000000199538
 20
-21.4615384618
 30
0.0
 11
9.5000000000199538
 21
-20.8461538464400284
 31
0.0
  0
ARC
  5
4297
  8
247
  6
CONTINUOUS
 10
8.5832851359733127
 20
-19.7087912091228787
 30
0.0
 40
2.2526500823422122
 50
202.359488141525901
 51
254.9932485428460893
  0
ARC
  5
4298
  8
247
  6
CONTINUOUS
 10
7.3083126551944702
 20
-20.3740694792132402
 30
0.0
 40
0.8906723995727782
 50
94.9945893190753736
 51
155.1663289573039037
1001
GENIUS_GENOBJ-N-FIL_13
1002
{
1000
OWNER
1000
GEN
1002
}
1001
GENIUS_GENODEF_13
1002
{
1000
HIER
1070
     0
1002
}
1002
{
1000
MANEDIT
1070
     0
1002
}
1002
{
1000
NOSEL
1070
     0
1002
}
1002
{
1000
BEHIND
1070
     0
1002
}
1002
{
1000
OTHER
1070
     0
1002
}
1002
{
1000
REACTOR
1002
}
  0
ARC
  5
4299
  8
247
  6
CONTINUOUS
 10
8.1601458886677278
 20
-21.2264588862126011
 30
0.0
 40
1.392781735586712
 50
15.8460965557808002
 51
82.3251370041691217
  0
ARC
  5
429A
  8
247
  6
CONTINUOUS
 10
8.4592434315272271
 20
-20.6422127258403592
 30
0.0
 40
1.324563662670287
 50
249.7136016704968995
 51
321.78874565640632
1001
GENIUS_GENOBJ-N-FIL_13
1002
{
1000
OWNER
1000
GEN
1002
}
1001
GENIUS_GENODEF_13
1002
{
1000
HIER
1070
     0
1002
}
1002
{
1000
MANEDIT
1070
     0
1002
}
1002
{
1000
NOSEL
1070
     0
1002
}
1002
{
1000
BEHIND
1070
     0
1002
}
1002
{
1000
OTHER
1070
     0
1002
}
1002
{
1000
REACTOR
1002
}
  0
LINE
  5
429B
  8
247
  6
CONTINUOUS
 10
8.3461538462199201
 20
-20.5384615387599894
 30
0.0
 11
8.3461538462199201
 21
-19.8461538464799894
 31
0.0
  0
LINE
  5
429C
  8
250
  6
CONTINUOUS
 10
-32.935905670000011
 20
-48.7133410007809999
 30
0.0
 11
-59.8692390000000501
 21
-48.7133410007809999
 31
0.0
1001
ITEMNAME
1000
LNSP2
  0
TEXT
  5
429D
  8
250
  6
CONTINUOUS
 10
-57.6025723333333417
 20
-47.7133410007809928
 30
0.0
 40
2.799999999999998
  1
HSK-A100
  7
YOKO
1001
ITEMNAME
1000
LNSP3
1001
ACAD
1000
MTEXTBEGIN
1070
    73
1070
     1
1070
    44
1040
1.0
1070
    74
1070
     0
1000
MTEXTEND
  0
LINE
  5
429E
  8
250
  6
CONTINUOUS
 10
-27.0000000010579093
 20
-38.4320508077390883
 30
0.0
 11
-32.935905670000011
 21
-48.7133410007809999
 31
0.0
1001
ACAD
1000
DSTYLE
1002
{
1070
     6
1000
OPEN
1070
    41
1040
2.0
1070
    42
1040
2.0
1070
    44
1040
2.0
1070
   140
1040
4.0
1070
   343
1005
0
1002
}
  0
LINE
  5
429F
  8
250
  6
CONTINUOUS
 10
-27.2886751355509283
 20
-38.2653841408961313
 30
0.0
 11
-26.0
 21
-36.7000000007809675
 31
0.0
  0
LINE
  5
42A0
  8
250
  6
CONTINUOUS
 10
-26.7113248665648904
 20
-38.5987174745820667
 30
0.0
 11
-26.0
 21
-36.7000000007809675
 31
0.0
  0
LINE
  5
42A1
  8
250
  6
CONTINUOUS
 10
-26.0
 20
-36.7000000007809675
 30
0.0
 11
-27.0000000010579093
 21
-38.4320508077390883
 31
0.0
  0
LINE
  5
42A2
  8
247
  6
CONTINUOUS
 10
6.5000000001398881
 20
-26.2500000000700489
 30
0.0
 11
6.5000000001398881
 21
-25.5769230770200515
 31
0.0
  0
LINE
  5
42B3
  8
240
  6
CONTINUOUS
 10
125.0
 20
15.5
 30
0.0
 11
42.0000000000002132
 21
15.5
 31
0.0
1001
GRPNAME
1000
PASTMD0D
  0
LINE
  5
42B4
  8
240
  6
CONTINUOUS
 10
125.0
 20
-15.5
 30
0.0
 11
42.0000000000000071
 21
-15.5000000000000302
 31
0.0
1001
GRPNAME
1000
PASTMD0D
  0
LINE
  5
42B6
  8
240
  6
CONTINUOUS
 10
125.0
 20
-15.5
 30
0.0
 11
125.0
 21
15.5
 31
0.0
1001
GRPNAME
1000
PASTMD0D
  0
LINE
  5
42B7
  8
243
  6
HIDDEN2
 10
102.9500000000000028
 20
9.0
 30
0.0
 11
125.0
 21
9.0
 31
0.0
1001
GRPNAME
1000
PASTMD0D
  0
LINE
  5
42B8
  8
240
  6
CONTINUOUS
 10
37.0000000000000071
 20
-37.4999999999999218
 30
0.0
 11
37.0000000000000071
 21
-20.5000000000000213
 31
0.0
  0
LINE
  5
42B9
  8
240
  6
CONTINUOUS
 10
37.0000000000000071
 20
-37.4999999999999218
 30
0.0
 11
28.9999999999990905
 21
-37.5000000000000924
 31
0.0
  0
LINE
  5
42BA
  8
240
  6
CONTINUOUS
 10
37.0000000000002132
 20
20.4999999999999396
 30
0.0
 11
37.0
 21
37.5000000000000213
 31
0.0
  0
LINE
  5
42BB
  8
240
  6
CONTINUOUS
 10
37.0
 20
37.5000000000000213
 30
0.0
 11
28.9999999999990905
 21
37.4999999999999289
 31
0.0
  0
ARC
  5
42C2
  8
240
  6
CONTINUOUS
 10
42.0000000000000071
 20
-20.5000000000000213
 30
0.0
 40
5.0
 50
90.0000000000000568
 51
180.0
1001
GENIUS_GENOBJ-N-FIL_13
1002
{
1000
OWNER
1000
GEN
1002
}
1001
GENIUS_GENODEF_13
1002
{
1000
HIER
1070
     0
1002
}
1002
{
1000
MANEDIT
1070
     0
1002
}
1002
{
1000
NOSEL
1070
     0
1002
}
1002
{
1000
BEHIND
1070
     0
1002
}
1002
{
1000
OTHER
1070
     0
1002
}
1002
{
1000
REACTOR
1002
}
  0
ARC
  5
42C4
  8
240
  6
CONTINUOUS
 10
42.0000000000002132
 20
20.5
 30
0.0
 40
5.0
 50
180.0000000000007105
 51
270.0
1001
GENIUS_GENODEF_13
1002
{
1000
HIER
1070
     0
1002
}
1002
{
1000
MANEDIT
1070
     0
1002
}
1002
{
1000
NOSEL
1070
     0
1002
}
1002
{
1000
BEHIND
1070
     0
1002
}
1002
{
1000
OTHER
1070
     0
1002
}
1002
{
1000
REACTOR
1002
}
1001
GENIUS_GENOBJ-N-FIL_13
1002
{
1000
OWNER
1000
GEN
1002
}
  0
LINE
  5
42C5
  8
241
  6
CONTINUOUS
 10
37.0000000000000071
 20
-20.5000000000000213
 30
0.0
 11
37.0000000000002132
 21
20.4999999999999396
 31
0.0
  0
LINE
  5
42C6
  8
243
  6
HIDDEN2
 10
102.9500000000000028
 20
-9.0000000000000231
 30
0.0
 11
125.0
 21
-9.0
 31
0.0
1001
GRPNAME
1000
PASTMD0D
  0
TEXT
  5
42EE
  8
241
  6
CONTINUOUS
 10
-46.9999999999999787
 20
76.9999999999999716
 30
0.0
 40
5.0
  1
HSK-A100-CKB3-125
  7
YOKO
 11
-46.9999999999999787
 21
76.9999999999999716
 31
0.0
 73
     1
1001
GRPNAME
1000
PASTMD0I
  0
LINE
  5
42EF
  8
250
  6
CONTINUOUS
 10
0.0000000000000142
 20
50.4999999999999716
 30
0.0
 11
0.0000000000000151
 21
63.9999999999999574
 31
0.0
  0
LINE
  5
42F0
  8
250
  6
CONTINUOUS
 10
125.0
 20
15.9999999999999591
 30
0.0
 11
125.0
 21
63.9999999999999574
 31
0.0
  0
LINE
  5
42F1
  8
250
  6
CONTINUOUS
 10
2.2300000000000142
 20
62.9999999999999716
 30
0.0
 11
122.769999999999996
 21
62.9999999999999716
 31
0.0
  0
LINE
  5
42F2
  8
250
  6
CONTINUOUS
 10
2.2300000000000142
 20
62.6283333333332877
 30
0.0
 11
0.000000000000015
 21
62.9999999999999716
 31
0.0
  0
LINE
  5
42F3
  8
250
  6
CONTINUOUS
 10
2.2300000000000142
 20
63.3716666666666271
 30
0.0
 11
0.000000000000015
 21
62.9999999999999716
 31
0.0
  0
LINE
  5
42F4
  8
250
  6
CONTINUOUS
 10
0.000000000000015
 20
62.9999999999999716
 30
0.0
 11
2.2300000000000142
 21
62.9999999999999716
 31
0.0
  0
LINE
  5
42F5
  8
250
  6
CONTINUOUS
 10
122.769999999999996
 20
63.3716666666666271
 30
0.0
 11
125.0
 21
62.9999999999999716
 31
0.0
  0
LINE
  5
42F6
  8
250
  6
CONTINUOUS
 10
122.769999999999996
 20
62.6283333333332877
 30
0.0
 11
125.0
 21
62.9999999999999716
 31
0.0
  0
LINE
  5
42F7
  8
250
  6
CONTINUOUS
 10
125.0
 20
62.9999999999999716
 30
0.0
 11
122.769999999999996
 21
62.9999999999999716
 31
0.0
  0
TEXT
  5
42F8
  8
250
  6
CONTINUOUS
 10
58.3000000000000114
 20
63.9999999999999787
 30
0.0
 40
2.799999999999998
  1
125
1001
ACAD
1000
MTEXTBEGIN
1070
    73
1070
     1
1070
    44
1040
1.0
1070
    74
1070
     0
1000
MTEXTEND
  0
LINE
  5
42F9
  8
250
  6
CONTINUOUS
 10
125.5
 20
-15.5000000000000302
 30
0.0
 11
136.1429295099999877
 21
-15.5000000000000302
 31
0.0
  0
LINE
  5
42FA
  8
250
  6
CONTINUOUS
 10
125.5
 20
15.4999999999999591
 30
0.0
 11
136.1429295099999877
 21
15.4999999999999591
 31
0.0
  0
LINE
  5
42FB
  8
250
  6
CONTINUOUS
 10
135.1429295099999877
 20
-13.2700000000000298
 30
0.0
 11
135.1429295099999877
 21
13.2699999999999605
 31
0.0
  0
LINE
  5
42FC
  8
250
  6
CONTINUOUS
 10
135.5145961766666005
 20
-13.2700000000000298
 30
0.0
 11
135.1429295099999877
 21
-15.5000000000000302
 31
0.0
  0
LINE
  5
42FD
  8
250
  6
CONTINUOUS
 10
134.7712628433332895
 20
-13.2700000000000298
 30
0.0
 11
135.1429295099999877
 21
-15.5000000000000302
 31
0.0
  0
LINE
  5
42FE
  8
250
  6
CONTINUOUS
 10
135.1429295099999877
 20
-15.5000000000000302
 30
0.0
 11
135.1429295099999877
 21
-13.2700000000000298
 31
0.0
  0
LINE
  5
42FF
  8
250
  6
CONTINUOUS
 10
134.7712628433332895
 20
13.2699999999999605
 30
0.0
 11
135.1429295099999877
 21
15.4999999999999591
 31
0.0
  0
LINE
  5
4300
  8
250
  6
CONTINUOUS
 10
135.5145961766666005
 20
13.2699999999999605
 30
0.0
 11
135.1429295099999877
 21
15.4999999999999591
 31
0.0
  0
LINE
  5
4301
  8
250
  6
CONTINUOUS
 10
135.1429295099999877
 20
15.4999999999999591
 30
0.0
 11
135.1429295099999877
 21
13.2699999999999605
 31
0.0
  0
TEXT
  5
4302
  8
250
  6
CONTINUOUS
 10
134.1429295099999024
 20
-3.5333333333333461
 30
0.0
 40
2.799999999999998
  1
\U+2205
 50
90.0
1001
ACAD
1000
MTEXTBEGIN
1070
    73
1070
     1
1070
    44
1040
1.0
1070
    74
1070
     0
1000
MTEXTEND
  0
TEXT
  5
4303
  8
250
  6
CONTINUOUS
 10
134.1429295099999024
 20
-1.0000000000000131
 30
0.0
 40
2.799999999999998
  1
31
 50
90.0
1001
ACAD
1000
MTEXTBEGIN
1070
    73
1070
     1
1070
    44
1040
1.0
1070
    74
1070
     0
1000
MTEXTEND
  0
LINE
  5
4304
  8
250
  6
CONTINUOUS
 10
128.3232027200000118
 20
31.0411462299999599
 30
0.0
 11
141.3898693799999933
 21
31.0411462299999599
 31
0.0
1001
ITEMNAME
1000
LNSP2
  0
LINE
  5
4305
  8
250
  6
CONTINUOUS
 10
120.787390535123194
 20
17.2454033170647314
 30
0.0
 11
119.3505177600000025
 21
15.4999999999999591
 31
0.0
  0
LINE
  5
4306
  8
250
  6
CONTINUOUS
 10
120.1436449849875032
 20
17.6170699837498503
 30
0.0
 11
119.3505177600000025
 21
15.4999999999999591
 31
0.0
  0
LINE
  5
4307
  8
250
  6
CONTINUOUS
 10
119.3505177600000025
 20
15.4999999999999591
 30
0.0
 11
120.4655177600554055
 21
17.4312366504072891
 31
0.0
  0
POLYLINE
  5
4308
  8
250
  6
CONTINUOUS
 66
     1
 10
0.0
 20
0.0
 30
0.0
1001
ACAD
1000
DSTYLE
1002
{
1070
     6
1000
OPEN
1002
}
  0
VERTEX
  5
44DB
  8
250
  6
CONTINUOUS
 10
120.4655177600554055
 20
17.4312366504072891
 30
0.0
  0
VERTEX
  5
44DC
  8
250
  6
CONTINUOUS
 10
128.3232027200000118
 20
31.0411462299999599
 30
0.0
  0
SEQEND
  5
44DD
  8
250
  6
CONTINUOUS
  0
INSERT
  5
4309
  8
240
  2
*U5
 10
0.0
 20
0.0
 30
0.0
  0
CIRCLE
  5
430A
  8
242
  6
CONTINUOUS
 10
117.0
 20
-0.0000000000000355
 30
0.0
 40
2.649999999999999
  0
CIRCLE
  5
430B
  8
241
  6
CONTINUOUS
 10
117.0
 20
-0.0000000000000355
 30
0.0
 40
3.1000000000000001
  0
LINE
  5
430C
  8
245
  6
CENTER2
 10
117.0
 20
4.0999999999999632
 30
0.0
 11
117.0
 21
-4.1000000000000334
 31
0.0
  0
POLYLINE
  5
430D
  8
241
  6
CONTINUOUS
 66
     1
 10
0.0
 20
0.0
 30
0.0
 70
     1
  0
VERTEX
  5
44E2
  8
241
  6
CONTINUOUS
 10
115.5
 20
-0.8660254000000355
 30
0.0
  0
VERTEX
  5
44E3
  8
241
  6
CONTINUOUS
 10
117.0
 20
-1.732050810000034
 30
0.0
  0
VERTEX
  5
44E4
  8
241
  6
CONTINUOUS
 10
118.5
 20
-0.8660254000000355
 30
0.0
  0
VERTEX
  5
44E5
  8
241
  6
CONTINUOUS
 10
118.5
 20
0.8660253999999644
 30
0.0
  0
VERTEX
  5
44E6
  8
241
  6
CONTINUOUS
 10
117.0
 20
1.7320508099999641
 30
0.0
  0
VERTEX
  5
44E7
  8
241
  6
CONTINUOUS
 10
115.5
 20
0.8660253999999644
 30
0.0
  0
SEQEND
  5
44E8
  8
241
  6
CONTINUOUS
  0
VIEWPORT
  5
22
 67
     1
  8
0
 10
261.517699115044195
 20
148.5
 30
0.0
 40
523.0353982300885036
 41
297.0
 68
     1
 69
     1
1001
ACAD
1000
MVIEW
1002
{
1070
    16
1010
0.0
1020
0.0
1030
0.0
1010
0.0
1020
0.0
1030
1.0
1040
0.0
1040
297.0
1040
261.517699115044195
1040
148.5
1040
50.0
1040
0.0
1040
0.0
1070
     0
1070
   100
1070
     1
1070
     1
1070
     0
1070
     0
1070
     0
1070
     0
1040
0.0
1040
0.0
1040
0.0
1040
1.0
1040
1.0
1040
10.0
1040
10.0
1070
     0
1002
{
1002
}
1002
}
1001
GENIUS_GENODEF_13
1002
{
1000
HIER
1070
     0
1002
}
1002
{
1000
MANEDIT
1070
     0
1002
}
1002
{
1000
NOSEL
1070
     0
1002
}
1002
{
1000
BEHIND
1070
     0
1002
}
1002
{
1000
OTHER
1070
     0
1002
}
1002
{
1000
REACTOR
1002
}
1001
GENIUS_GENOBJ-N-SDF_13
1002
{
1000
OWNER
1000
GEN
1002
}
1001
GENIUS_GENSCREG_15
1000
PF
1040
1.0
1000
DF
1040
1.0
1000
MIN
1011
0.0
1021
0.0
1031
0.0
1021
0.0
1031
0.0
1000
MAX
1011
523.0353982300885036
1021
0.0
1031
0.0
1021
297.0
1031
0.0
1000
FLAGS
1070
     4
  0
ENDSEC
  0
EOF
