  0
SECTION
  2
HEADER
  9
$ACADVER
  1
AC1009
  9
$INSBASE
 10
0.0
 20
0.0
 30
0.0
  9
$EXTMIN
 10
-71.123394181043963
 20
-156.70218306222509
 30
-0.000000000000013
  9
$EXTMAX
 10
602.52127613306743
 20
139.34305093338889
 30
0.0000000000000023
  9
$LIMMIN
 10
0.0
 20
0.0
  9
$LIMMAX
 10
297.0
 20
210.0
  9
$ORTHOMODE
 70
     0
  9
$REGENMODE
 70
     1
  9
$FILLMODE
 70
     1
  9
$QTEXTMODE
 70
     0
  9
$MIRRTEXT
 70
     1
  9
$DRAGMODE
 70
     2
  9
$LTSCALE
 40
10.0
  9
$OSMODE
 70
  3071
  9
$ATTMODE
 70
     1
  9
$TEXTSIZE
 40
3.0
  9
$TRACEWID
 40
1.0
  9
$TEXTSTYLE
  7
YOKO
  9
$CLAYER
  8
250
  9
$CELTYPE
  6
BYLAYER
  9
$CECOLOR
 62
   256
  9
$DIMSCALE
 40
1.0
  9
$DIMASZ
 40
2.2299999999999991
  9
$DIMEXO
 40
0.5
  9
$DIMDLI
 40
7.0
  9
$DIMRND
 40
0.0
  9
$DIMDLE
 40
0.0
  9
$DIMEXE
 40
1.0
  9
$DIMTP
 40
0.0
  9
$DIMTM
 40
0.01
  9
$DIMTXT
 40
2.799999999999998
  9
$DIMCEN
 40
0.0
  9
$DIMTSZ
 40
0.0
  9
$DIMTOL
 70
     0
  9
$DIMLIM
 70
     0
  9
$DIMTIH
 70
     0
  9
$DIMTOH
 70
     0
  9
$DIMSE1
 70
     0
  9
$DIMSE2
 70
     0
  9
$DIMTAD
 70
     3
  9
$DIMZIN
 70
     9
  9
$DIMBLK
  1
OPEN
  9
$DIMASO
 70
     1
  9
$DIMSHO
 70
     1
  9
$DIMPOST
  1

  9
$DIMAPOST
  1

  9
$DIMALT
 70
     0
  9
$DIMALTD
 70
     2
  9
$DIMALTF
 40
25.399999999999999
  9
$DIMLFAC
 40
1.0
  9
$DIMTOFL
 70
     1
  9
$DIMTVP
 40
0.0
  9
$DIMTIX
 70
     1
  9
$DIMSOXD
 70
     0
  9
$DIMSAH
 70
     0
  9
$DIMBLK1
  1

  9
$DIMBLK2
  1

  9
$DIMSTYLE
  2
BIGT
  9
$DIMCLRD
 70
   256
  9
$DIMCLRE
 70
   256
  9
$DIMCLRT
 70
    40
  9
$DIMTFAC
 40
1.0
  9
$DIMGAP
 40
1.0
  9
$LUNITS
 70
     2
  9
$LUPREC
 70
     3
  9
$SKETCHINC
 40
1.0
  9
$FILLETRAD
 40
0.0
  9
$AUNITS
 70
     0
  9
$AUPREC
 70
     3
  9
$MENU
  1
.
  9
$ELEVATION
 40
0.0
  9
$PELEVATION
 40
0.0
  9
$THICKNESS
 40
0.0
  9
$LIMCHECK
 70
     0
  9
$BLIPMODE
 70
     0
  9
$CHAMFERA
 40
0.25
  9
$CHAMFERB
 40
0.25
  9
$SKPOLY
 70
     0
  9
$TDCREATE
 40
2453612.6927963542
  9
$TDUPDATE
 40
2456133.4018794559
  9
$TDINDWG
 40
0.0659848843
  9
$TDUSRTIMER
 40
0.0659846991
  9
$USRTIMER
 70
     1
  9
$ANGBASE
 50
0.0
  9
$ANGDIR
 70
     0
  9
$PDMODE
 70
     1
  9
$PDSIZE
 40
0.0
  9
$PLINEWID
 40
0.0
  9
$COORDS
 70
     2
  9
$SPLFRAME
 70
     0
  9
$SPLINETYPE
 70
     6
  9
$SPLINESEGS
 70
     4
  9
$ATTDIA
 70
     1
  9
$ATTREQ
 70
     1
  9
$HANDLING
 70
     1
  9
$HANDSEED
  5
46EE
  9
$SURFTAB1
 70
     6
  9
$SURFTAB2
 70
     6
  9
$SURFTYPE
 70
     6
  9
$SURFU
 70
     6
  9
$SURFV
 70
     6
  9
$UCSNAME
  2

  9
$UCSORG
 10
0.0
 20
0.0
 30
0.0
  9
$UCSXDIR
 10
1.0
 20
0.0
 30
0.0
  9
$UCSYDIR
 10
0.0
 20
1.0
 30
0.0
  9
$PUCSNAME
  2

  9
$PUCSORG
 10
0.0
 20
0.0
 30
0.0
  9
$PUCSXDIR
 10
1.0
 20
0.0
 30
0.0
  9
$PUCSYDIR
 10
0.0
 20
1.0
 30
0.0
  9
$USERI1
 70
     1
  9
$USERI2
 70
     0
  9
$USERI3
 70
     0
  9
$USERI4
 70
     0
  9
$USERI5
 70
     0
  9
$USERR1
 40
0.0
  9
$USERR2
 40
0.0
  9
$USERR3
 40
0.0
  9
$USERR4
 40
0.0
  9
$USERR5
 40
0.0
  9
$WORLDVIEW
 70
     1
  9
$SHADEDGE
 70
     3
  9
$SHADEDIF
 70
    70
  9
$TILEMODE
 70
     1
  9
$MAXACTVP
 70
    16
  9
$PLIMCHECK
 70
     0
  9
$PEXTMIN
 10
1.0000000000000000E+020
 20
1.0000000000000000E+020
 30
1.0000000000000000E+020
  9
$PEXTMAX
 10
-1.0000000000000000E+020
 20
-1.0000000000000000E+020
 30
-1.0000000000000000E+020
  9
$PLIMMIN
 10
0.0
 20
0.0
  9
$PLIMMAX
 10
420.0
 20
297.0
  9
$UNITMODE
 70
     0
  9
$VISRETAIN
 70
     1
  9
$PLINEGEN
 70
     0
  9
$PSLTSCALE
 70
     1
  0
ENDSEC
  0
SECTION
  2
TABLES
  0
TABLE
  2
VPORT
 70
     1
  0
VPORT
  2
*ACTIVE
 70
     0
 10
0.0
 20
0.0
 11
1.0
 21
1.0
 12
265.69894097601173
 22
-8.6795660644181112
 13
0.0
 23
0.0
 14
7.0
 24
7.0
 15
7.0
 25
7.0
 16
0.0
 26
0.0
 36
1.0
 17
0.0
 27
0.0
 37
0.0
 40
332.56319538874237
 41
2.0332480818414318
 42
50.0
 43
0.0
 44
0.0
 50
0.0
 51
0.0
 71
     0
 72
  2000
 73
     1
 74
     0
 75
     0
 76
     0
 77
     0
 78
     0
  0
ENDTAB
  0
TABLE
  2
LTYPE
 70
    16
  0
LTYPE
  2
CONTINUOUS
 70
     0
  3
Solid line
 72
    65
 73
     0
 40
0.0
  0
LTYPE
  2
CENTER2
 70
     0
  3
___ _ ___ _ ___ _ ___ _ ___ _ ___ _ ___ _ ___ _
 72
    65
 73
     4
 40
1.125
 49
0.75
 49
-0.125
 49
0.125
 49
-0.125
  0
LTYPE
  2
HIDDEN2
 70
     0
  3
_ _ _ _ _ _ _ _ _ _ _ _ _ _ _ _ _ _ _ _ _ _ _ _
 72
    65
 73
     2
 40
0.1875
 49
0.125
 49
-0.0625
  0
LTYPE
  2
PHANTOM2
 70
     0
  3
___ _ _ ___ _ _ ___ _ _ ___ _ _ ___ _ _ ___ _ _
 72
    65
 73
     6
 40
1.25
 49
0.625
 49
-0.125
 49
0.125
 49
-0.125
 49
0.125
 49
-0.125
  0
LTYPE
  2
CENTER
 70
     0
  3
____ _ ____ _ ____ _ ____ _ ____ _ ____ _ ____ 
 72
    65
 73
     4
 40
2.0
 49
1.25
 49
-0.25
 49
0.25
 49
-0.25
  0
LTYPE
  2
AMCONSTR
 70
     0
  3
_______________________
 72
    65
 73
     2
 40
9999.0
 49
9999.0
 49
0.0
  0
LTYPE
  2
HIDDEN
 70
     0
  3
Hidden __ __ __ __ __ __ __ __ __ __ __ __ __ _
 72
    65
 73
     2
 40
9.5249999999999986
 49
6.349999999999997
 49
-3.174999999999998
  0
LTYPE
  2
ACANSTGB
 70
     0
  3
__ . . __ . .
 72
    65
 73
     6
 40
0.35433070866
 49
0.15748031496
 49
-0.03937007874
 49
0.03937007874
 49
-0.03937007874
 49
0.03937007874
 49
-0.03937007874
  0
LTYPE
  2
ACANSTGL
 70
     0
  3
_ _ _ _ _
 72
    65
 73
     2
 40
0.11811023622
 49
0.07874015748
 49
-0.03937007874
  0
LTYPE
  2
AMZIGZAG2
 70
     0
  3
/\/-/\/-/\/-/\/-/\/-/\/
 72
    65
 73
     2
 40
0.4401
 49
0.0001
 49
-0.4400000000000003
  0
ENDTAB
  0
TABLE
  2
LAYER
 70
    11
  0
LAYER
  2
0
 70
     0
 62
     7
  6
CONTINUOUS
  0
LAYER
  2
250
 70
     0
 62
     3
  6
CONTINUOUS
  0
LAYER
  2
240
 70
     0
 62
     4
  6
CONTINUOUS
  0
LAYER
  2
DEFPOINTS
 70
     0
 62
     7
  6
CONTINUOUS
  0
LAYER
  2
245
 70
     0
 62
     2
  6
CENTER2
  0
LAYER
  2
241
 70
     0
 62
   211
  6
CONTINUOUS
  0
LAYER
  2
242
 70
     0
 62
     3
  6
CONTINUOUS
  0
LAYER
  2
243
 70
     0
 62
   211
  6
HIDDEN2
  0
LAYER
  2
244
 70
     0
 62
     3
  6
HIDDEN2
  0
LAYER
  2
247
 70
     0
 62
    60
  6
CONTINUOUS
  0
ENDTAB
  0
TABLE
  2
STYLE
 70
     6
  0
STYLE
  2
STANDARD
 70
     0
 40
0.0
 41
1.0
 50
0.0
 71
     0
 42
3.0
  3
romans.shx
  4
extfont.shx
  0
STYLE
  2
YOKO
 70
     0
 40
0.0
 41
1.0
 50
0.0
 71
     0
 42
3.0
  3
romans.shx
  4
extfont.shx
  0
STYLE
  2
ACANSGDT
 70
     0
 40
0.0
 41
1.0
 50
0.0
 71
     0
 42
3.0
  3
amgdt.shx
  4

  0
ENDTAB
  0
TABLE
  2
VIEW
 70
     0
  0
ENDTAB
  0
TABLE
  2
UCS
 70
     0
  0
ENDTAB
  0
TABLE
  2
APPID
 70
    39
  0
APPID
  2
ACAD
 70
     0
  0
APPID
  2
ACADANNOTATIVE
 70
     0
  0
APPID
  2
GLOBAL
 70
     0
  0
APPID
  2
DETAIL
 70
     0
  0
APPID
  2
GRPNAME
 70
     0
  0
APPID
  2
GPARA
 70
     0
  0
APPID
  2
MCAD_NO_VIS
 70
     0
  0
APPID
  2
ACAD_TEMP_GRAPHIC
 70
     0
  0
APPID
  2
ACATTRIBSERVICES
 70
     0
  0
APPID
  2
GENIUS_GENSCREG_15
 70
     0
  0
APPID
  2
GENIUS_GENODEF_13
 70
     0
  0
APPID
  2
GENIUS_GENOBJ-N-SDF_13
 70
     0
  0
APPID
  2
GENIUS_GENREC_14
 70
     0
  0
APPID
  2
GENIUS_GENOBJ-N-REC_13
 70
     0
  0
APPID
  2
GENIUS_GENDIMSH_14
 70
     0
  0
APPID
  2
GENIUS_GENOBJ-N-DIM_13
 70
     0
  0
APPID
  2
GENIUS_GENDIM_13
 70
     0
  0
APPID
  2
GENIUS_GENDTOL_13
 70
     0
  0
APPID
  2
GENIUS_GENOLIS_13
 70
     0
  0
APPID
  2
GENIUS_GENOENT_13
 70
     0
  0
APPID
  2
GENIUS_GENOBJ-F-FEM_13
 70
     0
  0
APPID
  2
GENIUS_GENOREF_13
 70
     0
  0
APPID
  2
GENIUS_GEFFEM_13
 70
     0
  0
APPID
  2
GENIUS_GEFFEMP_13
 70
     0
  0
APPID
  2
AD_DRAW
 70
     0
  0
APPID
  2
DESIGNERASSEMBLIES
 70
     0
  0
APPID
  2
ACADM_DIM_EDIT
 70
     0
  0
APPID
  2
AMDT_DM_ADJ
 70
     0
  0
APPID
  2
GENIUS_GENFIL_13
 70
     0
  0
APPID
  2
GENIUS_GENOBJ-N-CHA_13
 70
     0
  0
APPID
  2
HATCH_TYPE
 70
     0
  0
APPID
  2
HATCH_DISPLAY
 70
     0
  0
APPID
  2
HATCH_DISTANCE
 70
     0
  0
APPID
  2
ACAD_DSTYLE_DIMBREAK
 70
     0
  0
APPID
  2
ACAD_DSTYLE_DIMJAG
 70
     0
  0
APPID
  2
ITEMNAME
 70
     0
  0
APPID
  2
ACAECLAYERSTANDARD
 70
     0
  0
APPID
  2
ACAD_EXEMPT_FROM_CAD_STANDARDS
 70
     0
  0
APPID
  2
ACAD_MLEADERVER
 70
     0
  0
ENDTAB
  0
TABLE
  2
DIMSTYLE
 70
     9
  0
DIMSTYLE
  2
STANDARD
 70
     0
  3

  4

  5

  6

  7

 40
1.0
 41
0.18
 42
0.0625
 43
0.38
 44
0.18
 45
0.0
 46
0.0
 47
0.0
 48
0.0
140
0.18
141
0.09
142
0.0
143
25.399999999999999
144
1.0
145
0.0
146
1.0
147
0.09
 71
     0
 72
     0
 73
     1
 74
     1
 75
     0
 76
     0
 77
     0
 78
     0
170
     0
171
     2
172
     0
173
     0
174
     0
175
     0
176
     0
177
     0
178
     0
  0
DIMSTYLE
  2
BIGT
 70
     0
  3

  4

  5

  6

  7

 40
1.0
 41
2.2299999999999991
 42
0.5
 43
7.0
 44
1.0
 45
0.0
 46
0.0
 47
0.0
 48
0.01
140
2.799999999999998
141
0.0
142
0.0
143
25.399999999999999
144
1.0
145
0.0
146
1.0
147
1.0
 71
     0
 72
     0
 73
     0
 74
     0
 75
     0
 76
     0
 77
     3
 78
     9
170
     0
171
     2
172
     1
173
     0
174
     1
175
     0
176
   256
177
   256
178
    40
  0
DIMSTYLE
  2
AM_ANSI
 70
     0
  3

  4
mm
  5

  6

  7

 40
1.0
 41
0.1
 42
0.05
 43
0.5
 44
0.1
 45
0.0
 46
0.0
 47
0.1
 48
0.1
140
0.12
141
0.0
142
0.0
143
25.399999999999999
144
1.0
145
0.0
146
0.71
147
0.06
 71
     0
 72
     0
 73
     1
 74
     1
 75
     0
 76
     0
 77
     0
 78
     7
170
     0
171
     2
172
     0
173
     0
174
     0
175
     0
176
   256
177
   256
178
     2
  0
DIMSTYLE
  2
AM_ANSI$3
 70
     0
  3

  4
mm
  5

  6

  7

 40
1.0
 41
0.1
 42
0.05
 43
0.5
 44
0.1
 45
0.0
 46
0.0
 47
0.1
 48
0.1
140
0.12
141
0.0
142
0.0
143
25.399999999999999
144
1.0
145
0.0
146
0.71
147
0.06
 71
     0
 72
     0
 73
     1
 74
     1
 75
     0
 76
     0
 77
     0
 78
     7
170
     0
171
     2
172
     0
173
     0
174
     0
175
     0
176
   256
177
   256
178
     2
  0
DIMSTYLE
  2
AM_ANSI$4
 70
     0
  3

  4
mm
  5

  6

  7

 40
1.0
 41
0.1
 42
0.05
 43
0.5
 44
0.1
 45
0.0
 46
0.0
 47
0.1
 48
0.1
140
0.12
141
0.0
142
0.0
143
25.399999999999999
144
1.0
145
0.0
146
0.71
147
0.06
 71
     0
 72
     0
 73
     1
 74
     1
 75
     0
 76
     0
 77
     0
 78
     7
170
     0
171
     2
172
     0
173
     0
174
     0
175
     0
176
   256
177
   256
178
     2
  0
DIMSTYLE
  2
AM_ANSI$7
 70
     0
  3

  4
mm
  5

  6

  7

 40
1.0
 41
0.1
 42
0.05
 43
0.5
 44
0.1
 45
0.0
 46
0.0
 47
0.1
 48
0.1
140
0.24
141
0.0
142
0.0
143
25.399999999999999
144
1.0
145
0.0
146
0.71
147
0.06
 71
     0
 72
     0
 73
     1
 74
     1
 75
     0
 76
     0
 77
     0
 78
     7
170
     0
171
     2
172
     0
173
     0
174
     0
175
     0
176
   256
177
   256
178
     2
  0
DIMSTYLE
  2
AM_ANSI$SF
 70
     0
  3

  4
mm
  5

  6

  7

 40
1.0
 41
0.1
 42
0.05
 43
0.5
 44
0.1
 45
0.0
 46
0.0
 47
0.1
 48
0.1
140
0.12
141
0.0
142
0.0
143
25.399999999999999
144
1.0
145
0.0
146
0.71
147
0.06
 71
     0
 72
     0
 73
     1
 74
     1
 75
     1
 76
     1
 77
     0
 78
     7
170
     0
171
     2
172
     0
173
     0
174
     0
175
     0
176
   256
177
   256
178
     2
  0
DIMSTYLE
  2
AM_ANSI$SH
 70
     0
  3

  4
mm
  5

  6

  7

 40
1.0
 41
0.1
 42
0.05
 43
0.5
 44
0.1
 45
0.0
 46
0.0
 47
0.1
 48
0.1
140
0.12
141
0.0
142
0.0
143
25.399999999999999
144
1.0
145
0.0
146
0.71
147
0.06
 71
     0
 72
     0
 73
     1
 74
     1
 75
     1
 76
     1
 77
     0
 78
     7
170
     0
171
     2
172
     0
173
     1
174
     0
175
     0
176
   256
177
   256
178
     2
  0
ENDTAB
  0
ENDSEC
  0
SECTION
  2
BLOCKS
  0
BLOCK
  8
0
  2
$MODEL_SPACE
 70
     0
 10
0.0
 20
0.0
 30
0.0
  3
$MODEL_SPACE
  1

  0
ENDBLK
  5
4262
  8
0
  0
BLOCK
 67
     1
  8
0
  2
$PAPER_SPACE
 70
     0
 10
0.0
 20
0.0
 30
0.0
  3
$PAPER_SPACE
  1

  0
ENDBLK
  5
425E
 67
     1
  8
0
  0
BLOCK
  8
0
  2
_OPEN
 70
     0
 10
0.0
 20
0.0
 30
0.0
  3
_OPEN
  1

  0
LINE
  5
595
  8
0
  6
BYBLOCK
 62
     0
 10
-1.0
 20
0.1666666666666666
 30
0.0
 11
0.0
 21
0.0
 31
0.0
  0
LINE
  5
596
  8
0
  6
BYBLOCK
 62
     0
 10
-1.0
 20
-0.1666666666666666
 30
0.0
 11
0.0
 21
0.0
 31
0.0
  0
LINE
  5
597
  8
0
  6
BYBLOCK
 62
     0
 10
0.0
 20
0.0
 30
0.0
 11
-1.0
 21
0.0
 31
0.0
  0
ENDBLK
  5
599
  8
0
  0
BLOCK
  8
0
  2
*X7
 70
     1
 10
0.0
 20
0.0
 30
0.0
  3
*X7
  1

  0
LINE
  5
4339
  8
0
 62
     0
 10
8.238164574470316
 20
-24.068193743056661
 30
0.0
 11
8.2115209144739421
 21
-24.04155008306029
 31
0.0
  0
LINE
  5
433A
  8
0
 62
     0
 10
8.2381645744703071
 20
-24.427403987899421
 30
0.0
 11
7.7079002893291602
 21
-23.897139702758281
 31
0.0
  0
LINE
  5
433B
  8
0
 62
     0
 10
8.2182125041644127
 20
-24.76666216243628
 30
0.0
 11
7.204279664184396
 21
-23.752729322456268
 31
0.0
  0
LINE
  5
433C
  8
0
 62
     0
 10
7.7145899082592511
 20
-24.622249811373891
 30
0.0
 11
6.7006590390396212
 21
-23.608318942154241
 31
0.0
  0
LINE
  5
433D
  8
0
 62
     0
 10
7.2109673123541
 20
-24.477837460311491
 30
0.0
 11
6.1970384138948571
 21
-23.463908561852239
 31
0.0
  0
LINE
  5
433E
  8
0
 62
     0
 10
6.707344716448933
 20
-24.333425109249109
 30
0.0
 11
5.6934177887500752
 21
-23.319498181550241
 31
0.0
  0
LINE
  5
433F
  8
0
 62
     0
 10
6.2037221205437874
 20
-24.18901275818672
 30
0.0
 11
5.328130013313082
 21
-23.313420650956019
 31
0.0
  0
LINE
  5
4340
  8
0
 62
     0
 10
5.7000995246386221
 20
-24.044600407124321
 30
0.0
 11
5.3281300133130891
 21
-23.67263089579879
 31
0.0
  0
LINE
  5
4341
  8
0
 62
     0
 10
5.361541979063233
 20
-24.065253106391701
 30
0.0
 11
5.328130013313082
 21
-24.03184114064155
 31
0.0
  0
ENDBLK
  5
4342
  8
0
  0
BLOCK
  8
0
  2
*X8
 70
     1
 10
0.0
 20
0.0
 30
0.0
  3
*X8
  1

  0
LINE
  5
4345
  8
0
 62
     0
 10
8.0701477227327842
 20
-21.744915422262519
 30
0.0
 11
7.7670214995727589
 21
-21.441789199102509
 31
0.0
  0
LINE
  5
4346
  8
0
 62
     0
 10
8.2332612574242212
 20
-22.267239201796741
 30
0.0
 11
7.263399477793782
 21
-21.297377422166289
 31
0.0
  0
LINE
  5
4347
  8
0
 62
     0
 10
7.7215012285300899
 20
-22.114689417745371
 30
0.0
 11
6.7597774560147812
 21
-21.152965645230051
 31
0.0
  0
LINE
  5
4348
  8
0
 62
     0
 10
8.2113774928885928
 20
-22.604565682103871
 30
0.0
 11
7.8317712232036012
 21
-22.22495941241888
 31
0.0
  0
LINE
  5
4349
  8
0
 62
     0
 10
7.199351315087112
 20
-21.95174974914514
 30
0.0
 11
6.5891407555005852
 21
-21.34153918955862
 31
0.0
  0
LINE
  5
434A
  8
0
 62
     0
 10
8.1132683095342273
 20
-22.865666743592261
 30
0.0
 11
7.8309358563367821
 21
-22.583334290394809
 31
0.0
  0
LINE
  5
434B
  8
0
 62
     0
 10
6.9124805992505713
 20
-22.02408927815139
 30
0.0
 11
6.589140755500571
 21
-21.700749434401391
 31
0.0
  0
LINE
  5
434C
  8
0
 62
     0
 10
7.964481211056718
 20
-23.07608988995754
 30
0.0
 11
7.6220402496344803
 21
-22.733648928535299
 31
0.0
  0
LINE
  5
434D
  8
0
 62
     0
 10
5.7573384204049187
 20
-21.228157344148489
 30
0.0
 11
5.723673699784575
 21
-21.194492623528149
 31
0.0
  0
LINE
  5
434E
  8
0
 62
     0
 10
7.7714733185701572
 20
-23.242292242313731
 30
0.0
 11
7.1824663108924831
 21
-22.653285234636058
 31
0.0
  0
LINE
  5
434F
  8
0
 62
     0
 10
5.847336478339713
 20
-21.677365646926059
 30
0.0
 11
5.4505793449193121
 21
-21.280608513505651
 31
0.0
  0
LINE
  5
4350
  8
0
 62
     0
 10
7.531590408954151
 20
-23.361619577540498
 30
0.0
 11
6.6788437982373523
 21
-22.508872966823692
 31
0.0
  0
LINE
  5
4351
  8
0
 62
     0
 10
5.6943798848197673
 20
-21.883619298248881
 30
0.0
 11
5.4522652133160721
 21
-21.641504626745181
 31
0.0
  0
LINE
  5
4352
  8
0
 62
     0
 10
7.2295251507729619
 20
-23.418764564202078
 30
0.0
 11
6.1752212855822322
 21
-22.364460699011349
 31
0.0
  0
LINE
  5
4353
  8
0
 62
     0
 10
6.8194166742686031
 20
-23.367866332540469
 30
0.0
 11
5.3545145625143391
 21
-21.90296422078622
 31
0.0
  0
LINE
  5
4354
  8
0
 62
     0
 10
6.3409512066324307
 20
-23.248611109747049
 30
0.0
 11
5.333284911077028
 21
-22.240944814191639
 31
0.0
  0
ENDBLK
  5
4355
  8
0
  0
BLOCK
  8
0
  2
*X9
 70
     1
 10
0.0
 20
0.0
 30
0.0
  3
*X9
  1

  0
LINE
  5
4358
  8
0
 62
     0
 10
8.6325802809247634
 20
-20.152086511397901
 30
0.0
 11
7.5727920983010542
 21
-19.092298328774199
 31
0.0
  0
LINE
  5
4359
  8
0
 62
     0
 10
7.550509858052477
 20
-19.429226333368401
 30
0.0
 11
7.1259540584896071
 21
-19.00467053380553
 31
0.0
  0
LINE
  5
435A
  8
0
 62
     0
 10
8.7202080758934244
 20
-20.59892455120934
 30
0.0
 11
8.2956522763305571
 21
-20.17436875164648
 31
0.0
  0
LINE
  5
435B
  8
0
 62
     0
 10
7.0885583729535151
 20
-19.326485093112201
 30
0.0
 11
6.7814368665633884
 21
-19.019363586722051
 31
0.0
  0
LINE
  5
435C
  8
0
 62
     0
 10
8.7231743317738051
 20
-20.96110105193247
 30
0.0
 11
8.3983935165867578
 21
-20.63632023674543
 31
0.0
  0
LINE
  5
435D
  8
0
 62
     0
 10
6.7548536742801764
 20
-19.35199063928161
 30
0.0
 11
6.490972454379194
 21
-19.088109419380629
 31
0.0
  0
LINE
  5
435E
  8
0
 62
     0
 10
8.7231743317737944
 20
-21.32031129677523
 30
0.0
 11
8.3998344963453064
 21
-20.996971461346732
 31
0.0
  0
LINE
  5
435F
  8
0
 62
     0
 10
6.48116854797534
 20
-19.437515757819561
 30
0.0
 11
6.2387585511122241
 21
-19.195105760956441
 31
0.0
  0
LINE
  5
4360
  8
0
 62
     0
 10
8.7231743317737944
 20
-21.679521541618008
 30
0.0
 11
8.3998344963452976
 21
-21.35618170618951
 31
0.0
  0
LINE
  5
4361
  8
0
 62
     0
 10
6.2495981785713921
 20
-19.56515563325836
 30
0.0
 11
6.0177543689193751
 21
-19.333311823606351
 31
0.0
  0
LINE
  5
4362
  8
0
 62
     0
 10
8.7231743317738051
 20
-22.038731786460769
 30
0.0
 11
8.3998344963452922
 21
-21.71539195103227
 31
0.0
  0
LINE
  5
4363
  8
0
 62
     0
 10
6.0533621362573351
 20
-19.72812983578709
 30
0.0
 11
5.8247263052360001
 21
-19.49949400476574
 31
0.0
  0
LINE
  5
4364
  8
0
 62
     0
 10
8.7231743317737944
 20
-22.39794203130355
 30
0.0
 11
8.3998344963453064
 21
-22.074602195875041
 31
0.0
  0
LINE
  5
4365
  8
0
 62
     0
 10
5.8906123223973932
 20
-19.92459026676989
 30
0.0
 11
5.6587246744038451
 21
-19.692702618776359
 31
0.0
  0
LINE
  5
4366
  8
0
 62
     0
 10
8.7231743317737944
 20
-22.757152276146311
 30
0.0
 11
8.3998344963452976
 21
-22.433812440717809
 31
0.0
  0
LINE
  5
4367
  8
0
 62
     0
 10
5.7632227277812831
 20
-20.15641091699656
 30
0.0
 11
5.5207122450513424
 21
-19.913900434266608
 31
0.0
  0
LINE
  5
4368
  8
0
 62
     0
 10
8.7231743317738051
 20
-23.116362520989071
 30
0.0
 11
8.3998344963452922
 21
-22.793022685560562
 31
0.0
  0
LINE
  5
4369
  8
0
 62
     0
 10
5.6780179241562223
 20
-20.430416358214249
 30
0.0
 11
5.4139410493238147
 21
-20.166339483381851
 31
0.0
  0
LINE
  5
436A
  8
0
 62
     0
 10
8.7231743317737944
 20
-23.475572765831831
 30
0.0
 11
8.3998344963453064
 21
-23.152232930403329
 31
0.0
  0
LINE
  5
436B
  8
0
 62
     0
 10
5.6530274487402252
 20
-20.76463612764104
 30
0.0
 11
5.3454872410841912
 21
-20.457095919985001
 31
0.0
  0
LINE
  5
436C
  8
0
 62
     0
 10
8.7231743317737944
 20
-23.834783010674599
 30
0.0
 11
8.3998344963452976
 21
-23.511443175246121
 31
0.0
  0
LINE
  5
436D
  8
0
 62
     0
 10
5.5947948332439603
 20
-21.065613756987531
 30
0.0
 11
5.331248046283072
 21
-20.80206697002664
 31
0.0
  0
LINE
  5
436E
  8
0
 62
     0
 10
8.7231743317738051
 20
-24.19399325551738
 30
0.0
 11
8.3998344963452976
 21
-23.87065342008886
 31
0.0
  0
LINE
  5
436F
  8
0
 62
     0
 10
8.7231743317737944
 20
-24.553203500360141
 30
0.0
 11
8.3998344963453064
 21
-24.229863664931649
 31
0.0
  0
LINE
  5
4370
  8
0
 62
     0
 10
8.7231743317737944
 20
-24.912413745202912
 30
0.0
 11
8.3998344963452976
 21
-24.58907390977441
 31
0.0
  0
LINE
  5
4371
  8
0
 62
     0
 10
8.7231743317738051
 20
-25.27162399004569
 30
0.0
 11
8.3998344963452976
 21
-24.94828415461717
 31
0.0
  0
LINE
  5
4372
  8
0
 62
     0
 10
8.7231743317738051
 20
-25.630834234888429
 30
0.0
 11
8.3998344963453064
 21
-25.30749439945993
 31
0.0
  0
LINE
  5
4373
  8
0
 62
     0
 10
8.7231743317738086
 20
-25.990044479731189
 30
0.0
 11
8.3998344963453118
 21
-25.666704644302701
 31
0.0
  0
LINE
  5
4374
  8
0
 62
     0
 10
8.7231743317737926
 20
-26.34925472457396
 30
0.0
 11
8.3998344963452976
 21
-26.025914889145461
 31
0.0
  0
LINE
  5
4375
  8
0
 62
     0
 10
8.7231743317738051
 20
-26.708464969416749
 30
0.0
 11
8.3998344963453064
 21
-26.38512513398824
 31
0.0
  0
LINE
  5
4376
  8
0
 62
     0
 10
8.7231743317738086
 20
-27.067675214259509
 30
0.0
 11
8.3998344963453118
 21
-26.744335378831011
 31
0.0
  0
LINE
  5
4377
  8
0
 62
     0
 10
8.7159298947131205
 20
-27.419641022041588
 30
0.0
 11
8.3998344963452976
 21
-27.10354562367376
 31
0.0
  0
LINE
  5
4378
  8
0
 62
     0
 10
8.6597480896313286
 20
-27.72266946180256
 30
0.0
 11
8.3870524780551001
 21
-27.449973850226321
 31
0.0
  0
LINE
  5
4379
  8
0
 62
     0
 10
8.5622572617253336
 20
-27.98438887873932
 30
0.0
 11
8.3153237888168974
 21
-27.737455405830879
 31
0.0
  0
LINE
  5
437A
  8
0
 62
     0
 10
8.4321243081799775
 20
-28.21346617003675
 30
0.0
 11
8.1982138779480973
 21
-27.979555739804859
 31
0.0
  0
LINE
  5
437B
  8
0
 62
     0
 10
8.2733954222662973
 20
-28.413947528965831
 30
0.0
 11
8.0445297685591868
 21
-28.185081875258732
 31
0.0
  0
LINE
  5
437C
  8
0
 62
     0
 10
8.0875725741075541
 20
-28.587334925649841
 30
0.0
 11
7.8572300370930961
 21
-28.356992388635391
 31
0.0
  0
LINE
  5
437D
  8
0
 62
     0
 10
7.874219936017262
 20
-28.733192532402331
 30
0.0
 11
7.6354722023712753
 21
-28.494444798756341
 31
0.0
  0
LINE
  5
437E
  8
0
 62
     0
 10
5.6514698570630912
 20
-26.86965269829091
 30
0.0
 11
5.3967359059298632
 21
-26.614918747157692
 31
0.0
  0
LINE
  5
437F
  8
0
 62
     0
 10
7.6307964035400611
 20
-28.848979244767879
 30
0.0
 11
7.3740776355567421
 21
-28.592260476784581
 31
0.0
  0
LINE
  5
4380
  8
0
 62
     0
 10
5.6514698570630912
 20
-27.22886294313367
 30
0.0
 11
5.3281300133130891
 21
-26.905523099383679
 31
0.0
  0
LINE
  5
4381
  8
0
 62
     0
 10
7.3515378208916644
 20
-28.92893090696225
 30
0.0
 11
7.0593595198280212
 21
-28.6367526058986
 31
0.0
  0
LINE
  5
4382
  8
0
 62
     0
 10
5.7045213753548323
 20
-27.641124706268201
 30
0.0
 11
5.3281309156713821
 21
-27.264734246584752
 31
0.0
  0
LINE
  5
4383
  8
0
 62
     0
 10
7.0239016873329021
 20
-28.96050501824627
 30
0.0
 11
6.647511227649459
 21
-28.584114558562831
 31
0.0
  0
LINE
  5
4384
  8
0
 62
     0
 10
6.6140306292770701
 20
-28.909844205033199
 30
0.0
 11
5.3787917288844627
 21
-27.6746053046406
 31
0.0
  0
ENDBLK
  5
4385
  8
0
  0
BLOCK
  8
0
  2
A$C70DE5ADB
 70
     0
 10
0.0
 20
0.0
 30
0.0
  3
A$C70DE5ADB
  1

  0
LINE
  5
4387
  8
244
  6
HIDDEN2
 10
66.000000000001307
 20
-50.999999999998849
 30
0.0
 11
65.000000000001549
 21
-49.99999999999919
 31
0.0
1001
GRPNAME
1000
PASTMD07
  0
LINE
  5
4388
  8
244
  6
HIDDEN2
 10
65.000000000001549
 20
-44.999999999998629
 30
0.0
 11
65.000000000001549
 21
-49.999999999999432
 31
0.0
1001
GRPNAME
1000
PASTMD07
  0
LINE
  5
4389
  8
244
  6
HIDDEN2
 10
58.000000000000519
 20
-52.999999999999083
 30
0.0
 11
60.000000000000519
 21
-50.99999999999919
 31
0.0
1001
GRPNAME
1000
PASTMD07
  0
LINE
  5
438A
  8
244
  6
HIDDEN2
 10
60.000000000000519
 20
-50.99999999999919
 30
0.0
 11
60.000000000000519
 21
-48.999999999999531
 31
0.0
1001
GRPNAME
1000
PASTMD07
  0
LINE
  5
438B
  8
244
  6
HIDDEN2
 10
65.000000000001407
 20
-49.999999999999069
 30
0.0
 11
60.000000000000519
 21
-49.999999999999069
 31
0.0
1001
GRPNAME
1000
PASTMD07
  0
LINE
  5
438C
  8
244
  6
HIDDEN2
 10
65.000000000001549
 20
-44.999999999998629
 30
0.0
 11
60.000000000001549
 21
-44.999999999998629
 31
0.0
1001
GRPNAME
1000
PASTMD07
  0
LINE
  5
438D
  8
244
  6
HIDDEN2
 10
58.000000000000412
 20
-129.49999999999949
 30
0.0
 11
58.500000000000398
 21
-129.99999999999949
 31
0.0
1001
GRPNAME
1000
PASTMD01
  0
LINE
  5
438E
  8
244
  6
HIDDEN2
 10
58.500000000000398
 20
-129.99999999999949
 30
0.0
 11
65.500000000000412
 21
-129.99999999999949
 31
0.0
1001
GRPNAME
1000
PASTMD01
  0
LINE
  5
438F
  8
244
  6
HIDDEN2
 10
58.000000000000519
 20
-129.49999999999929
 30
0.0
 11
58.000000000000519
 21
-52.999999999999083
 31
0.0
1001
GRPNAME
1000
PASTMD07
  0
ARC
  5
4390
  8
241
 10
-330.90000056882639
 20
-14.100000018744311
 30
0.0
 40
1.8999999999999999
210
0.0
220
0.0
230
-1.0
 50
227.46310164112509
 51
270.0
  0
LINE
  5
4391
  8
241
  6
CONTINUOUS
 10
327.10000056882649
 20
-16.000000018744291
 30
0.0
 11
330.90000056882639
 21
-16.000000018744291
 31
0.0
  0
ARC
  5
4392
  8
241
  6
CONTINUOUS
 10
-327.10000056882649
 20
-14.100000018744311
 30
0.0
 40
1.8999999999999999
210
0.0
220
0.0
230
-1.0
 50
270.0
 51
312.5368983588566
  0
LINE
  5
4393
  8
242
 10
332.3166265156276
 20
-12.300000018875149
 30
0.0
 11
325.68337348437672
 21
-15.50000001883687
 31
0.0
  0
LINE
  5
4394
  8
242
 10
325.68337348437672
 20
-12.300000018875149
 30
0.0
 11
332.3166265156276
 21
-15.500000018836429
 31
0.0
  0
LINE
  5
4395
  8
241
 10
332.3166265156276
 20
-12.300000018875149
 30
0.0
 11
325.68337348437672
 21
-12.300000018875149
 31
0.0
  0
LINE
  5
4396
  8
241
 10
332.3166265156276
 20
-15.500000018836429
 30
0.0
 11
332.3166265156276
 21
-12.300000018875149
 31
0.0
  0
LINE
  5
4397
  8
241
 10
325.68337348437672
 20
-15.50000001883687
 30
0.0
 11
325.68337348437672
 21
-12.300000018875149
 31
0.0
  0
LINE
  5
4398
  8
241
 10
345.9999999999867
 20
7.9999999811622029
 30
0.0
 11
348.99999999998619
 21
11.41640784705589
 31
0.0
  0
LINE
  5
4399
  8
241
 10
345.99999999998852
 20
-8.0000000188383638
 30
0.0
 11
348.99999999998869
 21
-11.416407883980471
 31
0.0
  0
LINE
  5
439A
  8
241
 10
345.99999999998681
 20
7.9999999811622029
 30
0.0
 11
345.99999999998909
 21
-8.0000000188382483
 31
0.0
  0
LINE
  5
439B
  8
240
 10
348.99999999998619
 20
11.999999981162199
 30
0.0
 11
348.99999999998897
 21
-12.000000018838479
 31
0.0
  0
ARC
  5
439C
  8
240
 10
334.5000000000025
 20
11.999999981162199
 30
0.0
 40
0.5
 50
0.0
 51
90.0
  0
LINE
  5
439D
  8
243
 10
332.00000000000318
 20
-3.500000018835804
 30
0.0
 11
332.00000000000267
 21
12.499999981162199
 31
0.0
  0
LINE
  5
439E
  8
243
 10
326.00000000000171
 20
-3.5000000188376812
 30
0.0
 11
326.00000000000267
 21
12.499999981162199
 31
0.0
  0
ARC
  5
439F
  8
240
 10
323.50000000000227
 20
11.999999981162199
 30
0.0
 40
0.5
 50
90.0
 51
180.0
  0
LINE
  5
43A0
  8
240
 10
323.50000000000227
 20
12.499999981162199
 30
0.0
 11
334.50000000000227
 21
12.499999981162199
 31
0.0
  0
ARC
  5
43A1
  8
240
 10
207.00000000000179
 20
14.99999998116243
 30
0.0
 40
3.0
 50
180.0
 51
270.0
  0
ARC
  5
43A2
  8
241
 10
207.00000000000281
 20
10.999999981162659
 30
0.0
 40
3.0
 50
180.00000000000659
 51
270.0
  0
LINE
  5
43A3
  8
240
 10
335.00000095367551
 20
-13.50000001882438
 30
0.0
 11
335.00000095368159
 21
-12.000000018835751
 31
0.0
  0
ARC
  5
43A4
  8
240
 10
333.00000095367727
 20
-13.500000018836429
 30
0.0
 40
2.0
 50
270.0
 51
0.0000000003452301
  0
LINE
  5
43A5
  8
240
 10
325.0000009536771
 20
-15.50000001883687
 30
0.0
 11
333.00000095367727
 21
-15.500000018836429
 31
0.0
  0
LINE
  5
43A6
  8
240
 10
323.00000095366102
 20
-13.500000018857801
 30
0.0
 11
323.00000095366119
 21
-12.000000018836889
 31
0.0
  0
ARC
  5
43A7
  8
240
 10
325.00000095367687
 20
-13.50000001883687
 30
0.0
 40
2.0
 50
179.99998240050681
 51
270.0
  0
ARC
  5
43A8
  8
240
 10
207.00000000000171
 20
-15.00000001883598
 30
0.0
 40
3.0
 50
89.999999999996746
 51
180.0
  0
ARC
  5
43A9
  8
241
 10
207.00000000000051
 20
-11.000000018835969
 30
0.0
 40
3.0
 50
89.999999999996746
 51
180.00000000000659
  0
LINE
  5
43AA
  8
245
  6
CENTER2
 10
329.00000000000279
 20
13.70604008790235
 30
0.0
 11
329.00000059413537
 21
-16.799481067553529
 31
0.0
  0
LINE
  5
43AB
  8
240
 10
348.99999999998619
 20
11.999999981162199
 30
0.0
 11
207.00000000000179
 21
11.99999998116243
 31
0.0
  0
LINE
  5
43AC
  8
240
 10
348.99999999998897
 20
-12.000000018838479
 30
0.0
 11
207.00000000000179
 21
-12.000000018835969
 31
0.0
  0
LINE
  5
43AD
  8
241
 10
345.99999999998681
 20
7.9999999811622029
 30
0.0
 11
207.00000000000281
 21
7.9999999811626559
 31
0.0
  0
LINE
  5
43AE
  8
241
 10
345.99999999998909
 20
-8.0000000188382483
 30
0.0
 11
207.0000000000008
 21
-8.0000000188359763
 31
0.0
  0
LINE
  5
43AF
  8
241
 10
196.00000000000489
 20
27.500000000094019
 30
0.0
 11
196.00000000000591
 21
-27.500000000093792
 31
0.0
  0
LINE
  5
43B0
  8
240
 10
204.00000000000489
 20
27.200000000093951
 30
0.0
 11
204.00000000000489
 21
14.99999998116243
 31
0.0
  0
LINE
  5
43B1
  8
240
 10
204.00000000000489
 20
-27.20000000009361
 30
0.0
 11
204.00000000000509
 21
-15.00000001883598
 31
0.0
  0
LINE
  5
43B2
  8
242
 10
196.00000000001131
 20
7.3484632623360531
 30
0.0
 11
204.00000000000489
 21
-7.3484632635482958
 31
0.0
  0
LINE
  5
43B3
  8
242
 10
204.00000000000489
 20
7.3484632623360531
 30
0.0
 11
196.00000000001131
 21
-7.3484632635481812
 31
0.0
  0
LINE
  5
43B4
  8
242
 10
207.00000000000591
 20
11.99999998116243
 30
0.0
 11
207.00000000000611
 21
-12.000000018835969
 31
0.0
  0
LINE
  5
43B5
  8
240
  6
CONTINUOUS
 10
203.70000000000491
 20
-27.500000000093682
 30
0.0
 11
196.00000000000489
 21
-27.500000000093792
 31
0.0
  0
LINE
  5
43B6
  8
240
  6
CONTINUOUS
 10
203.70000000000491
 20
-27.500000000093682
 30
0.0
 11
204.00000000000489
 21
-27.20000000009361
 31
0.0
1001
GENIUS_GENFIL_13
1070
     0
1040
0.3
1040
0.3
1040
0.0
1040
0.0
1002
{
1002
}
1001
GENIUS_GENOBJ-N-CHA_13
1002
{
1000
OWNER
1000
GEN
1002
}
1001
GENIUS_GENODEF_13
1002
{
1000
HIER
1070
     0
1002
}
1002
{
1000
MANEDIT
1070
     0
1002
}
1002
{
1000
NOSEL
1070
     0
1002
}
1002
{
1000
BEHIND
1070
     0
1002
}
1002
{
1000
OTHER
1070
     0
1002
}
1002
{
1000
REACTOR
1002
}
  0
LINE
  5
43B7
  8
241
 10
196.00000000001131
 20
-7.3484632635481812
 30
0.0
 11
204.00000000000489
 21
-7.3484632635482958
 31
0.0
  0
LINE
  5
43B8
  8
241
 10
196.00000000001131
 20
7.3484632623360531
 30
0.0
 11
204.00000000000489
 21
7.3484632623360531
 31
0.0
  0
LINE
  5
43B9
  8
240
  6
CONTINUOUS
 10
203.70000000000491
 20
27.500000000093909
 30
0.0
 11
196.00000000000489
 21
27.500000000094019
 31
0.0
  0
LINE
  5
43BA
  8
240
  6
CONTINUOUS
 10
203.70000000000491
 20
27.500000000093909
 30
0.0
 11
204.00000000000489
 21
27.200000000093951
 31
0.0
1001
GENIUS_GENFIL_13
1070
     0
1040
0.3
1040
0.3
1040
0.0
1040
0.0
1002
{
1002
}
1001
GENIUS_GENOBJ-N-CHA_13
1002
{
1000
OWNER
1000
GEN
1002
}
1001
GENIUS_GENODEF_13
1002
{
1000
HIER
1070
     0
1002
}
1002
{
1000
MANEDIT
1070
     0
1002
}
1002
{
1000
NOSEL
1070
     0
1002
}
1002
{
1000
BEHIND
1070
     0
1002
}
1002
{
1000
OTHER
1070
     0
1002
}
1002
{
1000
REACTOR
1002
}
  0
LINE
  5
43BB
  8
241
 10
154.00000000000409
 20
62.500000000000099
 30
0.0
 11
154.0000000000002
 21
-62.499999999999758
 31
0.0
  0
LINE
  5
43BC
  8
240
 10
134.00000000000051
 20
62.500000000000099
 30
0.0
 11
154.00000000000409
 21
62.500000000000099
 31
0.0
  0
LINE
  5
43BD
  8
240
 10
155.00000000000409
 20
61.500000000000121
 30
0.0
 11
155.0000000000019
 21
33.999999962250172
 31
0.0
  0
LINE
  5
43BE
  8
240
 10
155.49999999999861
 20
38.999999999997158
 30
0.0
 11
155.99999999999861
 21
39.499999999997158
 31
0.0
  0
LINE
  5
43BF
  8
240
 10
155.49999999999861
 20
38.999999999997158
 30
0.0
 11
155.49999999999861
 21
33.999999962250421
 31
0.0
  0
LINE
  5
43C0
  8
240
 10
155.99999999999861
 20
39.499999999997158
 30
0.0
 11
193.99999999999699
 21
39.500000000000341
 31
0.0
1001
GRPNAME
1000
PASTMD3N
  0
LINE
  5
43C1
  8
240
 10
193.99999999999699
 20
39.500000000000341
 30
0.0
 11
194.49999999999699
 21
39.000000000000341
 31
0.0
  0
LINE
  5
43C2
  8
240
 10
194.49999999999699
 20
39.000000000000341
 30
0.0
 11
194.4999999999979
 21
33.999999962249049
 31
0.0
1001
GRPNAME
1000
PASTMD3N
  0
LINE
  5
43C3
  8
240
 10
195.50000000000219
 20
33.999999962250421
 30
0.0
 11
196.00000000000219
 21
33.499999962250421
 31
0.0
1001
GENIUS_GENFIL_13
1070
     0
1040
0.5
1040
0.5
1040
2.0000000000000271
1040
44.999999999999673
1002
{
1002
}
1001
GENIUS_GENOBJ-N-CHA_13
1002
{
1000
OWNER
1000
GEN
1002
}
1001
GENIUS_GENODEF_13
1002
{
1000
HIER
1070
     0
1002
}
1002
{
1000
MANEDIT
1070
     0
1002
}
1002
{
1000
NOSEL
1070
     0
1002
}
1002
{
1000
BEHIND
1070
     0
1002
}
1002
{
1000
OTHER
1070
     0
1002
}
1002
{
1000
REACTOR
1002
}
  0
LINE
  5
43C4
  8
241
 10
194.00000000000119
 20
23.118400135244318
 30
0.0
 11
196.0000000000021
 21
22.627416997939122
 31
0.0
  0
LINE
  5
43C5
  8
241
 10
191.00000000000111
 20
27.946377224963729
 30
0.0
 11
194.00000000000119
 21
23.118400135244318
 31
0.0
  0
LINE
  5
43C6
  8
240
 10
155.00000000000409
 20
61.500000000000121
 30
0.0
 11
154.00000000000409
 21
62.500000000000099
 31
0.0
  0
LINE
  5
43C7
  8
241
 10
191.00000000000091
 20
27.946377224963729
 30
0.0
 11
191.00000000000091
 21
33.999999962250421
 31
0.0
  0
ARC
  5
43C8
  8
241
 10
158.00000000000139
 20
30.946377224964071
 30
0.0
 40
3.0
 50
179.99999999999341
 51
270.0
  0
LINE
  5
43C9
  8
240
 10
155.00000000000301
 20
33.999999962250172
 30
0.0
 11
155.49999999999861
 21
33.9999999622502
 31
0.0
  0
LINE
  5
43CA
  8
241
 10
158.00000000000139
 20
27.946377224964071
 30
0.0
 11
191.00000000000111
 21
27.946377224963729
 31
0.0
  0
LINE
  5
43CB
  8
240
 10
155.99999999999841
 20
-39.500000450453172
 30
0.0
 11
155.49999999999841
 21
-39.000000450453172
 31
0.0
1001
GENIUS_GENFIL_13
1070
     0
1040
0.5
1040
0.5
1040
0.4999999999999716
1040
44.99999999999919
1000
~T
  0
LINE
  5
43CC
  8
240
 10
155.49999999999841
 20
-39.000000450453172
 30
0.0
 11
155.49999999999841
 21
-34.000000450453058
 31
0.0
  0
LINE
  5
43CD
  8
240
 10
155.99999999999841
 20
-39.500000450453172
 30
0.0
 11
193.9999999999981
 21
-39.500000450453172
 31
0.0
  0
LINE
  5
43CE
  8
240
 10
194.4999999999979
 20
-39.000000450453172
 30
0.0
 11
194.4999999999979
 21
-34.000000450453058
 31
0.0
  0
LINE
  5
43CF
  8
240
 10
194.4999999999979
 20
-39.000000450453172
 30
0.0
 11
193.9999999999981
 21
-39.500000450453172
 31
0.0
1001
GENIUS_GENFIL_13
1070
     0
1040
0.5000000000000285
1040
0.4999999999999858
1040
0.5000000000000285
1040
45.000000000000803
1002
{
1002
}
  0
LINE
  5
43D0
  8
240
 10
195.50000000000139
 20
-33.999999999891877
 30
0.0
 11
196.00000000000139
 21
-33.499999999891891
 31
0.0
1001
GENIUS_GENFIL_13
1070
     0
1040
0.5
1040
0.5
1040
2.0000000000000271
1040
44.999999999999673
1002
{
1002
}
1001
GENIUS_GENODEF_13
1002
{
1000
HIER
1070
     0
1002
}
1002
{
1000
MANEDIT
1070
     0
1002
}
1002
{
1000
NOSEL
1070
     0
1002
}
1002
{
1000
BEHIND
1070
     0
1002
}
1002
{
1000
OTHER
1070
     0
1002
}
1002
{
1000
REACTOR
1002
}
1001
GENIUS_GENOBJ-N-CHA_13
1002
{
1000
OWNER
1000
GEN
1002
}
  0
LINE
  5
43D1
  8
241
 10
194.00000000000119
 20
-23.118400135130958
 30
0.0
 11
196.00000000000159
 21
-22.627416997682761
 31
0.0
  0
LINE
  5
43D2
  8
241
 10
191.00000000000119
 20
-27.946377224964071
 30
0.0
 11
194.00000000000119
 21
-23.118400135130958
 31
0.0
  0
LINE
  5
43D3
  8
242
 10
158.00000000000139
 20
33.999999962250172
 30
0.0
 11
158.00000000000139
 21
-33.999999999892111
 31
0.0
  0
LINE
  5
43D4
  8
241
 10
194.00000000000119
 20
23.118400135244318
 30
0.0
 11
194.00000000000119
 21
-23.118400135130958
 31
0.0
  0
LINE
  5
43D5
  8
241
 10
191.00000000000091
 20
-27.946377224964071
 30
0.0
 11
191.00000000000171
 21
-33.999999999891877
 31
0.0
  0
LINE
  5
43D6
  8
240
 10
196.00000000000219
 20
33.499999962250421
 30
0.0
 11
196.00000000000219
 21
27.500000000094019
 31
0.0
  0
ARC
  5
43D7
  8
241
 10
158.00000000000091
 20
-30.94637722496396
 30
0.0
 40
3.0
 50
90.0
 51
180.0
  0
LINE
  5
43D8
  8
240
 10
154.9999999999977
 20
-33.999999999892111
 30
0.0
 11
195.50000000000139
 21
-33.999999999891877
 31
0.0
  0
LINE
  5
43D9
  8
241
 10
158.00000000000091
 20
-27.94637722496396
 30
0.0
 11
191.00000000000111
 21
-27.946377224964071
 31
0.0
  0
LINE
  5
43DA
  8
240
 10
154.0000000000002
 20
-62.499999999999758
 30
0.0
 11
155.0000000000002
 21
-61.49999999999978
 31
0.0
  0
LINE
  5
43DB
  8
240
 10
134.00000000000051
 20
-62.499999999999758
 30
0.0
 11
154.0000000000002
 21
-62.499999999999758
 31
0.0
  0
LINE
  5
43DC
  8
240
 10
155.0000000000002
 20
-61.49999999999978
 30
0.0
 11
155.0000000000008
 21
-33.999999999892111
 31
0.0
  0
POLYLINE
  5
43DD
  8
241
 66
     1
 10
0.0
 20
0.0
 30
0.0
1001
GRPNAME
1000
PASTMD01
  0
VERTEX
  5
43DE
  8
241
  6
CONTINUOUS
 10
130.29999999999939
 20
44.132527686502257
 30
0.0
  0
VERTEX
  5
43DF
  8
241
  6
CONTINUOUS
 10
130.28632758035349
 20
43.920335515811992
 30
0.0
  0
VERTEX
  5
43E0
  8
241
  6
CONTINUOUS
 10
130.24542361539079
 20
43.709901636275163
 30
0.0
  0
VERTEX
  5
43E1
  8
241
  6
CONTINUOUS
 10
130.17762704824719
 20
43.502969769290956
 30
0.0
  0
VERTEX
  5
43E2
  8
241
  6
CONTINUOUS
 10
130.08349966262949
 20
43.301254617480019
 30
0.0
  0
VERTEX
  5
43E3
  8
241
  6
CONTINUOUS
 10
129.9638214276996
 20
43.106427656117603
 30
0.0
  0
VERTEX
  5
43E4
  8
241
  6
CONTINUOUS
 10
129.81958403500289
 20
42.920103282763613
 30
0.0
  0
VERTEX
  5
43E5
  8
241
  6
CONTINUOUS
 10
129.6519826810009
 20
42.743825439856302
 30
0.0
  0
VERTEX
  5
43E6
  8
241
  6
CONTINUOUS
 10
129.46240616329681
 20
42.579054821118341
 30
0.0
  0
VERTEX
  5
43E7
  8
241
  6
CONTINUOUS
 10
129.25242537262099
 20
42.427156767788908
 30
0.0
  0
VERTEX
  5
43E8
  8
241
  6
CONTINUOUS
 10
129.02378027593571
 20
42.289389954976258
 30
0.0
  0
VERTEX
  5
43E9
  8
241
  6
CONTINUOUS
 10
128.77836549852091
 20
42.166895961879163
 30
0.0
  0
VERTEX
  5
43EA
  8
241
  6
CONTINUOUS
 10
128.5182146245123
 20
42.060689812302343
 30
0.0
  0
VERTEX
  5
43EB
  8
241
  6
CONTINUOUS
 10
128.2454833459831
 20
41.971651563849377
 30
0.0
  0
VERTEX
  5
43EC
  8
241
  6
CONTINUOUS
 10
127.9624316002004
 20
41.900519015488499
 30
0.0
  0
VERTEX
  5
43ED
  8
241
  6
CONTINUOUS
 10
127.6714048430732
 20
41.84788159391745
 30
0.0
  0
VERTEX
  5
43EE
  8
241
  6
CONTINUOUS
 10
127.37481461396609
 20
41.814175469389163
 30
0.0
  0
VERTEX
  5
43EF
  8
241
  6
CONTINUOUS
 10
127.07511855292471
 20
41.799679941466557
 30
0.0
  0
VERTEX
  5
43F0
  8
241
  6
CONTINUOUS
 10
126.77480003589611
 20
41.804515124659197
 30
0.0
  0
VERTEX
  5
43F1
  8
241
  6
CONTINUOUS
 10
126.4763475966939
 20
41.828640953116519
 30
0.0
  0
VERTEX
  5
43F2
  8
241
  6
CONTINUOUS
 10
126.18223430622299
 20
41.871857512625752
 30
0.0
  0
VERTEX
  5
43F3
  8
241
  6
CONTINUOUS
 10
125.89489727983531
 20
41.933806697164158
 30
0.0
  0
VERTEX
  5
43F4
  8
241
  6
CONTINUOUS
 10
125.61671748262459
 20
42.013975176278777
 30
0.0
  0
VERTEX
  5
43F5
  8
241
  6
CONTINUOUS
 10
125.3499999999996
 20
42.111698648703367
 30
0.0
  0
VERTEX
  5
43F6
  8
241
  6
CONTINUOUS
 10
125.0969549370206
 20
42.226167346969078
 30
0.0
  0
VERTEX
  5
43F7
  8
241
  6
CONTINUOUS
 10
124.8596791047725
 20
42.356432747391182
 30
0.0
  0
VERTEX
  5
43F8
  8
241
  6
CONTINUOUS
 10
124.6401386455284
 20
42.501415429836911
 30
0.0
  0
VERTEX
  5
43F9
  8
241
  6
CONTINUOUS
 10
124.440152740675
 20
42.659914022138757
 30
0.0
  0
VERTEX
  5
43FA
  8
241
  6
CONTINUOUS
 10
124.2613785364029
 20
42.830615155043908
 30
0.0
  0
VERTEX
  5
43FB
  8
241
  6
CONTINUOUS
 10
124.1052974120711
 20
43.012104345205223
 30
0.0
  0
VERTEX
  5
43FC
  8
241
  6
CONTINUOUS
 10
123.9732027050316
 20
43.202877716035132
 30
0.0
  0
VERTEX
  5
43FD
  8
241
  6
CONTINUOUS
 10
123.8661889936285
 20
43.401354459301388
 30
0.0
  0
VERTEX
  5
43FE
  8
241
  6
CONTINUOUS
 10
123.7851430271772
 20
43.605889934201748
 30
0.0
  0
VERTEX
  5
43FF
  8
241
  6
CONTINUOUS
 10
123.7307363780797
 20
43.814789295375348
 30
0.0
  0
VERTEX
  5
4400
  8
241
  6
CONTINUOUS
 10
123.7034198769654
 20
44.026321536925359
 30
0.0
  0
VERTEX
  5
4401
  8
241
  6
CONTINUOUS
 10
123.7034198769654
 20
44.238733836079057
 30
0.0
  0
VERTEX
  5
4402
  8
241
  6
CONTINUOUS
 10
123.7307363780797
 20
44.450266077629067
 30
0.0
  0
VERTEX
  5
4403
  8
241
  6
CONTINUOUS
 10
123.7851430271772
 20
44.659165438802667
 30
0.0
  0
VERTEX
  5
4404
  8
241
  6
CONTINUOUS
 10
123.8661889936285
 20
44.863700913703042
 30
0.0
  0
VERTEX
  5
4405
  8
241
  6
CONTINUOUS
 10
123.9732027050316
 20
45.062177656969311
 30
0.0
  0
VERTEX
  5
4406
  8
241
  6
CONTINUOUS
 10
124.1052974120711
 20
45.252951027799213
 30
0.0
  0
VERTEX
  5
4407
  8
241
  6
CONTINUOUS
 10
124.2613785364029
 20
45.434440217960379
 30
0.0
  0
VERTEX
  5
4408
  8
241
  6
CONTINUOUS
 10
124.440152740675
 20
45.605141350865651
 30
0.0
  0
VERTEX
  5
4409
  8
241
  6
CONTINUOUS
 10
124.6401386455284
 20
45.763639943167618
 30
0.0
  0
VERTEX
  5
440A
  8
241
  6
CONTINUOUS
 10
124.8596791047725
 20
45.908622625613127
 30
0.0
  0
VERTEX
  5
440B
  8
241
  6
CONTINUOUS
 10
125.0969549370206
 20
46.038888026035437
 30
0.0
  0
VERTEX
  5
440C
  8
241
  6
CONTINUOUS
 10
125.3499999999996
 20
46.153356724301027
 30
0.0
  0
VERTEX
  5
440D
  8
241
  6
CONTINUOUS
 10
125.61671748262459
 20
46.251080196725752
 30
0.0
  0
VERTEX
  5
440E
  8
241
  6
CONTINUOUS
 10
125.89489727983531
 20
46.331248675840243
 30
0.0
  0
VERTEX
  5
440F
  8
241
  6
CONTINUOUS
 10
126.18223430622299
 20
46.393197860378677
 30
0.0
  0
VERTEX
  5
4410
  8
241
  6
CONTINUOUS
 10
126.4763475966939
 20
46.436414419887782
 30
0.0
  0
VERTEX
  5
4411
  8
241
  6
CONTINUOUS
 10
126.77480003589611
 20
46.460540248345069
 30
0.0
  0
VERTEX
  5
4412
  8
241
  6
CONTINUOUS
 10
127.07511855292471
 20
46.465375431537801
 30
0.0
  0
VERTEX
  5
4413
  8
241
  6
CONTINUOUS
 10
127.37481461396609
 20
46.450879903615267
 30
0.0
  0
VERTEX
  5
4414
  8
241
  6
CONTINUOUS
 10
127.6714048430732
 20
46.417173779086824
 30
0.0
  0
VERTEX
  5
4415
  8
241
  6
CONTINUOUS
 10
127.9624316002004
 20
46.364536357516023
 30
0.0
  0
VERTEX
  5
4416
  8
241
  6
CONTINUOUS
 10
128.2454833459831
 20
46.293403809155052
 30
0.0
  0
VERTEX
  5
4417
  8
241
  6
CONTINUOUS
 10
128.5182146245123
 20
46.204365560702172
 30
0.0
  0
VERTEX
  5
4418
  8
241
  6
CONTINUOUS
 10
128.77836549852091
 20
46.098159411125259
 30
0.0
  0
VERTEX
  5
4419
  8
241
  6
CONTINUOUS
 10
129.02378027593571
 20
45.97566541802825
 30
0.0
  0
VERTEX
  5
441A
  8
241
  6
CONTINUOUS
 10
129.25242537262099
 20
45.8378986052155
 30
0.0
  0
VERTEX
  5
441B
  8
241
  6
CONTINUOUS
 10
129.46240616329681
 20
45.686000551886082
 30
0.0
  0
VERTEX
  5
441C
  8
241
  6
CONTINUOUS
 10
129.6519826810009
 20
45.521229933148092
 30
0.0
  0
VERTEX
  5
441D
  8
241
  6
CONTINUOUS
 10
129.81958403500289
 20
45.344952090240767
 30
0.0
  0
VERTEX
  5
441E
  8
241
  6
CONTINUOUS
 10
129.9638214276996
 20
45.158627716886897
 30
0.0
  0
VERTEX
  5
441F
  8
241
  6
CONTINUOUS
 10
130.08349966262949
 20
44.963800755524389
 30
0.0
  0
VERTEX
  5
4420
  8
241
  6
CONTINUOUS
 10
130.17762704824719
 20
44.762085603713331
 30
0.0
  0
VERTEX
  5
4421
  8
241
  6
CONTINUOUS
 10
130.24542361539079
 20
44.55515373672938
 30
0.0
  0
VERTEX
  5
4422
  8
241
  6
CONTINUOUS
 10
130.28632758035349
 20
44.344719857192537
 30
0.0
  0
VERTEX
  5
4423
  8
241
  6
CONTINUOUS
 10
130.29999999999939
 20
44.132527686502257
 30
0.0
  0
SEQEND
  5
4424
  8
241
  6
CONTINUOUS
  0
LINE
  5
4425
  8
241
 10
104.2500000000003
 20
62.500000000000341
 30
0.0
 11
104.2500000000003
 21
56.000000000000341
 31
0.0
  0
LINE
  5
4426
  8
241
 10
101.5000000000003
 20
57.443375672974412
 30
0.0
 11
99.000000000000327
 21
58.886751345948483
 31
0.0
  0
LINE
  5
4427
  8
241
 10
101.5000000000003
 20
57.443375672974412
 30
0.0
 11
101.5000000000003
 21
54.556624327026263
 31
0.0
  0
LINE
  5
4428
  8
241
 10
99.000000000000185
 20
53.113248654052192
 30
0.0
 11
101.5000000000003
 21
54.556624327026263
 31
0.0
  0
LINE
  5
4429
  8
240
  6
CONTINUOUS
 10
108.00000000000151
 20
62.499999999999872
 30
0.0
 11
120.0000000000005
 21
62.499999999999872
 31
0.0
1001
GRPNAME
1000
PASTMD01
  0
LINE
  5
442A
  8
240
  6
CONTINUOUS
 10
134.00000000000051
 20
62.499999999999872
 30
0.0
 11
120.0000000000005
 21
62.499999999999872
 31
0.0
1001
GRPNAME
1000
PASTMD01
  0
LINE
  5
442B
  8
241
 10
108.0000000000018
 20
-3.999999999999996
 30
0.0
 11
106.20000000000179
 21
-3.999999999999996
 31
0.0
1001
GRPNAME
1000
PASTMD01
  0
LINE
  5
442C
  8
241
 10
106.20000000000179
 20
-3.999999999999996
 30
0.0
 11
106.20000000000159
 21
50.249999999999659
 31
0.0
1001
GRPNAME
1000
PASTMD01
  0
LINE
  5
442D
  8
241
 10
108.0000000000018
 20
-3.999999999999996
 30
0.0
 11
108.00000000000161
 21
50.249999999999631
 31
0.0
1001
GRPNAME
1000
PASTMD01
  0
LINE
  5
442E
  8
241
 10
120.0000000000005
 20
62.499999999999872
 30
0.0
 11
120.0000000000006
 21
-62.5
 31
0.0
1001
GRPNAME
1000
PASTMD01
  0
LINE
  5
442F
  8
241
 10
134.00000000000051
 20
62.499999999999872
 30
0.0
 11
134.0
 21
-62.5
 31
0.0
1001
GRPNAME
1000
PASTMD01
  0
LINE
  5
4430
  8
245
 10
353.92539327350721
 20
0.000000000000341
 30
0.0
 11
155.0000000000002
 21
0.000000000000341
 31
0.0
1001
GRPNAME
1000
00000002
  0
LINE
  5
4431
  8
241
 10
93.750000000000256
 20
62.500000000000341
 30
0.0
 11
93.750000000000256
 21
56.000000000000341
 31
0.0
  0
LINE
  5
4432
  8
241
 10
96.500000000000185
 20
57.443375672974412
 30
0.0
 11
96.500000000000185
 21
54.556624327026263
 31
0.0
  0
LINE
  5
4433
  8
241
 10
86.750000000000298
 20
62.500000000000341
 30
0.0
 11
86.750000000000298
 21
56.000000000000341
 31
0.0
  0
LINE
  5
4434
  8
241
 10
84.000000000000327
 20
57.443375672974412
 30
0.0
 11
84.000000000000327
 21
54.556624327026263
 31
0.0
  0
LINE
  5
4435
  8
240
  6
CONTINUOUS
 10
75.000000000000284
 20
62.499999999999872
 30
0.0
 11
74.000000000000284
 21
61.499999999999872
 31
0.0
1001
GRPNAME
1000
PASTMD01
  0
LINE
  5
4436
  8
241
 10
76.250000000000284
 20
62.500000000000341
 30
0.0
 11
76.250000000000284
 21
56.000000000000341
 31
0.0
  0
LINE
  5
4437
  8
241
 10
81.500000000000185
 20
53.113248654052192
 30
0.0
 11
79.000000000000284
 21
54.556624327026263
 31
0.0
  0
LINE
  5
4438
  8
241
 10
79.000000000000284
 20
57.443375672974412
 30
0.0
 11
79.000000000000284
 21
54.556624327026263
 31
0.0
  0
LINE
  5
4439
  8
241
 10
79.000000000000284
 20
57.443375672974412
 30
0.0
 11
81.500000000000284
 21
58.886751345948483
 31
0.0
  0
LINE
  5
443A
  8
240
  6
CONTINUOUS
 10
64.999999999999844
 20
43.500000000000668
 30
0.0
 11
65.499999999999858
 21
44.000000000000661
 31
0.0
1001
GRPNAME
1000
PASTMD07
  0
LINE
  5
443B
  8
240
  6
CONTINUOUS
 10
71.500000000001322
 20
44.000000000000661
 30
0.0
 11
65.499999999999858
 21
44.000000000000661
 31
0.0
1001
GRPNAME
1000
PASTMD07
  0
ARC
  5
443C
  8
240
  6
CONTINUOUS
 10
71.500000000001322
 20
45.000000000000661
 30
0.0
 40
1.0
 50
269.99999999228288
 51
359.99999999228118
1001
GRPNAME
1000
PASTMD07
  0
LINE
  5
443D
  8
240
  6
CONTINUOUS
 10
72.500000000001307
 20
49.750000000000917
 30
0.0
 11
72.500000000001307
 21
45.000000000000661
 31
0.0
1001
GRPNAME
1000
PASTMD07
  0
LINE
  5
443E
  8
240
  6
CONTINUOUS
 10
72.500000000001307
 20
49.750000000000917
 30
0.0
 11
73.000000000001307
 21
50.250000000000909
 31
0.0
1001
GRPNAME
1000
PASTMD07
  0
LINE
  5
443F
  8
240
  6
CONTINUOUS
 10
73.000000000001307
 20
50.250000000000909
 30
0.0
 11
74.000000000001293
 21
50.250000000000909
 31
0.0
1001
GRPNAME
1000
PASTMD07
  0
CIRCLE
  5
4440
  8
241
 10
81.500000000000284
 20
56.000000000000341
 30
0.0
 40
5.0
  0
ARC
  5
4441
  8
241
 10
81.500000000000284
 20
56.000000000000341
 30
0.0
 40
5.25
 50
179.99999999485411
 51
359.99999999485402
  0
LINE
  5
4442
  8
241
 10
84.000000000000327
 20
57.443375672974412
 30
0.0
 11
81.500000000000284
 21
58.886751345948483
 31
0.0
  0
LINE
  5
4443
  8
241
 10
81.500000000000185
 20
53.113248654052192
 30
0.0
 11
84.000000000000327
 21
54.556624327026263
 31
0.0
  0
LINE
  5
4444
  8
240
 10
48.000000000000753
 20
43.999999999945771
 30
0.0
 11
64.499999999999829
 21
44.000000000002011
 31
0.0
1001
GRPNAME
1000
PASTMD07
  0
LINE
  5
4445
  8
240
 10
64.999999999999844
 20
42.500000000000547
 30
0.0
 11
64.499999999999829
 21
42.500000000000547
 31
0.0
1001
GRPNAME
1000
PASTMD07
  0
LINE
  5
4446
  8
240
 10
74.000000000000284
 20
61.499999999999872
 30
0.0
 11
74.000000000000298
 21
50.250000000000909
 31
0.0
1001
GRPNAME
1000
PASTMD01
  0
LINE
  5
4447
  8
240
 10
64.499999999999829
 20
44.000000000002011
 30
0.0
 11
64.499999999999829
 21
42.500000000000547
 31
0.0
1001
GRPNAME
1000
PASTMD07
  0
LINE
  5
4448
  8
240
 10
64.999999999999844
 20
43.500000000000668
 30
0.0
 11
64.999999999999844
 21
42.500000000000547
 31
0.0
1001
GRPNAME
1000
PASTMD07
  0
LINE
  5
4449
  8
241
 10
72.500000000001307
 20
45.000000000000661
 30
0.0
 11
72.500000000001307
 21
-44.99999999999919
 31
0.0
1001
GRPNAME
1000
PASTMD07
  0
LINE
  5
444A
  8
240
 10
75.000000000000284
 20
62.499999999999872
 30
0.0
 11
106.20000000000159
 21
62.499999999999872
 31
0.0
1001
GRPNAME
1000
PASTMD01
  0
ARC
  5
444B
  8
241
 10
99.000000000000327
 20
56.000000000000341
 30
0.0
 40
5.25
 50
179.99999999485411
 51
359.99999999485402
  0
CIRCLE
  5
444C
  8
241
 10
99.000000000000327
 20
56.000000000000341
 30
0.0
 40
5.0
  0
LINE
  5
444D
  8
241
 10
99.000000000000185
 20
53.113248654052192
 30
0.0
 11
96.500000000000185
 21
54.556624327026263
 31
0.0
  0
LINE
  5
444E
  8
241
 10
96.500000000000185
 20
57.443375672974412
 30
0.0
 11
99.000000000000327
 21
58.886751345948483
 31
0.0
  0
LINE
  5
444F
  8
240
 10
106.20000000000159
 20
50.249999999999631
 30
0.0
 11
108.00000000000161
 21
50.249999999999631
 31
0.0
1001
GRPNAME
1000
PASTMD01
  0
LINE
  5
4450
  8
245
 10
-50.000000000000007
 20
0.0
 30
0.0
 11
155.0000000000002
 21
0.0
 31
0.0
1001
GRPNAME
1000
PASTMD01
  0
POLYLINE
  5
4451
  8
241
 66
     1
 10
0.0
 20
0.0
 30
0.0
1001
GRPNAME
1000
PASTMD01
  0
VERTEX
  5
4452
  8
241
  6
CONTINUOUS
 10
130.29999999999939
 20
-44.132527686502002
 30
0.0
  0
VERTEX
  5
4453
  8
241
  6
CONTINUOUS
 10
130.28632758035349
 20
-43.920335515811743
 30
0.0
  0
VERTEX
  5
4454
  8
241
  6
CONTINUOUS
 10
130.24542361539079
 20
-43.709901636274907
 30
0.0
  0
VERTEX
  5
4455
  8
241
  6
CONTINUOUS
 10
130.17762704824719
 20
-43.502969769290978
 30
0.0
  0
VERTEX
  5
4456
  8
241
  6
CONTINUOUS
 10
130.08349966262949
 20
-43.301254617480033
 30
0.0
  0
VERTEX
  5
4457
  8
241
  6
CONTINUOUS
 10
129.9638214276996
 20
-43.106427656117361
 30
0.0
  0
VERTEX
  5
4458
  8
241
  6
CONTINUOUS
 10
129.81958403500289
 20
-42.920103282763513
 30
0.0
  0
VERTEX
  5
4459
  8
241
  6
CONTINUOUS
 10
129.6519826810009
 20
-42.743825439856188
 30
0.0
  0
VERTEX
  5
445A
  8
241
  6
CONTINUOUS
 10
129.46240616329681
 20
-42.57905482111822
 30
0.0
  0
VERTEX
  5
445B
  8
241
  6
CONTINUOUS
 10
129.25242537262099
 20
-42.427156767788787
 30
0.0
  0
VERTEX
  5
445C
  8
241
  6
CONTINUOUS
 10
129.02378027593571
 20
-42.289389954976052
 30
0.0
  0
VERTEX
  5
445D
  8
241
  6
CONTINUOUS
 10
128.77836549852091
 20
-42.166895961879042
 30
0.0
  0
VERTEX
  5
445E
  8
241
  6
CONTINUOUS
 10
128.5182146245123
 20
-42.060689812302137
 30
0.0
  0
VERTEX
  5
445F
  8
241
  6
CONTINUOUS
 10
128.2454833459831
 20
-41.97165156384925
 30
0.0
  0
VERTEX
  5
4460
  8
241
  6
CONTINUOUS
 10
127.9624316002004
 20
-41.90051901548825
 30
0.0
  0
VERTEX
  5
4461
  8
241
  6
CONTINUOUS
 10
127.6714048430732
 20
-41.847881593917457
 30
0.0
  0
VERTEX
  5
4462
  8
241
  6
CONTINUOUS
 10
127.37481461396609
 20
-41.814175469389049
 30
0.0
  0
VERTEX
  5
4463
  8
241
  6
CONTINUOUS
 10
127.07511855292471
 20
-41.799679941466472
 30
0.0
  0
VERTEX
  5
4464
  8
241
  6
CONTINUOUS
 10
126.77480003589611
 20
-41.80451512465924
 30
0.0
  0
VERTEX
  5
4465
  8
241
  6
CONTINUOUS
 10
126.4763475966939
 20
-41.828640953116519
 30
0.0
  0
VERTEX
  5
4466
  8
241
  6
CONTINUOUS
 10
126.18223430622299
 20
-41.871857512625638
 30
0.0
  0
VERTEX
  5
4467
  8
241
  6
CONTINUOUS
 10
125.89489727983531
 20
-41.933806697164073
 30
0.0
  0
VERTEX
  5
4468
  8
241
  6
CONTINUOUS
 10
125.61671748262459
 20
-42.013975176278556
 30
0.0
  0
VERTEX
  5
4469
  8
241
  6
CONTINUOUS
 10
125.3499999999996
 20
-42.111698648703282
 30
0.0
  0
VERTEX
  5
446A
  8
241
  6
CONTINUOUS
 10
125.0969549370206
 20
-42.226167346968843
 30
0.0
  0
VERTEX
  5
446B
  8
241
  6
CONTINUOUS
 10
124.8596791047725
 20
-42.356432747391182
 30
0.0
  0
VERTEX
  5
446C
  8
241
  6
CONTINUOUS
 10
124.6401386455284
 20
-42.50141542983669
 30
0.0
  0
VERTEX
  5
446D
  8
241
  6
CONTINUOUS
 10
124.440152740675
 20
-42.659914022138622
 30
0.0
  0
VERTEX
  5
446E
  8
241
  6
CONTINUOUS
 10
124.2613785364029
 20
-42.830615155043908
 30
0.0
  0
VERTEX
  5
446F
  8
241
  6
CONTINUOUS
 10
124.1052974120711
 20
-43.012104345204968
 30
0.0
  0
VERTEX
  5
4470
  8
241
  6
CONTINUOUS
 10
123.9732027050316
 20
-43.202877716034997
 30
0.0
  0
VERTEX
  5
4471
  8
241
  6
CONTINUOUS
 10
123.8661889936285
 20
-43.401354459301253
 30
0.0
  0
VERTEX
  5
4472
  8
241
  6
CONTINUOUS
 10
123.7851430271772
 20
-43.605889934201613
 30
0.0
  0
VERTEX
  5
4473
  8
241
  6
CONTINUOUS
 10
123.7307363780797
 20
-43.81478929537522
 30
0.0
  0
VERTEX
  5
4474
  8
241
  6
CONTINUOUS
 10
123.7034198769654
 20
-44.026321536925252
 30
0.0
  0
VERTEX
  5
4475
  8
241
  6
CONTINUOUS
 10
123.7034198769654
 20
-44.23873383607895
 30
0.0
  0
VERTEX
  5
4476
  8
241
  6
CONTINUOUS
 10
123.7307363780797
 20
-44.450266077628932
 30
0.0
  0
VERTEX
  5
4477
  8
241
  6
CONTINUOUS
 10
123.7851430271772
 20
-44.659165438802567
 30
0.0
  0
VERTEX
  5
4478
  8
241
  6
CONTINUOUS
 10
123.8661889936285
 20
-44.863700913702921
 30
0.0
  0
VERTEX
  5
4479
  8
241
  6
CONTINUOUS
 10
123.9732027050316
 20
-45.06217765696919
 30
0.0
  0
VERTEX
  5
447A
  8
241
  6
CONTINUOUS
 10
124.1052974120711
 20
-45.252951027799092
 30
0.0
  0
VERTEX
  5
447B
  8
241
  6
CONTINUOUS
 10
124.2613785364029
 20
-45.4344402179604
 30
0.0
  0
VERTEX
  5
447C
  8
241
  6
CONTINUOUS
 10
124.440152740675
 20
-45.60514135086553
 30
0.0
  0
VERTEX
  5
447D
  8
241
  6
CONTINUOUS
 10
124.6401386455284
 20
-45.763639943167377
 30
0.0
  0
VERTEX
  5
447E
  8
241
  6
CONTINUOUS
 10
124.8596791047725
 20
-45.908622625613113
 30
0.0
  0
VERTEX
  5
447F
  8
241
  6
CONTINUOUS
 10
125.0969549370206
 20
-46.03888802603521
 30
0.0
  0
VERTEX
  5
4480
  8
241
  6
CONTINUOUS
 10
125.3499999999996
 20
-46.153356724300913
 30
0.0
  0
VERTEX
  5
4481
  8
241
  6
CONTINUOUS
 10
125.61671748262459
 20
-46.251080196725511
 30
0.0
  0
VERTEX
  5
4482
  8
241
  6
CONTINUOUS
 10
125.89489727983531
 20
-46.331248675840122
 30
0.0
  0
VERTEX
  5
4483
  8
241
  6
CONTINUOUS
 10
126.18223430622299
 20
-46.393197860378542
 30
0.0
  0
VERTEX
  5
4484
  8
241
  6
CONTINUOUS
 10
126.4763475966939
 20
-46.436414419887797
 30
0.0
  0
VERTEX
  5
4485
  8
241
  6
CONTINUOUS
 10
126.77480003589611
 20
-46.460540248345069
 30
0.0
  0
VERTEX
  5
4486
  8
241
  6
CONTINUOUS
 10
127.07511855292471
 20
-46.465375431537723
 30
0.0
  0
VERTEX
  5
4487
  8
241
  6
CONTINUOUS
 10
127.37481461396609
 20
-46.450879903615117
 30
0.0
  0
VERTEX
  5
4488
  8
241
  6
CONTINUOUS
 10
127.6714048430732
 20
-46.417173779086852
 30
0.0
  0
VERTEX
  5
4489
  8
241
  6
CONTINUOUS
 10
127.9624316002004
 20
-46.364536357515817
 30
0.0
  0
VERTEX
  5
448A
  8
241
  6
CONTINUOUS
 10
128.2454833459831
 20
-46.293403809154917
 30
0.0
  0
VERTEX
  5
448B
  8
241
  6
CONTINUOUS
 10
128.5182146245123
 20
-46.204365560701937
 30
0.0
  0
VERTEX
  5
448C
  8
241
  6
CONTINUOUS
 10
128.77836549852091
 20
-46.098159411125138
 30
0.0
  0
VERTEX
  5
448D
  8
241
  6
CONTINUOUS
 10
129.02378027593571
 20
-45.975665418028008
 30
0.0
  0
VERTEX
  5
448E
  8
241
  6
CONTINUOUS
 10
129.25242537262099
 20
-45.8378986052154
 30
0.0
  0
VERTEX
  5
448F
  8
241
  6
CONTINUOUS
 10
129.46240616329681
 20
-45.686000551885947
 30
0.0
  0
VERTEX
  5
4490
  8
241
  6
CONTINUOUS
 10
129.6519826810009
 20
-45.521229933147978
 30
0.0
  0
VERTEX
  5
4491
  8
241
  6
CONTINUOUS
 10
129.81958403500289
 20
-45.34495209024066
 30
0.0
  0
VERTEX
  5
4492
  8
241
  6
CONTINUOUS
 10
129.9638214276996
 20
-45.158627716886713
 30
0.0
  0
VERTEX
  5
4493
  8
241
  6
CONTINUOUS
 10
130.08349966262949
 20
-44.963800755524296
 30
0.0
  0
VERTEX
  5
4494
  8
241
  6
CONTINUOUS
 10
130.17762704824719
 20
-44.762085603713317
 30
0.0
  0
VERTEX
  5
4495
  8
241
  6
CONTINUOUS
 10
130.24542361539079
 20
-44.555153736729117
 30
0.0
  0
VERTEX
  5
4496
  8
241
  6
CONTINUOUS
 10
130.28632758035349
 20
-44.344719857192281
 30
0.0
  0
VERTEX
  5
4497
  8
241
  6
CONTINUOUS
 10
130.29999999999939
 20
-44.132527686502002
 30
0.0
  0
SEQEND
  5
4498
  8
241
  6
CONTINUOUS
  0
LINE
  5
4499
  8
240
  6
CONTINUOUS
 10
120.0000000000006
 20
-62.499999999999069
 30
0.0
 11
119.5000000000002
 21
-62.499999999999069
 31
0.0
1001
GRPNAME
1000
PASTMD01
  0
LINE
  5
449A
  8
240
  6
CONTINUOUS
 10
134.0000000000002
 20
-62.5
 30
0.0
 11
120.0000000000004
 21
-62.5
 31
0.0
1001
GRPNAME
1000
PASTMD01
  0
LINE
  5
449B
  8
240
  6
CONTINUOUS
 10
142.49999999999969
 20
-88.999999999999773
 30
0.0
 11
142.99999999999969
 21
-89.499999999999773
 31
0.0
1001
GRPNAME
1000
PASTMD01
  0
LINE
  5
449C
  8
240
  6
CONTINUOUS
 10
142.99999999999969
 20
-89.499999999999773
 30
0.0
 11
142.99999999999969
 21
-109.9999999999997
 31
0.0
1001
GRPNAME
1000
PASTMD01
  0
LINE
  5
449D
  8
240
  6
CONTINUOUS
 10
142.49999999999969
 20
-88.999999999999773
 30
0.0
 11
119.5000000000001
 21
-88.999999999999645
 31
0.0
1001
GRPNAME
1000
PASTMD01
  0
LINE
  5
449E
  8
240
  6
CONTINUOUS
 10
119.5000000000002
 20
-62.499999999999069
 30
0.0
 11
119.5000000000001
 21
-88.999999999999645
 31
0.0
1001
GRPNAME
1000
PASTMD01
  0
LINE
  5
449F
  8
240
  6
CONTINUOUS
 10
142.99999999999969
 20
-130.4999999999996
 30
0.0
 11
142.49999999999969
 21
-130.9999999999996
 31
0.0
1001
GRPNAME
1000
PASTMD01
  0
LINE
  5
44A0
  8
241
 10
135.99999999999969
 20
-130.9999999999996
 30
0.0
 11
135.99999999999969
 21
-88.999999999999773
 31
0.0
1001
GRPNAME
1000
PASTMD01
  0
LINE
  5
44A1
  8
240
  6
CONTINUOUS
 10
142.99999999999969
 20
-130.4999999999996
 30
0.0
 11
142.99999999999969
 21
-109.9999999999997
 31
0.0
1001
GRPNAME
1000
PASTMD01
  0
LINE
  5
44A2
  8
240
  6
CONTINUOUS
 10
64.999999999999716
 20
-43.499999999999183
 30
0.0
 11
65.499999999999702
 21
-43.99999999999919
 31
0.0
1001
GRPNAME
1000
PASTMD07
  0
LINE
  5
44A3
  8
240
  6
CONTINUOUS
 10
71.50000000000118
 20
-43.99999999999919
 30
0.0
 11
65.499999999999702
 21
-43.99999999999919
 31
0.0
1001
GRPNAME
1000
PASTMD07
  0
ARC
  5
44A4
  8
240
  6
CONTINUOUS
 10
71.50000000000118
 20
-44.99999999999919
 30
0.0
 40
1.0
 50
359.99999998713531
 51
89.999999987138551
1001
GRPNAME
1000
PASTMD07
  0
LINE
  5
44A5
  8
240
  6
CONTINUOUS
 10
71.000000000001535
 20
-44.999999999998629
 30
0.0
 11
66.000000000001535
 21
-44.999999999998629
 31
0.0
1001
GRPNAME
1000
PASTMD07
  0
LINE
  5
44A6
  8
241
 10
66.000000000426496
 20
-50.0
 30
0.0
 11
71.000000000001535
 21
-50.0
 31
0.0
1001
GRPNAME
1000
PASTMD07
  0
LINE
  5
44A7
  8
240
  6
CONTINUOUS
 10
72.50000000000118
 20
-49.749999999999432
 30
0.0
 11
73.000000000001194
 21
-50.249999999999432
 31
0.0
1001
GRPNAME
1000
PASTMD07
  0
LINE
  5
44A8
  8
240
  6
CONTINUOUS
 10
72.000000000001336
 20
-50.999999999998849
 30
0.0
 11
71.000000000001535
 21
-49.99999999999919
 31
0.0
1001
GRPNAME
1000
PASTMD07
  0
LINE
  5
44A9
  8
240
  6
CONTINUOUS
 10
73.000000000001194
 20
-50.249999999999432
 30
0.0
 11
74.000000000001194
 21
-50.249999999999432
 31
0.0
1001
GRPNAME
1000
PASTMD07
  0
LINE
  5
44AA
  8
240
  6
CONTINUOUS
 10
72.50000000000118
 20
-49.749999999999432
 30
0.0
 11
72.50000000000118
 21
-44.99999999999919
 31
0.0
1001
GRPNAME
1000
PASTMD07
  0
LINE
  5
44AB
  8
240
  6
CONTINUOUS
 10
71.000000000001535
 20
-44.999999999998629
 30
0.0
 11
71.000000000001535
 21
-49.999999999999432
 31
0.0
1001
GRPNAME
1000
PASTMD07
  0
LINE
  5
44AC
  8
240
  6
CONTINUOUS
 10
66.000000000001535
 20
-44.999999999998629
 30
0.0
 11
66.000000000001535
 21
-50.999999999999083
 31
0.0
1001
GRPNAME
1000
PASTMD07
  0
LINE
  5
44AD
  8
240
  6
CONTINUOUS
 10
72.000000000000398
 20
-61.999999999999432
 30
0.0
 11
74.000000000000625
 21
-61.999999999999432
 31
0.0
1001
GRPNAME
1000
PASTMD01
  0
LINE
  5
44AE
  8
240
  6
CONTINUOUS
 10
72.000000000000398
 20
-79.999999999999318
 30
0.0
 11
74.000000000000625
 21
-79.999999999999318
 31
0.0
1001
GRPNAME
1000
PASTMD01
  0
LINE
  5
44AF
  8
240
  6
CONTINUOUS
 10
72.000000000000398
 20
-71.999999999999417
 30
0.0
 11
74.000000000000625
 21
-71.999999999999417
 31
0.0
1001
GRPNAME
1000
PASTMD01
  0
LINE
  5
44B0
  8
240
 10
64.000000000001108
 20
-44.499999999999197
 30
0.0
 11
64.49999999999973
 21
-44.00000000000054
 31
0.0
1001
GRPNAME
1000
PASTMD07
  0
LINE
  5
44B1
  8
243
  6
HIDDEN2
 10
61.393670461135173
 20
-44.0
 30
0.0
 11
60.000000000000412
 21
-44.0
 31
0.0
1001
GRPNAME
1000
PASTMD01
  0
LINE
  5
44B2
  8
243
  6
HIDDEN2
 10
64.000000000000398
 20
-44.0
 30
0.0
 11
62.854950102237517
 21
-44.0
 31
0.0
1001
GRPNAME
1000
PASTMD01
  0
LINE
  5
44B3
  8
243
  6
HIDDEN2
 10
60.000000000000412
 20
-44.0
 30
0.0
 11
60.000000000000412
 21
-45.600604266487487
 31
0.0
1001
GRPNAME
1000
PASTMD01
  0
LINE
  5
44B4
  8
243
  6
HIDDEN2
 10
61.393670461135287
 20
-43.999999999999758
 30
0.0
 11
60.000000000000519
 21
-43.999999999999758
 31
0.0
1001
GRPNAME
1000
PASTMD07
  0
LINE
  5
44B5
  8
243
  6
HIDDEN2
 10
64.000000000000512
 20
-43.999999999999758
 30
0.0
 11
62.854950102237638
 21
-43.999999999999758
 31
0.0
1001
GRPNAME
1000
PASTMD07
  0
LINE
  5
44B6
  8
243
  6
HIDDEN2
 10
60.000000000000519
 20
-43.999999999999758
 30
0.0
 11
60.000000000000519
 21
-45.60060426648726
 31
0.0
1001
GRPNAME
1000
PASTMD07
  0
LINE
  5
44B7
  8
243
  6
HIDDEN2
 10
61.393670461135287
 20
-43.999999999999758
 30
0.0
 11
60.000000000000519
 21
-43.999999999999758
 31
0.0
1001
GRPNAME
1000
PASTMD07
  0
LINE
  5
44B8
  8
243
  6
HIDDEN2
 10
64.000000000000512
 20
-43.999999999999758
 30
0.0
 11
62.854950102237638
 21
-43.999999999999758
 31
0.0
1001
GRPNAME
1000
PASTMD07
  0
LINE
  5
44B9
  8
243
  6
HIDDEN2
 10
60.000000000000519
 20
-43.999999999999758
 30
0.0
 11
60.000000000000519
 21
-45.60060426648726
 31
0.0
1001
GRPNAME
1000
PASTMD07
  0
LINE
  5
44BA
  8
243
  6
HIDDEN2
 10
60.000000000000519
 20
-43.999999999999758
 30
0.0
 11
60.000000000000519
 21
-45.60060426648726
 31
0.0
1001
GRPNAME
1000
PASTMD07
  0
LINE
  5
44BB
  8
243
  6
HIDDEN2
 10
64.000000000000512
 20
-43.999999999999758
 30
0.0
 11
62.854950102237638
 21
-43.999999999999758
 31
0.0
1001
GRPNAME
1000
PASTMD07
  0
LINE
  5
44BC
  8
243
  6
HIDDEN2
 10
61.393670461135287
 20
-43.999999999999758
 30
0.0
 11
60.000000000000519
 21
-43.999999999999758
 31
0.0
1001
GRPNAME
1000
PASTMD07
  0
LINE
  5
44BD
  8
240
  6
CONTINUOUS
 10
64.000000000000398
 20
-48.499999999999758
 30
0.0
 11
63.500000000000398
 21
-48.99999999999978
 31
0.0
1001
GRPNAME
1000
PASTMD01
  0
LINE
  5
44BE
  8
240
  6
CONTINUOUS
 10
64.000000000000512
 20
-48.499999999999552
 30
0.0
 11
63.500000000000519
 21
-48.999999999999531
 31
0.0
1001
GRPNAME
1000
PASTMD07
  0
LINE
  5
44BF
  8
240
  6
CONTINUOUS
 10
64.00000000000118
 20
-48.499999999999552
 30
0.0
 11
63.500000000001187
 21
-48.999999999999531
 31
0.0
1001
GRPNAME
1000
PASTMD07
  0
LINE
  5
44C0
  8
240
  6
CONTINUOUS
 10
64.00000000000118
 20
-48.499999999999552
 30
0.0
 11
63.500000000001187
 21
-48.999999999999531
 31
0.0
1001
GRPNAME
1000
PASTMD07
  0
LINE
  5
44C1
  8
243
  6
HIDDEN2
 10
60.000000000000412
 20
-47.215643787957319
 30
0.0
 11
60.000000000000412
 21
-48.99999999999978
 31
0.0
1001
GRPNAME
1000
PASTMD01
  0
LINE
  5
44C2
  8
243
  6
HIDDEN2
 10
60.000000000000519
 20
-47.215643787957113
 30
0.0
 11
60.000000000000519
 21
-48.999999999999531
 31
0.0
1001
GRPNAME
1000
PASTMD07
  0
LINE
  5
44C3
  8
243
  6
HIDDEN2
 10
60.000000000000519
 20
-47.215643787957113
 30
0.0
 11
60.000000000000519
 21
-48.999999999999531
 31
0.0
1001
GRPNAME
1000
PASTMD07
  0
LINE
  5
44C4
  8
243
  6
HIDDEN2
 10
60.000000000000519
 20
-47.215643787957113
 30
0.0
 11
60.000000000000519
 21
-48.999999999999531
 31
0.0
1001
GRPNAME
1000
PASTMD07
  0
LINE
  5
44C5
  8
240
  6
CONTINUOUS
 10
63.500000000000398
 20
-48.99999999999978
 30
0.0
 11
48.000000000000519
 21
-48.99999999999978
 31
0.0
1001
GRPNAME
1000
PASTMD01
  0
LINE
  5
44C6
  8
240
  6
CONTINUOUS
 10
63.500000000000519
 20
-48.999999999999531
 30
0.0
 11
48.000000000000611
 21
-48.999999999999531
 31
0.0
1001
GRPNAME
1000
PASTMD07
  0
LINE
  5
44C7
  8
240
  6
CONTINUOUS
 10
58.000000000000412
 20
-61.999999999999432
 30
0.0
 11
64.000000000000398
 21
-61.999999999999432
 31
0.0
1001
GRPNAME
1000
PASTMD01
  0
LINE
  5
44C8
  8
240
  6
CONTINUOUS
 10
58.000000000000412
 20
-71.999999999999417
 30
0.0
 11
64.000000000000398
 21
-71.999999999999417
 31
0.0
1001
GRPNAME
1000
PASTMD01
  0
LINE
  5
44C9
  8
240
  6
CONTINUOUS
 10
58.000000000000412
 20
-61.999999999999432
 30
0.0
 11
58.000000000000412
 21
-71.999999999999417
 31
0.0
1001
GRPNAME
1000
PASTMD01
  0
LINE
  5
44CA
  8
240
  6
CONTINUOUS
 10
64.000000000000512
 20
-52.999999999999083
 30
0.0
 11
66.000000000000512
 21
-50.99999999999919
 31
0.0
1001
GRPNAME
1000
PASTMD07
  0
LINE
  5
44CB
  8
240
  6
CONTINUOUS
 10
64.000000000000512
 20
-52.999999999999083
 30
0.0
 11
66.000000000000512
 21
-50.99999999999919
 31
0.0
1001
GRPNAME
1000
PASTMD07
  0
LINE
  5
44CC
  8
240
  6
CONTINUOUS
 10
64.000000000443919
 20
-52.999999999555712
 30
0.0
 11
66.000000000443919
 21
-50.999999999555939
 31
0.0
1001
GRPNAME
1000
PASTMD07
  0
LINE
  5
44CD
  8
241
  6
CONTINUOUS
 10
64.999999999999716
 20
-42.499999999999112
 30
0.0
 11
64.49999999999973
 21
-42.499999999999112
 31
0.0
1001
GRPNAME
1000
PASTMD07
  0
LINE
  5
44CE
  8
240
  6
CONTINUOUS
 10
72.000000000000398
 20
-89.999999999999432
 30
0.0
 11
74.000000000000625
 21
-89.999999999999432
 31
0.0
1001
GRPNAME
1000
PASTMD01
  0
LINE
  5
44CF
  8
240
  6
CONTINUOUS
 10
74.000000000000625
 20
-97.499999999999545
 30
0.0
 11
72.000000000000398
 21
-97.499999999999545
 31
0.0
1001
GRPNAME
1000
PASTMD01
  0
LINE
  5
44D0
  8
240
  6
CONTINUOUS
 10
71.500000000000398
 20
-129.99999999999949
 30
0.0
 11
72.000000000000398
 21
-129.49999999999949
 31
0.0
1001
GRPNAME
1000
PASTMD01
  0
LINE
  5
44D1
  8
240
  6
CONTINUOUS
 10
74.000000000000625
 20
-122.4999999999995
 30
0.0
 11
72.000000000000398
 21
-122.4999999999995
 31
0.0
1001
GRPNAME
1000
PASTMD01
  0
LINE
  5
44D2
  8
240
  6
CONTINUOUS
 10
31.000000000000519
 20
-90.999999999999545
 30
0.0
 11
64.000000000000398
 21
-90.999999999999545
 31
0.0
1001
GRPNAME
1000
PASTMD01
  0
LINE
  5
44D3
  8
240
  6
CONTINUOUS
 10
64.000000000000398
 20
-129.49999999999949
 30
0.0
 11
64.500000000000398
 21
-129.99999999999949
 31
0.0
1001
GRPNAME
1000
PASTMD01
  0
LINE
  5
44D4
  8
240
  6
CONTINUOUS
 10
31.000000000000519
 20
-128.99999999999949
 30
0.0
 11
64.000000000000398
 21
-128.99999999999949
 31
0.0
1001
GRPNAME
1000
PASTMD01
  0
LINE
  5
44D5
  8
240
  6
CONTINUOUS
 10
64.500000000000398
 20
-129.99999999999949
 30
0.0
 11
71.500000000000398
 21
-129.99999999999949
 31
0.0
1001
GRPNAME
1000
PASTMD01
  0
LINE
  5
44D6
  8
240
  6
CONTINUOUS
 10
64.000000000000512
 20
-129.49999999999929
 30
0.0
 11
64.000000000000512
 21
-128.99999999999949
 31
0.0
1001
GRPNAME
1000
PASTMD07
  0
LINE
  5
44D7
  8
240
  6
CONTINUOUS
 10
64.000000000443919
 20
-52.999999999555712
 30
0.0
 11
64.000000000443919
 21
-61.999999999999432
 31
0.0
1001
GRPNAME
1000
PASTMD07
  0
LINE
  5
44D8
  8
240
  6
CONTINUOUS
 10
72.000000000001336
 20
-50.999999999998849
 30
0.0
 11
72.000000000001336
 21
-61.999999999999439
 31
0.0
1001
GRPNAME
1000
PASTMD07
  0
LINE
  5
44D9
  8
240
  6
CONTINUOUS
 10
74.000000000000625
 20
-129.99999999999949
 30
0.0
 11
75.000000000000625
 21
-130.99999999999949
 31
0.0
1001
GRPNAME
1000
PASTMD01
  0
CIRCLE
  5
44DA
  8
241
 10
97.000000000001521
 20
-53.749999999999531
 30
0.0
 40
5.0
1001
GRPNAME
1000
PASTMD01
  0
LINE
  5
44DB
  8
240
  6
CONTINUOUS
 10
75.000000000000625
 20
-130.99999999999949
 30
0.0
 11
142.49999999999969
 21
-130.9999999999996
 31
0.0
1001
GRPNAME
1000
PASTMD01
  0
LINE
  5
44DC
  8
245
 10
1.0512487026672439
 20
-109.9999999999995
 30
0.0
 11
148.00913724173759
 21
-109.9999999999997
 31
0.0
1001
GRPNAME
1000
PASTMD01
  0
LINE
  5
44DD
  8
240
  6
CONTINUOUS
 10
74.000000000000625
 20
-129.99999999999949
 30
0.0
 11
74.000000000000625
 21
-122.4999999999995
 31
0.0
1001
GRPNAME
1000
PASTMD01
  0
LINE
  5
44DE
  8
240
  6
CONTINUOUS
 10
64.000000000000512
 20
-48.499999999999552
 30
0.0
 11
64.00000000000054
 21
-44.499999999999773
 31
0.0
1001
GRPNAME
1000
PASTMD07
  0
LINE
  5
44DF
  8
240
 10
64.49999999999973
 20
-44.00000000000054
 30
0.0
 11
64.49999999999973
 21
-42.499999999999112
 31
0.0
1001
GRPNAME
1000
PASTMD07
  0
LINE
  5
44E0
  8
240
 10
64.999999999999716
 20
-43.499999999999183
 30
0.0
 11
64.99999999999973
 21
-42.499999999999112
 31
0.0
1001
GRPNAME
1000
PASTMD07
  0
LINE
  5
44E1
  8
241
 10
64.000000000443919
 20
-61.999999999999432
 30
0.0
 11
64.000000000443919
 21
-71.999999999999417
 31
0.0
1001
GRPNAME
1000
PASTMD07
  0
LINE
  5
44E2
  8
240
  6
CONTINUOUS
 10
64.000000000443919
 20
-71.999999999999417
 30
0.0
 11
64.000000000443919
 21
-90.999999999999545
 31
0.0
1001
GRPNAME
1000
PASTMD07
  0
LINE
  5
44E3
  8
241
 10
64.000000000443919
 20
-90.999999999999545
 30
0.0
 11
64.000000000000512
 21
-128.99999999999949
 31
0.0
1001
GRPNAME
1000
PASTMD07
  0
LINE
  5
44E4
  8
240
  6
CONTINUOUS
 10
72.000000000001336
 20
-122.4999999999995
 30
0.0
 11
72.000000000001336
 21
-129.49999999999861
 31
0.0
1001
GRPNAME
1000
PASTMD07
  0
LINE
  5
44E5
  8
241
 10
72.000000000001336
 20
-97.499999999999545
 30
0.0
 11
72.000000000001336
 21
-122.4999999999995
 31
0.0
1001
GRPNAME
1000
PASTMD07
  0
LINE
  5
44E6
  8
240
 10
72.000000000001336
 20
-89.999999999999432
 30
0.0
 11
72.000000000001336
 21
-97.499999999999545
 31
0.0
1001
GRPNAME
1000
PASTMD07
  0
LINE
  5
44E7
  8
241
 10
72.000000000001336
 20
-79.999999999999318
 30
0.0
 11
72.000000000001336
 21
-89.999999999999432
 31
0.0
1001
GRPNAME
1000
PASTMD07
  0
LINE
  5
44E8
  8
240
 10
72.000000000001336
 20
-71.999999999999417
 30
0.0
 11
72.000000000001336
 21
-79.999999999999318
 31
0.0
1001
GRPNAME
1000
PASTMD07
  0
LINE
  5
44E9
  8
241
 10
72.000000000001336
 20
-61.999999999999439
 30
0.0
 11
72.000000000001336
 21
-71.999999999999417
 31
0.0
1001
GRPNAME
1000
PASTMD07
  0
LINE
  5
44EA
  8
240
  6
CONTINUOUS
 10
74.000000000000625
 20
-61.999999999999432
 30
0.0
 11
74.000000000000625
 21
-50.249999999999439
 31
0.0
1001
GRPNAME
1000
PASTMD01
  0
LINE
  5
44EB
  8
241
 10
74.000000000000625
 20
-71.999999999999417
 30
0.0
 11
74.000000000000625
 21
-61.999999999999432
 31
0.0
1001
GRPNAME
1000
PASTMD01
  0
LINE
  5
44EC
  8
240
 10
74.000000000000625
 20
-79.999999999999332
 30
0.0
 11
74.000000000000625
 21
-71.999999999999417
 31
0.0
1001
GRPNAME
1000
PASTMD01
  0
LINE
  5
44ED
  8
241
 10
74.000000000000625
 20
-89.999999999999432
 30
0.0
 11
74.000000000000625
 21
-79.999999999999332
 31
0.0
1001
GRPNAME
1000
PASTMD01
  0
LINE
  5
44EE
  8
240
 10
74.000000000000625
 20
-97.499999999999545
 30
0.0
 11
74.000000000000625
 21
-89.999999999999432
 31
0.0
1001
GRPNAME
1000
PASTMD01
  0
LINE
  5
44EF
  8
241
 10
74.000000000000625
 20
-122.4999999999995
 30
0.0
 11
74.000000000000625
 21
-97.499999999999545
 31
0.0
1001
GRPNAME
1000
PASTMD01
  0
LINE
  5
44F0
  8
241
 10
64.499999999999829
 20
42.500000000000547
 30
0.0
 11
64.499999999999829
 21
-42.499999999999112
 31
0.0
1001
GRPNAME
1000
PASTMD07
  0
LINE
  5
44F1
  8
241
 10
64.00000000000054
 20
-44.499999999999773
 30
0.0
 11
64.000000000000739
 21
44.000000000000341
 31
0.0
1001
GRPNAME
1000
PASTMD07
  0
LINE
  5
44F2
  8
241
  6
CONTINUOUS
 10
64.99999999999973
 20
-42.499999999999112
 30
0.0
 11
64.999999999999716
 21
42.500000000000547
 31
0.0
1001
GRPNAME
1000
PASTMD07
  0
LINE
  5
44F3
  8
240
 10
106.20000000000159
 20
50.249999999999659
 30
0.0
 11
106.20000000000159
 21
62.499999999999872
 31
0.0
1001
GRPNAME
1000
PASTMD01
  0
LINE
  5
44F4
  8
240
 10
108.00000000000161
 20
50.249999999999631
 30
0.0
 11
108.00000000000151
 21
62.499999999999872
 31
0.0
1001
GRPNAME
1000
PASTMD01
  0
LINE
  5
44F5
  8
241
 10
74.000000000000298
 20
50.250000000000909
 30
0.0
 11
74.000000000000284
 21
-50.249999999999432
 31
0.0
1001
GRPNAME
1000
PASTMD01
  0
LINE
  5
44F6
  8
241
 10
204.00000000000489
 20
14.99999998116243
 30
0.0
 11
204.00000000000489
 21
-0.0000000006824621
 31
0.0
  0
LINE
  5
44F7
  8
241
 10
204.00000000000509
 20
-15.00000001883598
 30
0.0
 11
204.00000000000489
 21
-0.0000000006824621
 31
0.0
  0
LINE
  5
44F8
  8
241
 10
196.00000000000219
 20
27.500000000094019
 30
0.0
 11
196.00000000000159
 21
-27.500000000093792
 31
0.0
  0
LINE
  5
44F9
  8
240
 10
196.00000000000159
 20
-27.500000000093792
 30
0.0
 11
196.00000000000139
 21
-33.499999999891891
 31
0.0
  0
LINE
  5
44FA
  8
241
 10
155.0000000000008
 20
-33.999999999892111
 30
0.0
 11
155.00000000000199
 21
33.999999962250158
 31
0.0
  0
LINE
  5
44FB
  8
241
 10
155.49999999999861
 20
33.9999999622502
 30
0.0
 11
194.4999999999979
 21
33.999999962250421
 31
0.0
  0
LINE
  5
44FC
  8
240
 10
194.4999999999979
 20
33.999999962250421
 30
0.0
 11
195.50000000000219
 21
33.999999962250421
 31
0.0
  0
LINE
  5
44FD
  8
244
  6
HIDDEN2
 10
-29.99999999999962
 20
-54.999999999999758
 30
0.0
 11
-29.99999999999962
 21
-140.5649281289098
 31
0.0
1001
GRPNAME
1000
PASTMD01
  0
LINE
  5
44FE
  8
244
  6
HIDDEN2
 10
30.000000000000401
 20
-88.999999999999545
 30
0.0
 11
-29.99999999999962
 21
-88.999999999999446
 31
0.0
1001
GRPNAME
1000
PASTMD01
  0
LINE
  5
44FF
  8
244
  6
HIDDEN2
 10
30.000000000000401
 20
-130.99999999999929
 30
0.0
 11
-29.99999999999962
 21
-130.99999999999929
 31
0.0
1001
GRPNAME
1000
PASTMD01
  0
LINE
  5
4500
  8
244
  6
HIDDEN2
 10
3.000000000000405
 20
-121.3550952893724
 30
0.0
 11
3.000000000000405
 21
-98.644904710626577
 31
0.0
1001
GRPNAME
1000
PASTMD01
  0
LINE
  5
4501
  8
244
  6
HIDDEN2
 10
25.000000000000401
 20
-90.999999999999545
 30
0.0
 11
25.000000000000352
 21
-128.99999999999929
 31
0.0
1001
GRPNAME
1000
PASTMD01
  0
LINE
  5
4502
  8
244
  6
HIDDEN2
 10
18.000000000000181
 20
-95.99999999999946
 30
0.0
 11
18.000000000000181
 21
-123.9999999999994
 31
0.0
1001
GRPNAME
1000
PASTMD01
  0
LINE
  5
4503
  8
244
  6
HIDDEN2
 10
3.000000000000405
 20
-121.3550952893724
 30
0.0
 11
18.000000000000181
 21
-123.9999999999994
 31
0.0
1001
GRPNAME
1000
PASTMD01
  0
LINE
  5
4504
  8
244
  6
HIDDEN2
 10
18.000000000000181
 20
-123.9999999999994
 30
0.0
 11
21.000000000000181
 21
-123.9999999999994
 31
0.0
1001
GRPNAME
1000
PASTMD01
  0
LINE
  5
4505
  8
244
  6
HIDDEN2
 10
31.000000000000391
 20
-128.99999999999929
 30
0.0
 11
31.000000000000391
 21
-129.99999999999929
 31
0.0
1001
GRPNAME
1000
PASTMD01
  0
LINE
  5
4506
  8
244
  6
HIDDEN2
 10
31.000000000000391
 20
-129.99999999999929
 30
0.0
 11
30.000000000000401
 21
-130.99999999999929
 31
0.0
1001
GRPNAME
1000
PASTMD01
  0
LINE
  5
4507
  8
244
  6
HIDDEN2
 10
25.000000000000352
 20
-128.99999999999929
 30
0.0
 11
31.000000000000391
 21
-128.99999999999929
 31
0.0
1001
GRPNAME
1000
PASTMD01
  0
LINE
  5
4508
  8
244
  6
HIDDEN2
 10
3.000000000000405
 20
-98.644904710626577
 30
0.0
 11
18.000000000000181
 21
-95.99999999999946
 31
0.0
1001
GRPNAME
1000
PASTMD01
  0
LINE
  5
4509
  8
244
  6
HIDDEN2
 10
31.000000000000391
 20
-89.999999999999531
 30
0.0
 11
30.000000000000401
 21
-88.999999999999545
 31
0.0
1001
GRPNAME
1000
PASTMD01
  0
LINE
  5
450A
  8
244
  6
HIDDEN2
 10
18.000000000000181
 20
-95.99999999999946
 30
0.0
 11
21.000000000000181
 21
-95.99999999999946
 31
0.0
1001
GRPNAME
1000
PASTMD01
  0
LINE
  5
450B
  8
244
  6
HIDDEN2
 10
25.000000000000401
 20
-90.999999999999545
 30
0.0
 11
31.000000000000391
 21
-90.999999999999545
 31
0.0
1001
GRPNAME
1000
PASTMD01
  0
LINE
  5
450C
  8
240
  6
CONTINUOUS
 10
48.000000000000611
 20
48.500000000000618
 30
0.0
 11
48.000000000000611
 21
44.00000000000027
 31
0.0
1001
GRPNAME
1000
PASTMD01
  0
LINE
  5
450D
  8
240
  6
CONTINUOUS
 10
31.000000000000519
 20
-95.99999999999946
 30
0.0
 11
31.000000000000519
 21
-90.999999999999545
 31
0.0
1001
GRPNAME
1000
PASTMD01
  0
LINE
  5
450E
  8
240
  6
CONTINUOUS
 10
21.000000000000291
 20
-95.99999999999946
 30
0.0
 11
31.000000000000519
 21
-95.99999999999946
 31
0.0
1001
GRPNAME
1000
PASTMD01
  0
LINE
  5
450F
  8
240
  6
CONTINUOUS
 10
6.0000000000005178
 20
-121.3550952893724
 30
0.0
 11
6.0000000000005178
 21
-98.644904710626619
 31
0.0
1001
GRPNAME
1000
PASTMD01
  0
LINE
  5
4510
  8
240
  6
CONTINUOUS
 10
6.0000000000005178
 20
-98.644904710626619
 30
0.0
 11
21.000000000000291
 21
-95.99999999999946
 31
0.0
1001
GRPNAME
1000
PASTMD01
  0
LINE
  5
4511
  8
240
  6
CONTINUOUS
 10
31.000000000000519
 20
-128.99999999999929
 30
0.0
 11
31.000000000000519
 21
-123.9999999999994
 31
0.0
1001
GRPNAME
1000
PASTMD01
  0
LINE
  5
4512
  8
240
  6
CONTINUOUS
 10
21.000000000000291
 20
-123.9999999999994
 30
0.0
 11
31.000000000000519
 21
-123.9999999999994
 31
0.0
1001
GRPNAME
1000
PASTMD01
  0
LINE
  5
4513
  8
240
  6
CONTINUOUS
 10
6.0000000000005178
 20
-121.3550952893724
 30
0.0
 11
21.000000000000291
 21
-123.9999999999994
 31
0.0
1001
GRPNAME
1000
PASTMD01
  0
LINE
  5
4514
  8
241
  6
CONTINUOUS
 10
21.000000000000291
 20
-95.99999999999946
 30
0.0
 11
21.000000000000291
 21
-123.9999999999994
 31
0.0
1001
GRPNAME
1000
PASTMD01
  0
LINE
  5
4515
  8
241
  6
CONTINUOUS
 10
31.000000000000519
 20
-95.99999999999946
 30
0.0
 11
31.000000000000519
 21
-123.9999999999994
 31
0.0
1001
GRPNAME
1000
PASTMD01
  0
LINE
  5
4516
  8
241
  6
CONTINUOUS
 10
48.000000000000611
 20
44.00000000000027
 30
0.0
 11
47.999999999999893
 21
-48.499999999999368
 31
0.0
1001
GRPNAME
1000
PASTMD01
  0
LINE
  5
4517
  8
247
 10
6.6180491050615942
 20
-35.904822089183092
 30
0.0
 11
6.6180491050615942
 21
-29.341064764964361
 31
0.0
  0
LINE
  5
4518
  8
247
 10
6.9413889404900937
 20
-35.904822089183092
 30
0.0
 11
6.9413889404900937
 21
-29.341064764964361
 31
0.0
  0
LINE
  5
4519
  8
247
 10
6.4563791831866197
 20
-35.224503598190601
 30
0.0
 11
6.0404920830568551
 21
-34.808616498060921
 31
0.0
  0
LINE
  5
451A
  8
247
 10
6.4563791831866197
 20
-35.73515656183929
 30
0.0
 11
6.4563791831866197
 21
-34.39335968683929
 31
0.0
  0
LINE
  5
451B
  8
247
 10
6.2667185386553328
 20
-30.408398749339309
 30
0.0
 11
6.4563791831866197
 21
-30.218725897776721
 31
0.0
  0
LINE
  5
451C
  8
247
 10
6.4563791831866197
 20
-33.414221503245599
 30
0.0
 11
6.4563791831866197
 21
-32.69102814387054
 31
0.0
  0
LINE
  5
451D
  8
247
 10
6.3957737885069372
 20
-34.086267468982669
 30
0.0
 11
5.9551336172297686
 21
-33.645627297705573
 31
0.0
  0
ARC
  5
451E
  8
247
 10
4.3223578056231204
 20
-34.38322785090179
 30
0.0
 40
0.4849962234497072
 50
351.6626016879294
 51
156.33815509518979
  0
LINE
  5
451F
  8
247
 10
3.5463446220293871
 20
-35.068909003245381
 30
0.0
 11
3.5463446220295021
 21
-34.025829667581782
 31
0.0
  0
LINE
  5
4520
  8
247
 10
3.8781357518150581
 20
-34.188579183629138
 30
0.0
 11
4.802228385442171
 21
-34.453552550578479
 31
0.0
  0
LINE
  5
4521
  8
247
 10
4.6542192912885492
 20
-35.218394930506413
 30
0.0
 11
3.5463446220295021
 21
-34.110520261247309
 31
0.0
  0
LINE
  5
4522
  8
247
 10
5.5121411057927006
 20
-34.280265520796767
 30
0.0
 11
4.4518961181325167
 21
-33.220020533136562
 31
0.0
  0
LINE
  5
4523
  8
247
 10
5.2783205674230453
 20
-34.40565522726979
 30
0.0
 11
4.1212558126499976
 21
-33.248590472496858
 31
0.0
  0
LINE
  5
4524
  8
247
 10
5.1578408659201012
 20
-35.362806260295187
 30
0.0
 11
4.0260171479971874
 21
-34.230982542372203
 31
0.0
  0
LINE
  5
4525
  8
247
 10
3.5463446220293871
 20
-35.237085272776767
 30
0.0
 11
3.8696844657793941
 21
-35.329797675120517
 31
0.0
  0
LINE
  5
4526
  8
247
 10
3.5463446220293871
 20
-35.068909003245381
 30
0.0
 11
3.8696844657793941
 21
-35.161621405589599
 31
0.0
  0
LINE
  5
4527
  8
247
 10
3.8696844657794212
 20
-35.152280594682907
 30
0.0
 11
3.5463446220294159
 21
-34.82894075093283
 31
0.0
  0
LINE
  5
4528
  8
247
 10
4.1505977166569972
 20
-35.073983600717611
 30
0.0
 11
3.5463446220294732
 21
-34.469730506090059
 31
0.0
  0
LINE
  5
4529
  8
247
 10
3.5463446220293871
 20
-35.904822089183092
 30
0.0
 11
3.5463446220293871
 21
-35.237085272776767
 31
0.0
  0
LINE
  5
452A
  8
247
 10
3.8696844657793941
 20
-35.904822089183092
 30
0.0
 11
3.8696844657793941
 21
-35.329797675120517
 31
0.0
  0
LINE
  5
452B
  8
247
 10
3.8696844657793941
 20
-35.161621405589599
 30
0.0
 11
3.8696844657803311
 21
-34.993432929027222
 31
0.0
  0
ARC
  5
452C
  8
247
 10
4.354682024373127
 20
-34.022497870433092
 30
0.0
 40
0.8083442687988282
 50
17.669577547397999
 51
180.2361598426682
  0
LINE
  5
452D
  8
247
 10
3.9150195094160058
 20
-34.119984903791078
 30
0.0
 11
3.5815501978060591
 21
-33.786515592181097
 31
0.0
  0
LINE
  5
452E
  8
247
 10
3.90200868452937
 20
-32.799499823557987
 30
0.0
 11
3.5463446220293871
 21
-32.697510077464258
 31
0.0
  0
ARC
  5
452F
  8
247
 10
4.5971869071856366
 20
-30.778808905589251
 30
0.0
 40
1.050843811035155
 50
143.44401219705341
 51
254.00018438768541
  0
LINE
  5
4530
  8
247
 10
3.5463446220293871
 20
-32.697510077464258
 30
0.0
 11
3.5463446220293871
 21
-31.85659210871427
 31
0.0
  0
LINE
  5
4531
  8
247
 10
3.9112372001543809
 20
-29.67647736262052
 30
0.0
 11
3.6024359306231371
 21
-29.77385285090179
 31
0.0
  0
LINE
  5
4532
  8
247
 10
3.9598578056231371
 20
-29.830664374339339
 30
0.0
 11
3.6510565360918941
 21
-29.928039862620501
 31
0.0
  0
POLYLINE
  5
4533
  8
247
 66
     1
 10
0.0
 20
0.0
 30
0.0
 70
     1
  0
VERTEX
  5
4534
  8
247
 10
3.9112372001543809
 20
-29.67647736262052
 30
0.0
  0
VERTEX
  5
4535
  8
247
 10
3.6024359306231371
 20
-29.77385285090179
 30
0.0
  0
VERTEX
  5
4536
  8
247
 10
3.6024359306231371
 20
-29.77385285090179
 30
0.0
  0
VERTEX
  5
4537
  8
247
 10
3.9112372001543809
 20
-29.67647736262052
 30
0.0
  0
SEQEND
  5
4538
  8
247
  0
POLYLINE
  5
4539
  8
247
 66
     1
 10
0.0
 20
0.0
 30
0.0
 70
     1
1001
HATCH_DISTANCE
1040
1.0
1001
HATCH_DISPLAY
1070
     0
1001
HATCH_TYPE
1070
     7
  0
VERTEX
  5
453A
  8
247
 10
3.9112372001543809
 20
-29.67647736262052
 30
0.0
  0
VERTEX
  5
453B
  8
247
 10
3.6024359306231371
 20
-29.77385285090179
 30
0.0
  0
VERTEX
  5
453C
  8
247
 10
3.6024359306231371
 20
-29.77385285090179
 30
0.0
  0
VERTEX
  5
453D
  8
247
 10
3.9112372001543809
 20
-29.67647736262052
 30
0.0
  0
SEQEND
  5
453E
  8
247
  0
POLYLINE
  5
453F
  8
247
 66
     1
 10
0.0
 20
0.0
 30
0.0
 70
     1
  0
VERTEX
  5
4540
  8
247
 10
3.9112372001543809
 20
-29.67647736262052
 30
0.0
  0
VERTEX
  5
4541
  8
247
 10
3.6024359306231371
 20
-29.77385285090179
 30
0.0
  0
VERTEX
  5
4542
  8
247
 10
3.6024359306231371
 20
-29.77385285090179
 30
0.0
  0
VERTEX
  5
4543
  8
247
 10
3.9112372001543809
 20
-29.67647736262052
 30
0.0
  0
SEQEND
  5
4544
  8
247
  0
POLYLINE
  5
4545
  8
247
 66
     1
 10
0.0
 20
0.0
 30
0.0
 70
     1
1001
HATCH_DISTANCE
1040
1.0
1001
HATCH_DISPLAY
1070
     0
1001
HATCH_TYPE
1070
     7
  0
VERTEX
  5
4546
  8
247
 10
3.9112372001543809
 20
-29.67647736262052
 30
0.0
  0
VERTEX
  5
4547
  8
247
 10
3.6024359306231371
 20
-29.77385285090179
 30
0.0
  0
VERTEX
  5
4548
  8
247
 10
3.6024359306231371
 20
-29.77385285090179
 30
0.0
  0
VERTEX
  5
4549
  8
247
 10
3.9112372001543809
 20
-29.67647736262052
 30
0.0
  0
SEQEND
  5
454A
  8
247
  0
ARC
  5
454B
  8
247
 10
5.2438665946856213
 20
-29.341064764964361
 30
0.0
 40
1.697522735595703
 50
200.22964506331999
 51
208.57168892371681
  0
ARC
  5
454C
  8
247
 10
5.2438665946856213
 20
-29.341064764964361
 30
0.0
 40
1.3741859436035151
 50
200.87218340207721
 51
222.54194893738349
  0
LINE
  5
454D
  8
247
 10
4.1042742490339572
 20
-33.950029398566251
 30
0.0
 11
3.70109335992138
 21
-33.54684850945376
 31
0.0
  0
LINE
  5
454E
  8
247
 10
4.4220415061694851
 20
-33.908586410859023
 30
0.0
 11
3.8809634927657499
 21
-33.367508397455367
 31
0.0
  0
LINE
  5
454F
  8
247
 10
3.90200868452937
 20
-32.799499823557987
 30
0.0
 11
3.90200868452937
 21
-32.681763007151858
 31
0.0
  0
LINE
  5
4550
  8
247
 10
5.1306952079668866
 20
-30.78042023371427
 30
0.0
 11
4.8073553642168809
 21
-30.68770783137052
 31
0.0
  0
ARC
  5
4551
  8
247
 10
5.4607855399981204
 20
-29.29250519465177
 30
0.0
 40
2.749951171874998
 50
245.20517736984161
 51
262.79482596205048
  0
LINE
  5
4552
  8
247
 10
5.1306952079668866
 20
-30.78042023371427
 30
0.0
 11
5.1306952079668866
 21
-30.511328436839339
 31
0.0
  0
LINE
  5
4553
  8
247
 10
4.8073553642168809
 20
-30.68770783137052
 30
0.0
 11
4.8073553642168809
 21
-29.74587433527677
 31
0.0
  0
ARC
  5
4554
  8
247
 10
4.2415228446856119
 20
-30.60954621027679
 30
0.0
 40
0.3395066738128662
 50
91.710121382064258
 51
253.99839835444789
  0
LINE
  5
4555
  8
247
 10
6.4563791831866482
 20
-34.506083108505081
 30
0.0
 11
5.5422685513370098
 21
-33.591972476655549
 31
0.0
  0
LINE
  5
4556
  8
247
 10
6.4563791831866197
 20
-34.865293353347973
 30
0.0
 11
5.2699717806717166
 21
-33.678885950832978
 31
0.0
  0
ARC
  5
4557
  8
247
 10
5.6480413993731204
 20
-34.39335968683929
 30
0.0
 40
0.80833740234375
 50
0.0
 51
130.3298406541671
  0
ARC
  5
4558
  8
247
 10
5.6157049735918818
 20
-34.754089667308001
 30
0.0
 40
0.485010099411011
 50
351.6628542111489
 51
156.33819215911001
  0
ARC
  5
4559
  8
247
 10
5.2438665946856213
 20
-35.904822089183092
 30
0.0
 40
1.374182128906249
 50
180.0
 51
0.0
  0
LINE
  5
455A
  8
247
 10
6.4563791831866197
 20
-35.583713843033479
 30
0.0
 11
5.5368779493907221
 21
-34.664212609237438
 31
0.0
  0
LINE
  5
455B
  8
247
 10
6.4563791831866197
 20
-35.73515656183929
 30
0.0
 11
3.8696844657803311
 21
-34.993432929027222
 31
0.0
  0
LINE
  5
455C
  8
247
 10
5.1714694611668568
 20
-34.559437140915293
 30
0.0
 11
6.095589504304634
 21
-34.824414867011342
 31
0.0
  0
LINE
  5
455D
  8
247
 10
6.16508401518319
 20
-35.651628919872792
 30
0.0
 11
4.7969992456658943
 21
-34.283544150355397
 31
0.0
  0
LINE
  5
455E
  8
247
 10
5.6614624405516532
 20
-35.507217590083997
 30
0.0
 11
4.5296339560078209
 21
-34.375389105540201
 31
0.0
  0
INSERT
  5
455F
  8
247
  6
CONTINUOUS
  2
*X7
 10
-1.7817853912836921
 20
-8.6418381412346417
 30
0.0
1001
ACAD
1000
HATCH
1002
{
1070
    19
1000
ANSI31
1040
0.08
1040
1.570796326794893
1002
}
  0
INSERT
  5
4560
  8
247
  6
CONTINUOUS
  2
*X8
 10
-1.7817853912836921
 20
-8.6418381412346417
 30
0.0
1001
ACAD
1000
HATCH
1002
{
1070
    19
1000
ANSI31
1040
0.08
1040
1.570796326794893
1002
}
  0
POLYLINE
  5
4561
  8
247
 66
     1
 10
0.0
 20
0.0
 30
0.0
 70
     1
  0
VERTEX
  5
4562
  8
247
 10
3.5463446220293871
 20
-32.697510077464258
 30
0.0
  0
VERTEX
  5
4563
  8
247
 10
3.90200868452937
 20
-32.799499823557987
 30
0.0
  0
VERTEX
  5
4564
  8
247
 10
3.90200868452937
 20
-32.681763007151858
 30
0.0
  0
VERTEX
  5
4565
  8
247
 10
6.4563791831866197
 20
-33.414221503245599
 30
0.0
  0
VERTEX
  5
4566
  8
247
 10
6.4563791831866197
 20
-32.69102814387054
 30
0.0
  0
VERTEX
  5
4567
  8
247
 10
3.5463446220293871
 20
-31.85659210871427
 30
0.0
  0
SEQEND
  5
4568
  8
247
  0
POLYLINE
  5
4569
  8
247
 66
     1
 10
0.0
 20
0.0
 30
0.0
 70
     1
1001
HATCH_DISTANCE
1040
1.0
1001
HATCH_DISPLAY
1070
     0
1001
HATCH_TYPE
1070
     7
  0
VERTEX
  5
456A
  8
247
 10
3.5463446220293871
 20
-32.697510077464258
 30
0.0
  0
VERTEX
  5
456B
  8
247
 10
3.90200868452937
 20
-32.799499823557987
 30
0.0
  0
VERTEX
  5
456C
  8
247
 10
3.90200868452937
 20
-32.681763007151858
 30
0.0
  0
VERTEX
  5
456D
  8
247
 10
6.4563791831866197
 20
-33.414221503245599
 30
0.0
  0
VERTEX
  5
456E
  8
247
 10
6.4563791831866197
 20
-32.69102814387054
 30
0.0
  0
VERTEX
  5
456F
  8
247
 10
3.5463446220293871
 20
-31.85659210871427
 30
0.0
  0
SEQEND
  5
4570
  8
247
  0
LINE
  5
4571
  8
247
 10
6.4563791831866197
 20
-32.69102814387054
 30
0.0
 11
3.5463446220293871
 21
-31.85659210871427
 31
0.0
  0
ARC
  5
4572
  8
247
 10
5.2438665946856213
 20
-29.341064764964361
 30
0.0
 40
1.69752197265625
 50
0.0
 51
194.7707939660942
  0
LINE
  5
4573
  8
247
 10
6.4563791831866197
 20
-30.218725897776721
 30
0.0
 11
4.8073553642168809
 21
-29.74587433527677
 31
0.0
  0
LINE
  5
4574
  8
247
 10
6.4563791831866197
 20
-33.414221503245599
 30
0.0
 11
3.90200868452937
 21
-32.681763007151858
 31
0.0
  0
ARC
  5
4575
  8
247
 10
5.7612005790606213
 20
-31.04531281183927
 30
0.0
 40
0.3395064353942871
 50
254.00027305718521
 51
74.000273057185225
  0
LINE
  5
4576
  8
247
 10
5.6676214774981366
 20
-31.37166779230802
 30
0.0
 11
4.1479315360918809
 21
-30.93590119074554
 31
0.0
  0
ARC
  5
4577
  8
247
 10
5.2438665946856213
 20
-29.341064764964361
 30
0.0
 40
1.374182128906249
 50
0.0
 51
194.1274364964118
  0
ARC
  5
4578
  8
247
 10
5.4055365165606366
 20
-31.010596014964339
 30
0.0
 40
1.0508544921875
 50
253.99975070172849
 51
34.963873291630833
  0
LINE
  5
4579
  8
247
 10
5.8547796806231318
 20
-30.71895783137052
 30
0.0
 11
5.1306952079668866
 21
-30.511328436839339
 31
0.0
  0
INSERT
  5
457A
  8
247
  6
CONTINUOUS
  2
*X9
 10
-1.7817853912836921
 20
-8.6418381412346417
 30
0.0
1001
ACAD
1000
HATCH
1002
{
1070
    19
1000
ANSI31
1040
0.08
1040
1.570796326794893
1002
}
  0
ARC
  5
457B
  8
247
 10
5.2438665946856213
 20
-35.904822089183092
 30
0.0
 40
1.69752197265625
 50
180.0
 51
0.0
  0
TEXT
  5
457C
  8
247
 10
6.5318044328566387
 20
-26.98055804997307
 30
0.0
 40
2.399999999999999
  1
HSK-A100-AG90-CA6SGM-329
 50
90.0
  7
YOKO
 11
6.5318044328566387
 21
-26.98055804997307
 31
0.0
 73
     1
  0
LINE
  5
457D
  8
241
 10
28.999999999999861
 20
-42.699999999999577
 30
0.0
 11
28.999999999999861
 21
0.000000000000341
 31
0.0
1001
GRPNAME
1000
PASTMD2V
  0
LINE
  5
457E
  8
241
 10
23.247595264191521
 20
-49.999999999999659
 30
0.0
 11
23.247595264191521
 21
31.500000000000458
 31
0.0
1001
GRPNAME
1000
PASTMD19
  0
LINE
  5
457F
  8
240
 10
-50.000000000000007
 20
-33.597501560549517
 30
0.0
 11
-50.000000000000007
 21
0.000000000000341
 31
0.0
1001
GRPNAME
1000
PASTMD19
  0
LINE
  5
4580
  8
241
 10
16.75240473580833
 20
-49.999999999999659
 30
0.0
 11
16.75240473580833
 21
31.500000000000458
 31
0.0
1001
GRPNAME
1000
PASTMD19
  0
LINE
  5
4581
  8
241
 10
21.875
 20
-46.999999999999659
 30
0.0
 11
21.875
 21
31.500000000000458
 31
0.0
1001
GRPNAME
1000
PASTMD19
  0
LINE
  5
4582
  8
241
 10
18.124999999999989
 20
-46.999999999999659
 30
0.0
 11
18.124999999999989
 21
31.500000000000458
 31
0.0
1001
GRPNAME
1000
PASTMD19
  0
LINE
  5
4583
  8
241
 10
-2.0000000000000009
 20
-37.899999999999643
 30
0.0
 11
-2.0000000000000009
 21
37.900000000000432
 31
0.0
1001
GRPNAME
1000
PASTMD19
  0
LINE
  5
4584
  8
240
 10
-2.000000000000389
 20
-37.899999999999643
 30
0.0
 11
-48.099875233887708
 21
-35.595006238305253
 31
0.0
1001
GRPNAME
1000
PASTMD19
  0
LINE
  5
4585
  8
243
 10
-30.003375672974251
 20
-26.499999999999659
 30
0.0
 11
-50.000000000000007
 21
-26.499999999999659
 31
0.0
1001
GRPNAME
1000
PASTMD19
  0
ARC
  5
4586
  8
240
 10
-48.000000000000007
 20
-33.597501560549517
 30
0.0
 40
2.0
 50
180.00000008102811
 51
267.1375948549188
1001
GRPNAME
1000
PASTMD19
  0
LINE
  5
4587
  8
240
 10
16.75240473580833
 20
-49.999999999999659
 30
0.0
 11
0.4999999999999947
 21
-49.999999999999659
 31
0.0
1001
GRPNAME
1000
PASTMD19
  0
LINE
  5
4588
  8
243
 10
-9.4966925428956301
 20
-31.499999999999659
 30
0.0
 11
-26.539274057836231
 21
-31.499999999999659
 31
0.0
1001
GRPNAME
1000
PASTMD19
  0
LINE
  5
4589
  8
243
 10
-35.000000000000007
 20
-36.249999999999659
 30
0.0
 11
-35.000000000000007
 21
-26.499999999999659
 31
0.0
1001
GRPNAME
1000
PASTMD19
  0
LINE
  5
458A
  8
243
 10
-30.003375672974251
 20
-26.499999999999659
 30
0.0
 11
-27.405299461620672
 21
-30.999999999999659
 31
0.0
1001
GRPNAME
1000
PASTMD19
  0
ARC
  5
458B
  8
243
 10
-26.539274057836231
 20
-30.499999999999659
 30
0.0
 40
1.0
 50
209.99999985859279
 51
269.99999985859569
1001
GRPNAME
1000
PASTMD19
  0
LINE
  5
458C
  8
243
 10
-21.000000000000011
 20
-31.499999998054481
 30
0.0
 11
-21.000000000000011
 21
-36.949999999999577
 31
0.0
1001
GRPNAME
1000
PASTMD1F
  0
LINE
  5
458D
  8
240
 10
-0.0000000000000018
 20
-49.499999999999659
 30
0.0
 11
-0.0000000000000018
 21
-37.899999999999643
 31
0.0
1001
GRPNAME
1000
PASTMD19
  0
ARC
  5
458E
  8
240
 10
0.4999999999999947
 20
-49.499999999999659
 30
0.0
 40
0.5
 50
179.99999989458101
 51
269.99999989459332
1001
GRPNAME
1000
PASTMD19
  0
ARC
  5
458F
  8
243
 10
-9.4966925428956301
 20
-19.499999999999659
 30
0.0
 40
11.999999998054699
 50
270.00000006042342
 51
316.28721582905848
1001
GRPNAME
1000
PASTMD19
  0
LINE
  5
4590
  8
245
 10
-15.000000000000011
 20
-30.51032519832825
 30
0.0
 11
-15.000000000000011
 21
-38.75111949497159
 31
0.0
1001
GRPNAME
1000
PASTMD1F
  0
LINE
  5
4591
  8
243
 10
-9.0
 20
-31.489716279843272
 30
0.0
 11
-9.0
 21
-37.549999999999621
 31
0.0
1001
GRPNAME
1000
PASTMD1F
  0
LINE
  5
4592
  8
240
 10
-2.000000000000389
 20
-37.899999999999643
 30
0.0
 11
-0.0000000000000018
 21
-37.899999999999643
 31
0.0
  0
LINE
  5
4593
  8
240
 10
28.499999999999851
 20
-49.999999999999659
 30
0.0
 11
23.247595264191641
 21
-49.999999999999659
 31
0.0
1001
GRPNAME
1000
PASTMD19
  0
LINE
  5
4594
  8
243
 10
28.999999999999861
 20
-43.999999999999652
 30
0.0
 11
4.9999999999994236
 21
-43.999999999999652
 31
0.0
1001
GRPNAME
1000
PASTMD19
  0
LINE
  5
4595
  8
243
 10
4.9999999999994236
 20
-49.999999999999659
 30
0.0
 11
4.9999999999994236
 21
-43.999999999999652
 31
0.0
1001
GRPNAME
1000
PASTMD19
  0
LINE
  5
4596
  8
240
 10
21.875
 20
-46.999999999999659
 30
0.0
 11
21.875
 21
-47.622595264191432
 31
0.0
1001
GRPNAME
1000
PASTMD19
  0
LINE
  5
4597
  8
240
 10
18.124999999999989
 20
-46.999999999999659
 30
0.0
 11
18.124999999999989
 21
-47.622595264191432
 31
0.0
1001
GRPNAME
1000
PASTMD19
  0
LINE
  5
4598
  8
240
 10
18.124999999999989
 20
-47.622595264191432
 30
0.0
 11
16.75240473580833
 21
-49.999999999999659
 31
0.0
1001
GRPNAME
1000
PASTMD19
  0
LINE
  5
4599
  8
240
 10
21.875
 20
-47.622595264191432
 30
0.0
 11
23.247595264191641
 21
-49.999999999999659
 31
0.0
1001
GRPNAME
1000
PASTMD19
  0
ARC
  5
459A
  8
240
 10
20.874999999999979
 20
-46.999999999999659
 30
0.0
 40
1.0
 50
359.9999998997335
 51
89.999999899733439
1001
GRPNAME
1000
PASTMD19
  0
ARC
  5
459B
  8
240
 10
19.124999999999989
 20
-46.999999999999659
 30
0.0
 40
1.0
 50
89.999999902299876
 51
179.99999990229981
1001
GRPNAME
1000
PASTMD19
  0
LINE
  5
459C
  8
240
 10
20.874999999999979
 20
-45.999999999999652
 30
0.0
 11
19.124999999999989
 21
-45.999999999999652
 31
0.0
1001
GRPNAME
1000
PASTMD19
  0
LINE
  5
459D
  8
240
 10
28.999999999999861
 20
-49.499999999999659
 30
0.0
 11
28.999999999999861
 21
-42.699999999999577
 31
0.0
1001
GRPNAME
1000
PASTMD2V
  0
ARC
  5
459E
  8
240
 10
28.499999999999851
 20
-49.499999999999659
 30
0.0
 40
0.5
 50
269.99999988687432
 51
359.99999988687517
1001
GRPNAME
1000
PASTMD2V
  0
LINE
  5
459F
  8
240
 10
-1.9999999999997931
 20
37.900000000000432
 30
0.0
 11
-48.099875233887708
 21
35.595006238305928
 31
0.0
1001
GRPNAME
1000
PASTMD19
  0
LINE
  5
45A0
  8
243
 10
-30.003375672974251
 20
26.500000000000341
 30
0.0
 11
-50.000000000000007
 21
26.500000000000341
 31
0.0
1001
GRPNAME
1000
PASTMD19
  0
LINE
  5
45A1
  8
240
 10
-50.000000000000007
 20
0.000000000000341
 30
0.0
 11
-50.000000000000007
 21
33.59750156055032
 31
0.0
1001
GRPNAME
1000
PASTMD19
  0
ARC
  5
45A2
  8
240
 10
-48.000000000000007
 20
33.59750156055032
 30
0.0
 40
1.999999999999952
 50
92.862405134789526
 51
179.99999990868341
1001
GRPNAME
1000
PASTMD19
  0
LINE
  5
45A3
  8
241
 10
21.875
 20
33.500000000000462
 30
0.0
 11
21.875
 21
47.000000000000327
 31
0.0
1001
GRPNAME
1000
PASTMD19
  0
LINE
  5
45A4
  8
241
 10
23.247595264191521
 20
38.829756626071799
 30
0.0
 11
23.247595264191521
 21
50.000000000000341
 31
0.0
1001
GRPNAME
1000
PASTMD19
  0
LINE
  5
45A5
  8
240
 10
28.999999999999861
 20
42.700000000000273
 30
0.0
 11
29.0
 21
49.500000000000341
 31
0.0
1001
GRPNAME
1000
PASTMD2V
  0
LINE
  5
45A6
  8
241
 10
18.124999999999989
 20
33.500000000000462
 30
0.0
 11
18.124999999999989
 21
47.000000000000327
 31
0.0
1001
GRPNAME
1000
PASTMD19
  0
LINE
  5
45A7
  8
241
 10
16.75240473580833
 20
38.829756626071799
 30
0.0
 11
16.75240473580833
 21
50.000000000000341
 31
0.0
1001
GRPNAME
1000
PASTMD19
  0
LINE
  5
45A8
  8
240
 10
-0.0000000000000018
 20
37.900000000000432
 30
0.0
 11
-0.0000000000000018
 21
49.500000000000341
 31
0.0
1001
GRPNAME
1000
PASTMD19
  0
ARC
  5
45A9
  8
241
 10
14.63689785791971
 20
28.829756626071799
 30
0.0
 40
9.9999999999997158
 50
90.000000080441055
 51
164.5127260540782
1001
GRPNAME
1000
PASTMD1F
  0
LINE
  5
45AA
  8
243
 10
-9.4966925428956301
 20
31.499999998055159
 30
0.0
 11
-26.539274057836231
 21
31.500000000000341
 31
0.0
1001
GRPNAME
1000
PASTMD19
  0
LINE
  5
45AB
  8
243
 10
-40.000000000000007
 20
26.500000000000341
 30
0.0
 11
-40.000000000000007
 21
36.250000000000341
 31
0.0
1001
GRPNAME
1000
PASTMD19
  0
LINE
  5
45AC
  8
243
 10
-21.000000000000011
 20
31.499999998055159
 30
0.0
 11
-21.000000000000011
 21
36.950000000000401
 31
0.0
1001
GRPNAME
1000
PASTMD1J
  0
LINE
  5
45AD
  8
243
 10
-30.003375672974251
 20
26.500000000000341
 30
0.0
 11
-27.405299461620672
 21
31.000000000000341
 31
0.0
1001
GRPNAME
1000
PASTMD19
  0
ARC
  5
45AE
  8
243
 10
-26.539274057836231
 20
30.500000000000341
 30
0.0
 40
1.0
 50
90.000000074556681
 51
150.00000007456001
1001
GRPNAME
1000
PASTMD19
  0
ARC
  5
45AF
  8
243
 10
-9.4966925428956301
 20
19.500000000000341
 30
0.0
 40
11.99999999805488
 50
43.712766570848963
 51
89.999999939576583
1001
GRPNAME
1000
PASTMD19
  0
LINE
  5
45B0
  8
243
 10
-9.0
 20
31.489716279843961
 30
0.0
 11
-9.0
 21
37.550000000000423
 31
0.0
1001
GRPNAME
1000
PASTMD1J
  0
LINE
  5
45B1
  8
245
 10
-15.000000000000011
 20
30.510325198328928
 30
0.0
 11
-15.000000000000011
 21
38.7511194949724
 31
0.0
1001
GRPNAME
1000
PASTMD1J
  0
LINE
  5
45B2
  8
240
 10
-1.9999999999997931
 20
37.900000000000432
 30
0.0
 11
-0.0000000000000018
 21
37.900000000000432
 31
0.0
  0
LINE
  5
45B3
  8
241
 10
28.999999999999861
 20
0.000000000000341
 30
0.0
 11
28.999999999999861
 21
42.700000000000273
 31
0.0
1001
GRPNAME
1000
PASTMD2V
  0
LINE
  5
45B4
  8
241
 10
23.247595264191521
 20
38.829756626071799
 30
0.0
 11
28.999999999999861
 21
38.829756626071799
 31
0.0
1001
GRPNAME
1000
PASTMD1F
  0
LINE
  5
45B5
  8
241
 10
4.9999999999996518
 20
31.500000000000458
 30
0.0
 11
28.999999999999861
 21
31.500000000000458
 31
0.0
1001
GRPNAME
1000
PASTMD1F
  0
LINE
  5
45B6
  8
241
 10
14.63689785791971
 20
38.829756626071799
 30
0.0
 11
16.75240473580833
 21
38.829756626071799
 31
0.0
1001
GRPNAME
1000
PASTMD1F
  0
LINE
  5
45B7
  8
241
 10
18.124999999999989
 20
33.500000000000462
 30
0.0
 11
21.875
 21
33.500000000000462
 31
0.0
1001
GRPNAME
1000
PASTMD1F
  0
LINE
  5
45B8
  8
241
 10
18.124999999999989
 20
36.452351890263678
 30
0.0
 11
16.752404735808451
 21
38.829756626071799
 31
0.0
1001
GRPNAME
1000
PASTMD1F
  0
LINE
  5
45B9
  8
241
 10
21.875
 20
36.45235189026392
 30
0.0
 11
23.247595264191521
 21
38.829756626071799
 31
0.0
1001
GRPNAME
1000
PASTMD1F
  0
LINE
  5
45BA
  8
240
 10
16.75240473580833
 20
50.000000000000341
 30
0.0
 11
0.4999999999999947
 21
50.000000000000341
 31
0.0
1001
GRPNAME
1000
PASTMD19
  0
ARC
  5
45BB
  8
240
 10
0.4999999999999947
 20
49.500000000000341
 30
0.0
 40
0.5
 50
89.999999902299876
 51
179.99999990229981
1001
GRPNAME
1000
PASTMD19
  0
LINE
  5
45BC
  8
240
 10
28.5
 20
50.000000000000341
 30
0.0
 11
23.247595264191521
 21
50.000000000000341
 31
0.0
1001
GRPNAME
1000
PASTMD19
  0
LINE
  5
45BD
  8
243
 10
28.999999999999861
 20
44.000000000000341
 30
0.0
 11
4.9999999999994236
 21
44.000000000000341
 31
0.0
1001
GRPNAME
1000
PASTMD19
  0
LINE
  5
45BE
  8
243
 10
4.9999999999994236
 20
44.000000000000341
 30
0.0
 11
4.9999999999994236
 21
50.000000000000341
 31
0.0
1001
GRPNAME
1000
PASTMD19
  0
ARC
  5
45BF
  8
240
 10
20.874999999999979
 20
47.000000000000327
 30
0.0
 40
1.0
 50
269.99999988430562
 51
359.99999988429568
1001
GRPNAME
1000
PASTMD19
  0
ARC
  5
45C0
  8
240
 10
19.124999999999989
 20
47.000000000000327
 30
0.0
 40
1.0
 50
179.99999989458101
 51
269.99999989458757
1001
GRPNAME
1000
PASTMD19
  0
LINE
  5
45C1
  8
240
 10
20.874999999999979
 20
46.000000000000341
 30
0.0
 11
19.124999999999989
 21
46.000000000000341
 31
0.0
1001
GRPNAME
1000
PASTMD19
  0
LINE
  5
45C2
  8
240
 10
18.124999999999989
 20
47.622595264192107
 30
0.0
 11
16.75240473580833
 21
50.000000000000341
 31
0.0
1001
GRPNAME
1000
PASTMD19
  0
LINE
  5
45C3
  8
240
 10
18.124999999999989
 20
47.000000000000327
 30
0.0
 11
18.124999999999989
 21
47.622595264192107
 31
0.0
1001
GRPNAME
1000
PASTMD19
  0
LINE
  5
45C4
  8
240
 10
21.875
 20
47.622595264192107
 30
0.0
 11
23.247595264191641
 21
50.000000000000341
 31
0.0
1001
GRPNAME
1000
PASTMD19
  0
LINE
  5
45C5
  8
240
 10
21.875
 20
47.000000000000327
 30
0.0
 11
21.875
 21
47.622595264192107
 31
0.0
1001
GRPNAME
1000
PASTMD19
  0
ARC
  5
45C6
  8
240
 10
28.5
 20
49.500000000000341
 30
0.0
 40
0.5
 50
359.99999989972707
 51
89.99999989972693
1001
GRPNAME
1000
PASTMD2V
  0
LINE
  5
45C7
  8
241
 10
-0.0000000000000018
 20
37.900000000000432
 30
0.0
 11
-0.0000000000000018
 21
-37.899999999999643
 31
0.0
  0
LINE
  5
45C8
  8
240
  6
CONTINUOUS
 10
29.199999999999541
 20
-42.499999999999659
 30
0.0
 11
44.999999999999559
 21
-42.499999999999659
 31
0.0
  0
ARC
  5
45C9
  8
240
  6
CONTINUOUS
 10
29.199999999999541
 20
-42.699999999999712
 30
0.0
 40
0.1999999999999886
 50
90.0
 51
180.0
  0
ARC
  5
45CA
  8
240
  6
CONTINUOUS
 10
29.199999999999541
 20
42.700000000000443
 30
0.0
 40
0.1999999999999886
 50
180.0
 51
270.0
  0
LINE
  5
45CB
  8
242
  6
CONTINUOUS
 10
29.49999999999962
 20
41.030820341967733
 30
0.0
 11
44.499999999999559
 21
38.853046166453581
 31
0.0
  0
LINE
  5
45CC
  8
242
  6
CONTINUOUS
 10
29.49999999999962
 20
38.853046166453581
 30
0.0
 11
44.499999999999559
 21
41.030820341967733
 31
0.0
  0
LINE
  5
45CD
  8
241
  6
CONTINUOUS
 10
29.49999999999962
 20
38.853046166453581
 30
0.0
 11
44.499999999999559
 21
38.853046166453581
 31
0.0
  0
LINE
  5
45CE
  8
240
  6
CONTINUOUS
 10
29.49999999999962
 20
41.030820341967733
 30
0.0
 11
44.499999999999559
 21
41.030820341967733
 31
0.0
  0
LINE
  5
45CF
  8
241
  6
CONTINUOUS
 10
29.49999999999962
 20
38.853046166453581
 30
0.0
 11
29.49999999999962
 21
41.030820341967733
 31
0.0
  0
LINE
  5
45D0
  8
240
  6
CONTINUOUS
 10
29.49999999999962
 20
41.030820341967733
 30
0.0
 11
29.49999999999962
 21
42.500000000000391
 31
0.0
  0
LINE
  5
45D1
  8
240
  6
CONTINUOUS
 10
29.199999999999541
 20
42.500000000000391
 30
0.0
 11
29.49999999999962
 21
42.500000000000391
 31
0.0
  0
LINE
  5
45D2
  8
240
  6
CONTINUOUS
 10
44.999999999999559
 20
30.000000000000401
 30
0.0
 11
44.999999999999559
 21
42.500000000000391
 31
0.0
  0
LINE
  5
45D3
  8
241
  6
CONTINUOUS
 10
44.499999999999559
 20
38.853046166453581
 30
0.0
 11
44.499999999999559
 21
41.030820341967733
 31
0.0
  0
LINE
  5
45D4
  8
240
  6
CONTINUOUS
 10
44.499999999999559
 20
42.500000000000391
 30
0.0
 11
44.999999999999559
 21
42.500000000000391
 31
0.0
  0
LINE
  5
45D5
  8
240
  6
CONTINUOUS
 10
44.499999999999559
 20
41.030820341967733
 30
0.0
 11
44.499999999999559
 21
42.500000000000391
 31
0.0
  0
LINE
  5
45D6
  8
240
  6
CONTINUOUS
 10
44.999999999999559
 20
-47.999999999999417
 30
0.0
 11
44.999999999999559
 21
48.000000000000618
 31
0.0
  0
LINE
  5
45D7
  8
240
  6
CONTINUOUS
 10
44.999999999999552
 20
-47.999999999999368
 30
0.0
 11
45.499999999999567
 21
-48.499999999999368
 31
0.0
  0
LINE
  5
45D8
  8
240
  6
CONTINUOUS
 10
45.499999999999567
 20
-48.499999999999368
 30
0.0
 11
47.999999999999893
 21
-48.499999999999368
 31
0.0
  0
LINE
  5
45D9
  8
240
  6
CONTINUOUS
 10
45.499999999999567
 20
48.500000000000618
 30
0.0
 11
44.999999999999559
 21
48.000000000000618
 31
0.0
  0
LINE
  5
45DA
  8
240
  6
CONTINUOUS
 10
45.499999999999567
 20
48.500000000000618
 30
0.0
 11
48.000000000000611
 21
48.500000000000618
 31
0.0
  0
LINE
  5
45DB
  8
240
 10
48.000000000000519
 20
-48.99999999999978
 30
0.0
 11
48.000000000000611
 21
-48.499999999999368
 31
0.0
  0
ENDBLK
  5
45DF
  8
0
  0
BLOCK
  8
0
  2
A$C3F3566F4
 70
     0
 10
0.0
 20
0.0
 30
0.0
  3
A$C3F3566F4
  1

  0
LINE
  5
45E3
  8
241
 10
11.99999999999954
 20
-11.41640786510491
 30
0.0
 11
12.000000000000229
 21
11.416407866186031
 31
0.0
  0
LINE
  5
45E4
  8
241
 10
-11.999999999998179
 20
-11.41640786510599
 30
0.0
 11
-12.000000000000339
 21
11.41640786593036
 31
0.0
  0
LINE
  5
45E5
  8
241
 10
-14.99999999999852
 20
-7.9498743711737747
 30
0.0
 11
-14.999999999999201
 21
0.0000000000002416
 31
0.0
  0
LINE
  5
45E6
  8
241
 10
-14.999999999998749
 20
7.9498743719123128
 30
0.0
 11
-14.999999999999201
 21
0.0000000000002416
 31
0.0
  0
ARC
  5
45E7
  8
241
 10
0.0000000001427907
 20
-1.9999999989403081
 30
0.0
 40
18.0
 50
128.94244127442161
 51
146.44269023889581
  0
ARC
  5
45E8
  8
241
 10
5.5000000000002274
 20
11.99999999999762
 30
0.0
 40
0.5
 50
0.0
 51
90.0
  0
ARC
  5
45E9
  8
241
 10
-5.5
 20
11.99999999999762
 30
0.0
 40
0.5
 50
90.0
 51
180.0
  0
LINE
  5
45EA
  8
241
 10
-5.5
 20
12.49999999999762
 30
0.0
 11
5.5000000000001128
 21
12.49999999999762
 31
0.0
  0
LINE
  5
45EB
  8
241
 10
-11.31370850017117
 20
11.99999999998545
 30
0.0
 11
0.0
 21
11.999999999997961
 31
0.0
  0
LINE
  5
45EC
  8
241
 10
11.31370850045584
 20
11.99999999998637
 30
0.0
 11
0.0
 21
11.999999999997961
 31
0.0
  0
ARC
  5
45ED
  8
241
 10
0.0000000001427907
 20
-1.9999999989403081
 30
0.0
 40
18.0
 50
33.557309762752247
 51
51.057558725578389
  0
LINE
  5
45EE
  8
241
 10
14.999999999999091
 20
7.9498743723425029
 30
0.0
 11
14.999999999999879
 21
0.0000000000001279
 31
0.0
  0
LINE
  5
45EF
  8
241
 10
14.999999999999661
 20
-7.9498743711726387
 30
0.0
 11
14.999999999999879
 21
0.0000000000001279
 31
0.0
  0
ARC
  5
45F0
  8
241
 10
0.0
 20
1.999999999894283
 30
0.0
 40
18.0
 50
308.94244126948058
 51
326.44269023807271
  0
LINE
  5
45F1
  8
241
 10
11.31370849910661
 20
-12.000000000007489
 30
0.0
 11
-0.0000000000001137
 21
-11.99999999999838
 31
0.0
  0
LINE
  5
45F2
  8
241
 10
5.9999999999998863
 20
-12.00000000000043
 30
0.0
 11
5.9999999999998863
 21
-12.300000000001409
 31
0.0
  0
LINE
  5
45F3
  8
241
 10
5.9999999999998863
 20
-12.300000000001409
 30
0.0
 11
5.0000009536742018
 21
-12.29999999999913
 31
0.0
  0
ARC
  5
45F4
  8
241
 10
3.9999990463254562
 20
-13.50000000000146
 30
0.0
 40
2.0
 50
270.0
 51
300.00006309460503
  0
LINE
  5
45F5
  8
241
 10
5.0000009536757943
 20
-15.232049706359801
 30
0.0
 11
5.0000009536742018
 21
-12.29999999999913
 31
0.0
  0
LINE
  5
45F6
  8
241
 10
-5.9999999999996581
 20
-12.00000000000043
 30
0.0
 11
-5.9999999999996581
 21
-12.300000000001409
 31
0.0
  0
LINE
  5
45F7
  8
241
 10
-5.9999999999996581
 20
-12.300000000001409
 30
0.0
 11
-5.0000009536738608
 21
-12.29999999999913
 31
0.0
  0
ARC
  5
45F8
  8
241
 10
-3.9999990463253421
 20
-13.50000000000146
 30
0.0
 40
2.0
 50
239.99993690539509
 51
270.00000000000648
  0
LINE
  5
45F9
  8
241
 10
-3.999999046325228
 20
-15.50000000000146
 30
0.0
 11
0.0
 21
-15.500000000003499
 31
0.0
  0
LINE
  5
45FA
  8
241
 10
-5.0000009536754533
 20
-15.232049706359801
 30
0.0
 11
-5.0000009536738608
 21
-12.29999999999913
 31
0.0
  0
LINE
  5
45FB
  8
241
 10
3.9999990463253421
 20
-15.50000000000146
 30
0.0
 11
0.0
 21
-15.500000000003499
 31
0.0
  0
LINE
  5
45FC
  8
241
 10
-11.313708499102059
 20
-12.0000000000109
 30
0.0
 11
-0.0000000000001137
 21
-11.99999999999838
 31
0.0
  0
ARC
  5
45FD
  8
241
 10
0.0
 20
1.999999999894283
 30
0.0
 40
18.0
 50
213.55730976192831
 51
231.05755873053619
  0
LINE
  5
45FE
  8
241
 10
21.49999999999898
 20
39.500000000091077
 30
0.0
 11
21.999999999999432
 21
39.000000000091077
 31
0.0
  0
ARC
  5
45FF
  8
241
 10
0.0
 20
0.0000000000933511
 30
0.0
 40
41.0
 50
42.97028393174174
 51
56.023647086104582
  0
LINE
  5
4600
  8
241
 10
28.000000000007731
 20
22.627416998032128
 30
0.0
 11
29.999999999999091
 21
23.118400135337321
 31
0.0
  0
LINE
  5
4601
  8
241
 10
13.181426158923159
 20
33.500000066016831
 30
0.0
 11
14.04830317452854
 21
34.000000056781708
 31
0.0
  0
LINE
  5
4602
  8
241
 10
10.0
 20
18.845299461561019
 30
0.0
 11
10.0
 21
21.15470053831951
 31
0.0
1001
GRPNAME
1000
00000001
  0
LINE
  5
4603
  8
241
 10
6.0
 20
18.845299461561019
 30
0.0
 11
7.9999999999998863
 21
17.690598923181781
 31
0.0
1001
GRPNAME
1000
00000001
  0
LINE
  5
4604
  8
241
 10
7.9999999999998863
 20
22.309401076698819
 30
0.0
 11
6.0
 21
21.15470053831957
 31
0.0
1001
GRPNAME
1000
00000001
  0
LINE
  5
4605
  8
241
 10
6.0
 20
18.845299461561019
 30
0.0
 11
6.0
 21
21.15470053831957
 31
0.0
1001
GRPNAME
1000
00000001
  0
CIRCLE
  5
4606
  8
241
 10
7.9999999999998863
 20
19.999999999940329
 30
0.0
 40
4.25
1001
GRPNAME
1000
00000001
  0
LINE
  5
4607
  8
241
 10
7.9999999999998863
 20
22.309401076698819
 30
0.0
 11
10.0
 21
21.15470053831951
 31
0.0
1001
GRPNAME
1000
00000001
  0
LINE
  5
4608
  8
241
 10
10.0
 20
18.845299461561019
 30
0.0
 11
7.9999999999998863
 21
17.690598923181781
 31
0.0
1001
GRPNAME
1000
00000001
  0
ARC
  5
4609
  8
241
 10
0.0
 20
0.0000000000934648
 30
0.0
 40
36.000000000000121
 50
38.94244126898711
 51
68.52158199482929
  0
LINE
  5
460A
  8
241
 10
21.999999999999432
 20
39.000000000091077
 30
0.0
 11
22.00000000000011
 21
33.999999962342862
 31
0.0
  0
LINE
  5
460B
  8
241
 10
11.906000000000169
 20
39.500000000091191
 30
0.0
 11
11.90599999999972
 21
33.999999962343068
 31
0.0
  0
LINE
  5
460C
  8
241
 10
-21.99999999999994
 20
39.000000000091077
 30
0.0
 11
-21.49999999999995
 21
39.500000000091077
 31
0.0
  0
LINE
  5
460D
  8
241
 10
-9.9999999999995453
 20
18.845299461561019
 30
0.0
 11
-7.9999999999996581
 21
17.690598923181781
 31
0.0
1001
GRPNAME
1000
00000001
  0
LINE
  5
460E
  8
241
 10
-7.9999999999996581
 20
22.309401076698819
 30
0.0
 11
-9.9999999999995453
 21
21.15470053831957
 31
0.0
1001
GRPNAME
1000
00000001
  0
LINE
  5
460F
  8
241
 10
-9.9999999999995453
 20
18.845299461561019
 30
0.0
 11
-9.9999999999995453
 21
21.15470053831957
 31
0.0
1001
GRPNAME
1000
00000001
  0
LINE
  5
4610
  8
241
 10
-7.9999999999996581
 20
22.309401076698819
 30
0.0
 11
-5.9999999999995453
 21
21.15470053831951
 31
0.0
1001
GRPNAME
1000
00000001
  0
LINE
  5
4611
  8
241
 10
-5.9999999999995453
 20
18.845299461561019
 30
0.0
 11
-5.9999999999995453
 21
21.15470053831951
 31
0.0
1001
GRPNAME
1000
00000001
  0
LINE
  5
4612
  8
241
 10
-5.9999999999995453
 20
18.845299461561019
 30
0.0
 11
-7.9999999999996581
 21
17.690598923181781
 31
0.0
1001
GRPNAME
1000
00000001
  0
CIRCLE
  5
4613
  8
241
 10
-7.9999999999996581
 20
19.999999999940329
 30
0.0
 40
4.25
1001
GRPNAME
1000
00000001
  0
LINE
  5
4614
  8
241
 10
-13.18142615892293
 20
33.500000066016831
 30
0.0
 11
-14.04830317452843
 21
34.000000056781708
 31
0.0
  0
LINE
  5
4615
  8
241
 10
-11.905999999999951
 20
39.500000000091191
 30
0.0
 11
-11.90600000000029
 21
33.999999962343303
 31
0.0
  0
LINE
  5
4616
  8
241
 10
-21.99999999999994
 20
39.000000000091077
 30
0.0
 11
-21.99999999999994
 21
33.999999962343189
 31
0.0
  0
LINE
  5
4617
  8
242
 10
-11.905999999999951
 20
39.500000000091191
 30
0.0
 11
11.90599999999972
 21
33.999999962343068
 31
0.0
  0
LINE
  5
4618
  8
242
 10
11.906000000000169
 20
39.500000000091191
 30
0.0
 11
-11.90600000000029
 21
33.999999962343189
 31
0.0
  0
LINE
  5
4619
  8
241
 10
-22.912878530795808
 20
33.999999962343189
 30
0.0
 11
22.912878530796551
 21
33.999999962342862
 31
0.0
  0
LINE
  5
461A
  8
241
 10
-13.181426422404909
 20
33.499999962343203
 30
0.0
 11
13.18142642240559
 21
33.499999962342947
 31
0.0
  0
LINE
  5
461B
  8
241
 10
-21.49999999999995
 20
39.500000000091077
 30
0.0
 11
21.49999999999898
 21
39.500000000091077
 31
0.0
  0
LINE
  5
461C
  8
241
 10
20.50000165421261
 20
8.5594010766984745
 30
0.0
 11
22.50000165421261
 21
7.4047005383191742
 31
0.0
1001
GRPNAME
1000
00000001
  0
LINE
  5
461D
  8
241
 10
18.50000165421261
 20
5.0952994615606819
 30
0.0
 11
18.50000165421261
 21
7.404700538319231
 31
0.0
1001
GRPNAME
1000
00000001
  0
LINE
  5
461E
  8
241
 10
20.50000165421261
 20
8.5594010766984745
 30
0.0
 11
18.50000165421261
 21
7.404700538319231
 31
0.0
1001
GRPNAME
1000
00000001
  0
LINE
  5
461F
  8
241
 10
22.50000165421261
 20
5.0952994615606819
 30
0.0
 11
22.50000165421261
 21
7.4047005383191742
 31
0.0
1001
GRPNAME
1000
00000001
  0
LINE
  5
4620
  8
241
 10
18.50000165421261
 20
-5.0952994615606544
 30
0.0
 11
20.50000165421261
 21
-3.9405989231814069
 31
0.0
1001
GRPNAME
1000
00000001
  0
LINE
  5
4621
  8
241
 10
22.50000165421261
 20
-5.0952994615606544
 30
0.0
 11
20.50000165421261
 21
-3.9405989231814069
 31
0.0
1001
GRPNAME
1000
00000001
  0
LINE
  5
4622
  8
241
 10
26.500001654213179
 20
-0.0000000000922995
 30
0.0
 11
26.500001654211701
 21
7.3484632629408804
 31
0.0
  0
LINE
  5
4623
  8
241
 10
22.50000165421261
 20
5.0952994615606819
 30
0.0
 11
20.50000165421261
 21
3.9405989231814398
 31
0.0
1001
GRPNAME
1000
00000001
  0
CIRCLE
  5
4624
  8
241
 10
20.50000165421261
 20
6.2499999999399858
 30
0.0
 40
4.25
1001
GRPNAME
1000
00000001
  0
LINE
  5
4625
  8
241
 10
20.50000165421261
 20
-8.5594010766984496
 30
0.0
 11
18.50000165421261
 21
-7.4047005383192008
 31
0.0
1001
GRPNAME
1000
00000001
  0
LINE
  5
4626
  8
241
 10
20.50000165421261
 20
-8.5594010766984496
 30
0.0
 11
22.50000165421261
 21
-7.4047005383191484
 31
0.0
1001
GRPNAME
1000
00000001
  0
LINE
  5
4627
  8
241
 10
28.0000000000623
 20
-22.627416997589862
 30
0.0
 11
29.999999999999091
 21
-23.11840013503797
 31
0.0
  0
LINE
  5
4628
  8
241
 10
10.0
 20
-18.84529946156098
 30
0.0
 11
10.0
 21
-21.154700538319489
 31
0.0
1001
GRPNAME
1000
00000001
  0
LINE
  5
4629
  8
241
 10
6.0
 20
-18.84529946156098
 30
0.0
 11
6.0
 21
-21.154700538319531
 31
0.0
1001
GRPNAME
1000
00000001
  0
LINE
  5
462A
  8
241
 10
7.9999999999998863
 20
-22.30940107669878
 30
0.0
 11
6.0
 21
-21.154700538319531
 31
0.0
1001
GRPNAME
1000
00000001
  0
LINE
  5
462B
  8
241
 10
7.9999999999998863
 20
-22.30940107669878
 30
0.0
 11
10.0
 21
-21.154700538319489
 31
0.0
1001
GRPNAME
1000
00000001
  0
LINE
  5
462C
  8
241
 10
10.0
 20
-18.84529946156098
 30
0.0
 11
7.9999999999998863
 21
-17.690598923181749
 31
0.0
1001
GRPNAME
1000
00000001
  0
LINE
  5
462D
  8
241
 10
6.0
 20
-18.84529946156098
 30
0.0
 11
7.9999999999998863
 21
-17.690598923181749
 31
0.0
1001
GRPNAME
1000
00000001
  0
CIRCLE
  5
462E
  8
241
 10
7.9999999999998863
 20
-19.99999999994029
 30
0.0
 40
4.25
1001
GRPNAME
1000
00000001
  0
LINE
  5
462F
  8
241
 10
26.500001654213179
 20
0.0000000000939195
 30
0.0
 11
26.500001654210571
 21
-7.348463262943806
 31
0.0
  0
LINE
  5
4630
  8
241
 10
22.50000165421261
 20
-5.0952994615606544
 30
0.0
 11
22.50000165421261
 21
-7.4047005383191484
 31
0.0
1001
GRPNAME
1000
00000001
  0
LINE
  5
4631
  8
241
 10
18.50000165421261
 20
-5.0952994615606544
 30
0.0
 11
18.50000165421261
 21
-7.4047005383192008
 31
0.0
1001
GRPNAME
1000
00000001
  0
CIRCLE
  5
4632
  8
241
 10
20.50000165421261
 20
-6.2499999999399556
 30
0.0
 40
4.25
1001
GRPNAME
1000
00000001
  0
LINE
  5
4633
  8
241
 10
-18.500001654212038
 20
5.0952994615606819
 30
0.0
 11
-18.500001654212038
 21
7.4047005383191742
 31
0.0
1001
GRPNAME
1000
00000001
  0
LINE
  5
4634
  8
241
 10
-22.500001654212038
 20
5.0952994615606819
 30
0.0
 11
-22.500001654212038
 21
7.404700538319231
 31
0.0
1001
GRPNAME
1000
00000001
  0
LINE
  5
4635
  8
241
 10
-20.500001654212038
 20
8.5594010766984745
 30
0.0
 11
-22.500001654212038
 21
7.404700538319231
 31
0.0
1001
GRPNAME
1000
00000001
  0
LINE
  5
4636
  8
241
 10
-20.500001654212038
 20
8.5594010766984745
 30
0.0
 11
-18.500001654212038
 21
7.4047005383191742
 31
0.0
1001
GRPNAME
1000
00000001
  0
LINE
  5
4637
  8
241
 10
-22.500001654212038
 20
-5.0952994615606544
 30
0.0
 11
-20.500001654212038
 21
-3.9405989231814069
 31
0.0
1001
GRPNAME
1000
00000001
  0
LINE
  5
4638
  8
241
 10
-18.500001654212038
 20
-5.0952994615606544
 30
0.0
 11
-20.500001654212038
 21
-3.9405989231814069
 31
0.0
1001
GRPNAME
1000
00000001
  0
LINE
  5
4639
  8
241
 10
-26.500001654212952
 20
-0.0000000000938911
 30
0.0
 11
-26.500001654210511
 21
7.348463262943838
 31
0.0
  0
LINE
  5
463A
  8
241
 10
-18.500001654212038
 20
5.0952994615606819
 30
0.0
 11
-20.500001654212038
 21
3.9405989231814398
 31
0.0
1001
GRPNAME
1000
00000001
  0
LINE
  5
463B
  8
241
 10
-22.500001654212038
 20
5.0952994615606819
 30
0.0
 11
-20.500001654212038
 21
3.9405989231814398
 31
0.0
1001
GRPNAME
1000
00000001
  0
CIRCLE
  5
463C
  8
241
 10
-20.500001654212038
 20
6.2499999999399858
 30
0.0
 40
4.25
1001
GRPNAME
1000
00000001
  0
LINE
  5
463D
  8
241
 10
-5.9999999999995453
 20
-18.84529946156098
 30
0.0
 11
-5.9999999999995453
 21
-21.154700538319489
 31
0.0
1001
GRPNAME
1000
00000001
  0
LINE
  5
463E
  8
241
 10
-9.9999999999995453
 20
-18.84529946156098
 30
0.0
 11
-9.9999999999995453
 21
-21.154700538319531
 31
0.0
1001
GRPNAME
1000
00000001
  0
LINE
  5
463F
  8
241
 10
-7.9999999999996581
 20
-22.30940107669878
 30
0.0
 11
-9.9999999999995453
 21
-21.154700538319531
 31
0.0
1001
GRPNAME
1000
00000001
  0
LINE
  5
4640
  8
241
 10
-5.9999999999995453
 20
-18.84529946156098
 30
0.0
 11
-7.9999999999996581
 21
-17.690598923181749
 31
0.0
1001
GRPNAME
1000
00000001
  0
LINE
  5
4641
  8
241
 10
-9.9999999999995453
 20
-18.84529946156098
 30
0.0
 11
-7.9999999999996581
 21
-17.690598923181749
 31
0.0
1001
GRPNAME
1000
00000001
  0
CIRCLE
  5
4642
  8
241
 10
-7.9999999999996581
 20
-19.99999999994029
 30
0.0
 40
4.25
1001
GRPNAME
1000
00000001
  0
LINE
  5
4643
  8
241
 10
-20.500001654212038
 20
-8.5594010766984496
 30
0.0
 11
-22.500001654212038
 21
-7.4047005383192008
 31
0.0
1001
GRPNAME
1000
00000001
  0
LINE
  5
4644
  8
241
 10
-20.500001654212038
 20
-8.5594010766984496
 30
0.0
 11
-18.500001654212038
 21
-7.4047005383191484
 31
0.0
1001
GRPNAME
1000
00000001
  0
LINE
  5
4645
  8
241
 10
-26.500001654212781
 20
0.0000000000923279
 30
0.0
 11
-26.50000165421136
 21
-7.3484632629408493
 31
0.0
  0
LINE
  5
4646
  8
241
 10
-22.500001654212038
 20
-5.0952994615606544
 30
0.0
 11
-22.500001654212038
 21
-7.4047005383192008
 31
0.0
1001
GRPNAME
1000
00000001
  0
LINE
  5
4647
  8
241
 10
-18.500001654212038
 20
-5.0952994615606544
 30
0.0
 11
-18.500001654212038
 21
-7.4047005383191484
 31
0.0
1001
GRPNAME
1000
00000001
  0
CIRCLE
  5
4648
  8
241
 10
-20.500001654212038
 20
-6.2499999999399556
 30
0.0
 40
4.25
1001
GRPNAME
1000
00000001
  0
ARC
  5
4649
  8
241
 10
0.0
 20
0.0000000000000142
 30
0.0
 40
27.5
 50
195.49871985876041
 51
344.50128014123419
  0
ARC
  5
464A
  8
241
 10
0.0
 20
0.0000000000000142
 30
0.0
 40
27.5
 50
15.4987198587605
 51
164.50128014123399
  0
LINE
  5
464B
  8
241
 10
27.999999999999091
 20
-22.627416997877599
 30
0.0
 11
27.999999999999211
 21
22.627416998064081
 31
0.0
  0
LINE
  5
464C
  8
241
 10
29.999999999999432
 20
-27.946377224871519
 30
0.0
 11
29.999999999999432
 21
27.946377225058448
 31
0.0
  0
LINE
  5
464D
  8
241
 10
-28.0000000000075
 20
22.627416998032128
 30
0.0
 11
-29.999999999999091
 21
23.118400135337321
 31
0.0
  0
LINE
  5
464E
  8
241
 10
-28.000000000061959
 20
-22.627416997589862
 30
0.0
 11
-29.999999999999091
 21
-23.11840013503797
 31
0.0
  0
LINE
  5
464F
  8
241
 10
-28.000000000061959
 20
-22.627416997799379
 30
0.0
 11
-28.0000000000075
 21
22.62741699805386
 31
0.0
  0
LINE
  5
4650
  8
241
 10
-29.999999999999091
 20
-27.946377224871739
 30
0.0
 11
-29.999999999999091
 21
27.946377225058558
 31
0.0
  0
ARC
  5
4651
  8
241
 10
0.0
 20
0.0000000000933511
 30
0.0
 40
41.0
 50
123.9763529138875
 51
137.02971606825821
  0
ARC
  5
4652
  8
241
 10
0.0
 20
0.0000000000934648
 30
0.0
 40
36.000000000000121
 50
111.4784180051707
 51
141.05755873103359
  0
LINE
  5
4653
  8
241
 10
22.00000000000011
 20
-39.000000450359828
 30
0.0
 11
22.00000000000011
 21
-34.000000450359593
 31
0.0
  0
LINE
  5
4654
  8
241
 10
22.00000000000011
 20
-39.000000450359828
 30
0.0
 11
21.500000000000231
 21
-39.500000450359813
 31
0.0
  0
LINE
  5
4655
  8
241
 10
11.906000000000169
 20
-39.500000450359813
 30
0.0
 11
11.906000000000169
 21
-34.000000450359593
 31
0.0
  0
LINE
  5
4656
  8
241
 10
13.181426158923159
 20
-33.500000065829909
 30
0.0
 11
14.04830317452854
 21
-34.000000056594772
 31
0.0
  0
LINE
  5
4657
  8
241
 10
-11.905999999999951
 20
-39.500000450359813
 30
0.0
 11
-11.905999999999951
 21
-34.000000450359721
 31
0.0
  0
LINE
  5
4658
  8
241
 10
-13.18142615892293
 20
-33.500000065829909
 30
0.0
 11
-14.04830317452843
 21
-34.000000056594772
 31
0.0
  0
LINE
  5
4659
  8
241
 10
-21.999999999998579
 20
-39.000000450359828
 30
0.0
 11
-21.99999999999994
 21
-34.000000450359721
 31
0.0
  0
LINE
  5
465A
  8
241
 10
-21.499999999996479
 20
-39.500000450359813
 30
0.0
 11
-21.999999999998579
 21
-39.000000450359828
 31
0.0
  0
LINE
  5
465B
  8
241
 10
-21.499999999996479
 20
-39.500000450359813
 30
0.0
 11
21.500000000000231
 21
-39.500000450359813
 31
0.0
  0
LINE
  5
465C
  8
241
 10
-22.912878530795808
 20
-33.999999962156252
 30
0.0
 11
22.912878530796551
 21
-34.000000450359593
 31
0.0
  0
LINE
  5
465D
  8
241
 10
-13.18142615892293
 20
-33.500000065829909
 30
0.0
 11
13.1814254451408
 21
-33.500000346685823
 31
0.0
  0
LINE
  5
465E
  8
242
 10
-11.905999999999951
 20
-34.000000450359721
 30
0.0
 11
11.906000000000169
 21
-39.500000450359813
 31
0.0
  0
LINE
  5
465F
  8
242
 10
11.906000000000169
 20
-34.000000450359593
 30
0.0
 11
-11.905999999999951
 21
-39.500000450359813
 31
0.0
  0
ARC
  5
4660
  8
241
 10
0.0
 20
0.0000000000935785
 30
0.0
 40
41.0
 50
222.9702839317417
 51
236.0236470861125
  0
ARC
  5
4661
  8
241
 10
0.0
 20
0.0000000000934648
 30
0.0
 40
36.000000000000121
 50
218.9424412688214
 51
248.52158244546749
  0
ARC
  5
4662
  8
241
 10
0.0
 20
0.0000000000935785
 30
0.0
 40
41.0
 50
303.97635291389543
 51
317.02971606825832
  0
ARC
  5
4663
  8
241
 10
0.0
 20
0.0000000000934648
 30
0.0
 40
36.000000000000121
 50
291.4784163337327
 51
321.05755873101288
  0
LINE
  5
4664
  8
245
  6
CENTER2
 10
-75.704761275630631
 20
0.000000000000469
 30
0.0
 11
73.500000000000341
 21
0.000000000000469
 31
0.0
1001
GRPNAME
1000
00000001
  0
LINE
  5
4665
  8
245
  6
CENTER2
 10
-75.704761275630574
 20
0.000000000000469
 30
0.0
 11
73.500000000000341
 21
0.000000000000469
 31
0.0
1001
GRPNAME
1000
00000003
  0
ARC
  5
4666
  8
240
  6
CONTINUOUS
 10
-36.949063049876031
 20
-96.34603266954224
 30
0.0
 40
21.000000000000021
 50
105.0000000475568
 51
135.00000004756129
1001
GRPNAME
1000
PASTMD03
  0
ARC
  5
4667
  8
240
  6
CONTINUOUS
 10
-96.346032669544456
 20
-36.949063049870787
 30
0.0
 40
21.000000000000011
 50
315.0000000758418
 51
345.00000007583589
1001
GRPNAME
1000
PASTMD03
  0
LINE
  5
4668
  8
240
  6
CONTINUOUS
 10
-51.798305454793187
 20
-81.496790264624408
 30
0.0
 11
-62.932503525604879
 21
-92.630988335435717
 31
0.0
1001
GRPNAME
1000
PASTMD03
  0
ARC
  5
4669
  8
241
 10
-77.781745930521936
 20
-77.781745930517758
 30
0.0
 40
21.0
 50
315.0000000000004
 51
135.00000000000031
1001
GRPNAME
1000
PASTMD03
  0
LINE
  5
466A
  8
240
  6
CONTINUOUS
 10
-81.496790264627407
 20
-51.798305454788633
 30
0.0
 11
-92.630988335439156
 21
-62.932503525600033
 31
0.0
1001
GRPNAME
1000
PASTMD03
  0
LINE
  5
466B
  8
245
  6
CENTER2
 10
-60.344309759548871
 20
-95.219182101490858
 30
0.0
 11
-95.219182101491654
 21
-60.344309759548302
 31
0.0
1001
GRPNAME
1000
PASTMD03
  0
LINE
  5
466C
  8
240
  6
CONTINUOUS
 10
-42.384262997028877
 20
-76.061590317471882
 30
0.0
 11
16.176190318907739
 21
-60.370364143066212
 31
0.0
1001
GRPNAME
1000
PASTMD03
  0
ARC
  5
466D
  8
240
 10
0.0
 20
0.000000000000469
 30
0.0
 40
62.50000000000032
 50
344.99999999999892
 51
164.99999999999889
  0
LINE
  5
466E
  8
240
  6
CONTINUOUS
 10
-76.061590310279939
 20
-42.384262970175172
 30
0.0
 11
-60.370361718384693
 21
16.176199367943479
 31
0.0
1001
GRPNAME
1000
PASTMD03
  0
LINE
  5
466F
  8
245
  6
CENTER2
 10
-27.500000000001371
 20
47.631397208143071
 30
0.0
 11
27.500000000001481
 21
-47.631397208143071
 31
0.0
  0
LINE
  5
4670
  8
245
  6
CENTER2
 10
0.0
 20
72.000000000000114
 30
0.0
 11
0.0
 21
-73.80996124149226
 31
0.0
1001
GRPNAME
1000
PASTMD03
  0
LINE
  5
4671
  8
245
  6
CENTER2
 10
47.72970773009331
 20
47.72970773009137
 30
0.0
 11
-95.623378731493744
 21
-95.623378731488771
 31
0.0
1001
GRPNAME
1000
PASTMD03
  0
LINE
  5
4672
  8
245
  6
CENTER2
 10
0.0
 20
72.000000000000114
 30
0.0
 11
0.0
 21
-73.80996124149226
 31
0.0
  0
LINE
  5
4673
  8
241
 10
18.50000165421261
 20
5.0952994615606819
 30
0.0
 11
20.50000165421261
 21
3.9405989231814398
 31
0.0
1001
GRPNAME
1000
00000001
  0
LINE
  5
4674
  8
241
 10
-7.9999999999996581
 20
-22.30940107669878
 30
0.0
 11
-5.9999999999995453
 21
-21.154700538319531
 31
0.0
1001
GRPNAME
1000
00000001
  0
ARC
  5
4675
  8
240
  6
CONTINUOUS
 10
-77.781745930521936
 20
-77.781745930517815
 30
0.0
 40
21.0
 50
135.00000000000031
 51
315.00000000000028
1001
GRPNAME
1000
PASTMD03
  0
ARC
  5
4676
  8
241
 10
-0.0000000000001137
 20
0.0000000000003837
 30
0.0
 40
62.50000000000032
 50
164.99999999999881
 51
285.00000000000119
  0
ARC
  5
4677
  8
240
 10
-0.0000000000001137
 20
0.0000000000003837
 30
0.0
 40
62.50000000000032
 50
285.00000000000119
 51
344.99999999999892
  0
CIRCLE
  5
4678
  8
243
  6
HIDDEN2
 10
-0.0000000000001137
 20
0.0000000000002913
 30
0.0
 40
50.0
  0
ARC
  5
4679
  8
243
  6
HIDDEN2
 10
37.227360949833269
 20
26.92031939598662
 30
0.0
 40
0.2999999999999971
 50
120.00000001286161
 51
210.00000001285869
1001
GRPNAME
1000
PASTMD01
  0
LINE
  5
467A
  8
243
  6
HIDDEN2
 10
38.567553328698068
 20
22.61655358082551
 30
0.0
 11
38.567553328698068
 21
23.99903810387627
 31
0.0
1001
GRPNAME
1000
PASTMD01
  0
LINE
  5
467B
  8
243
  6
HIDDEN2
 10
40.067553328698068
 20
21.400961892523071
 30
0.0
 11
38.870286611396978
 21
22.092204154048378
 31
0.0
1001
GRPNAME
1000
PASTMD01
  0
LINE
  5
467C
  8
243
  6
HIDDEN2
 10
39.084828269862101
 20
29.003091624297959
 30
0.0
 11
38.132200325699053
 21
28.453091624297951
 31
0.0
1001
GRPNAME
1000
PASTMD01
  0
LINE
  5
467D
  8
243
  6
HIDDEN2
 10
40.584219845904038
 20
29.204812944778219
 30
0.0
 11
39.37232826986213
 21
28.50512701712189
 31
0.0
1001
GRPNAME
1000
PASTMD01
  0
LINE
  5
467E
  8
243
  6
HIDDEN2
 10
38.419700325699303
 20
27.955127017121882
 30
0.0
 11
37.077360949833292
 21
27.180127017121901
 31
0.0
1001
GRPNAME
1000
PASTMD01
  0
LINE
  5
467F
  8
243
  6
HIDDEN2
 10
44.659828269862139
 20
19.346908372101439
 30
0.0
 11
43.707200325699198
 21
18.796908372101441
 31
0.0
1001
GRPNAME
1000
PASTMD01
  0
LINE
  5
4680
  8
243
  6
HIDDEN2
 10
45.584219845904038
 20
20.544558906933968
 30
0.0
 11
44.372328269862123
 21
19.844872979277518
 31
0.0
1001
GRPNAME
1000
PASTMD01
  0
LINE
  5
4681
  8
243
  6
HIDDEN2
 10
43.419700325699289
 20
19.2948729792775
 30
0.0
 11
42.077360949833292
 21
18.519872979277519
 31
0.0
1001
GRPNAME
1000
PASTMD01
  0
LINE
  5
4682
  8
243
  6
HIDDEN2
 10
41.667553328698091
 20
18.629680600412819
 30
0.0
 11
36.967553328698159
 21
26.77031939598653
 31
0.0
1001
GRPNAME
1000
PASTMD01
  0
LINE
  5
4683
  8
243
  6
HIDDEN2
 10
43.707200325699198
 20
18.796908372101441
 30
0.0
 11
38.132200325699053
 21
28.453091624297951
 31
0.0
1001
GRPNAME
1000
PASTMD01
  0
LINE
  5
4684
  8
243
  6
HIDDEN2
 10
44.659828269862139
 20
19.346908372101439
 30
0.0
 11
39.084828269862101
 21
29.003091624297959
 31
0.0
1001
GRPNAME
1000
PASTMD01
  0
LINE
  5
4685
  8
243
  6
HIDDEN2
 10
31.52627944163169
 20
-32.605117766515257
 30
0.0
 11
12.473720558374
 21
-43.605117766515193
 31
0.0
1001
GRPNAME
1000
PASTMD0M
  0
LINE
  5
4686
  8
243
  6
HIDDEN2
 10
34.021176867626203
 20
-36.926406868010353
 30
0.0
 11
31.52627944163169
 21
-32.605117766515257
 31
0.0
1001
GRPNAME
1000
PASTMD0M
  0
LINE
  5
4687
  8
243
  6
HIDDEN2
 10
14.96861798436851
 20
-47.926406868010353
 30
0.0
 11
12.473720558374
 21
-43.605117766515193
 31
0.0
1001
GRPNAME
1000
PASTMD0M
  0
LINE
  5
4688
  8
243
  6
HIDDEN2
 10
-43.029800219206948
 20
11.5298002192099
 30
0.0
 11
-46.694678532242733
 21
17.877555660944999
 31
0.0
  0
LINE
  5
4689
  8
243
  6
HIDDEN2
 10
-43.029800219206948
 20
11.5298002192099
 30
0.0
 11
-49.377555660942001
 21
7.86492190617418
 31
0.0
  0
LINE
  5
468A
  8
243
  6
HIDDEN2
 10
-13.339745962152501
 20
43.105117766515207
 30
0.0
 11
-30.660254037841469
 21
33.105117766515221
 31
0.0
1001
GRPNAME
1000
PASTMD0M
  0
LINE
  5
468B
  8
243
  6
HIDDEN2
 10
-30.660254037841469
 20
33.105117766515221
 30
0.0
 11
-33.155151463835807
 21
37.426406868010261
 31
0.0
1001
GRPNAME
1000
PASTMD0M
  0
LINE
  5
468C
  8
243
  6
HIDDEN2
 10
-13.339745962152501
 20
43.105117766515207
 30
0.0
 11
-15.834643388147009
 21
47.426406868010197
 31
0.0
1001
GRPNAME
1000
PASTMD0M
  0
ARC
  5
468D
  8
243
  6
HIDDEN2
 10
41.927360949833663
 20
18.77968060041286
 30
0.0
 40
0.2999999999999971
 50
209.99999998714259
 51
299.99999998713832
1001
GRPNAME
1000
PASTMD01
  0
ENDBLK
  5
4691
  8
0
  0
ENDSEC
  0
SECTION
  2
ENTITIES
  0
TEXT
  5
199B
  8
241
 62
   211
 10
-60.409229540313419
 20
86.975031655402745
 30
0.0
 40
5.0
  1
HSK-A100-AG90-CA6SGM-329
  7
YOKO
 11
-60.409229540313419
 21
86.975031655402745
 31
0.0
 73
     1
  0
LINE
  5
1DC9
  8
250
 10
556.30881711839845
 20
79.038954624678297
 30
0.0
 11
540.06881711839833
 21
79.038954624678297
 31
0.0
  0
LINE
  5
1DCA
  8
250
 10
540.06881711839833
 20
79.038954624678297
 30
0.0
 11
537.94679238104845
 21
79.038954624678297
 31
0.0
  0
LINE
  5
1DCB
  8
250
 10
537.94679238104845
 20
79.038954624678297
 30
0.0
 11
530.57684812204593
 21
71.669010365675845
 31
0.0
  0
LINE
  5
1DCC
  8
250
 10
530.57684812204593
 20
71.669010365675845
 30
0.0
 11
529.0
 21
70.092162243629843
 31
0.0
  0
LINE
  5
1DCD
  8
250
 10
530.36925212938866
 20
71.87660635833295
 30
0.0
 11
529.0
 21
70.092162243629843
 31
0.0
  0
LINE
  5
1DCE
  8
250
 10
529.0
 20
70.092162243629843
 30
0.0
 11
530.78444411470309
 21
71.461414373018727
 31
0.0
  0
LINE
  5
1DD0
  8
250
 10
433.02306787791292
 20
-95.976932122082232
 30
0.0
 11
430.47076866679703
 21
-98.529231333197799
 31
0.0
  0
LINE
  5
1DD1
  8
250
 10
556.75000000000136
 20
-48.064409910035472
 30
0.0
 11
598.67068762080726
 21
-120.6731707574903
 31
0.0
  0
ARC
  5
1DD2
  8
250
 10
528.99999999999977
 20
0.0000000000001137
 30
0.0
 40
138.34137524160801
 50
225.92359188600341
 51
299.07640811399688
  0
LINE
  5
1DD6
  8
250
 10
529.0
 20
72.499999999999901
 30
0.0
 11
529.0
 21
139.34137524160769
 31
0.0
  0
LINE
  5
1DD7
  8
250
 10
433.02306787791281
 20
-95.976932122082161
 30
0.0
 11
430.4707686667976
 21
-98.529231333197103
 31
0.0
  0
ARC
  5
1DD8
  8
250
 10
529.0
 20
0.0000000000002842
 30
0.0
 40
138.34137524160741
 50
90.923591886004786
 51
224.07640811399381
  0
LINE
  5
1DDC
  8
250
 10
528.28238252116137
 20
-85.973888426586996
 30
0.0
 11
552.76238252116116
 21
-85.973888426586996
 31
0.0
  0
LINE
  5
1DDD
  8
250
 10
552.76238252116116
 20
-85.973888426586996
 30
0.0
 11
565.10619420950945
 21
-66.488569484620456
 31
0.0
  0
LINE
  5
1DDE
  8
250
 10
565.10619420950945
 20
-66.488569484620456
 30
0.0
 11
566.29957491552432
 21
-64.604758854405219
 31
0.0
  0
LINE
  5
1DDF
  8
250
 10
565.35420258285262
 20
-66.645681034438923
 30
0.0
 11
566.29957491552432
 21
-64.604758854405219
 31
0.0
  0
LINE
  5
1DE0
  8
250
 10
566.29957491552432
 20
-64.604758854405219
 30
0.0
 11
564.85818583616651
 21
-66.331457934802003
 31
0.0
  0
LINE
  5
1DE2
  8
250
 10
406.88444266872523
 20
-117.97745683229221
 30
0.0
 11
429.84444266872572
 21
-117.97745683229221
 31
0.0
  0
LINE
  5
1DE3
  8
250
 10
429.84444266872572
 20
-117.97745683229221
 30
0.0
 11
450.17128006065371
 21
-79.750691187463289
 31
0.0
  0
LINE
  5
1DE4
  8
250
 10
450.17128006065371
 20
-79.750691187463332
 30
0.0
 11
451.21825406947772
 21
-77.781745930518014
 31
0.0
  0
LINE
  5
1DE5
  8
250
 10
450.43049662018723
 20
-79.88852793001908
 30
0.0
 11
451.21825406947772
 21
-77.781745930518014
 31
0.0
  0
LINE
  5
1DE6
  8
250
 10
451.21825406947772
 20
-77.781745930518014
 30
0.0
 11
449.912063501121
 21
-79.612854444907555
 31
0.0
  0
LINE
  5
1E1C
  8
250
 10
325.00000000000182
 20
12.499999981162031
 30
0.0
 11
355.0
 21
12.499999981162031
 31
0.0
  0
LINE
  5
1E1D
  8
250
 10
321.40000056882587
 20
-16.00000001874448
 30
0.0
 11
355.0
 21
-16.00000001874449
 31
0.0
  0
LINE
  5
1E1E
  8
250
 10
354.0
 20
10.26999998116203
 30
0.0
 11
354.0
 21
-13.77000001874449
 31
0.0
  0
LINE
  5
1E22
  8
250
 10
316.0000000000021
 20
12.999999981162031
 30
0.0
 11
316.0000000000021
 21
29.0
 31
0.0
  0
LINE
  5
1E23
  8
250
 10
322.0000000000021
 20
12.999999981162031
 30
0.0
 11
322.0000000000021
 21
29.0
 31
0.0
  0
LINE
  5
1E24
  8
250
 10
313.77000000000209
 20
28.0
 30
0.0
 11
311.54000000000212
 21
28.0
 31
0.0
  0
LINE
  5
1E25
  8
250
 10
324.23000000000212
 20
28.0
 30
0.0
 11
342.3266666666687
 21
28.0
 31
0.0
  0
LINE
  5
1E26
  8
250
 10
316.0000000000021
 20
28.0
 30
0.0
 11
322.0000000000021
 21
28.0
 31
0.0
  0
LINE
  5
1E2A
  8
250
 10
-10.00000000000052
 20
49.500000000000171
 30
0.0
 11
-10.00000000000022
 21
78.0
 31
0.0
  0
LINE
  5
1E2B
  8
250
 10
319.00000000000227
 20
14.20604008790218
 30
0.0
 11
319.00000000000227
 21
78.0
 31
0.0
  0
LINE
  5
1E2C
  8
250
 10
-7.7700000000002252
 20
77.0
 30
0.0
 11
316.77000000000209
 21
77.0
 31
0.0
  0
TEXT
  5
1E30
  8
250
 10
149.8139209333653
 20
78.0
 30
0.0
 40
2.799999999999998
  1
329
  0
LINE
  5
1E31
  8
250
 10
316.77000000000209
 20
77.371666666666655
 30
0.0
 11
319.00000000000227
 21
77.0
 31
0.0
  0
LINE
  5
1E32
  8
250
 10
316.77000000000209
 20
76.62833333333333
 30
0.0
 11
319.00000000000227
 21
77.0
 31
0.0
  0
LINE
  5
1E33
  8
250
 10
319.00000000000227
 20
77.0
 30
0.0
 11
316.77000000000209
 21
77.0
 31
0.0
  0
LINE
  5
1E34
  8
250
 10
-7.7700000000002252
 20
76.62833333333333
 30
0.0
 11
-10.00000000000022
 21
77.0
 31
0.0
  0
LINE
  5
1E35
  8
250
 10
-7.7700000000002252
 20
77.371666666666655
 30
0.0
 11
-10.00000000000022
 21
77.0
 31
0.0
  0
LINE
  5
1E36
  8
250
 10
-10.00000000000022
 20
77.0
 30
0.0
 11
-7.7700000000002252
 21
77.0
 31
0.0
  0
TEXT
  5
1E37
  8
250
 10
326.92666666666878
 20
29.0
 30
0.0
 40
2.799999999999998
  1
MAX.
  0
TEXT
  5
1E38
  8
250
 10
336.5266666666688
 20
29.0
 30
0.0
 40
2.799999999999998
  1
\U+2205
  0
TEXT
  5
1E39
  8
250
 10
339.06000000000199
 20
29.0
 30
0.0
 40
2.799999999999998
  1
6
  0
LINE
  5
1E3A
  8
250
 10
324.23000000000212
 20
27.62833333333333
 30
0.0
 11
322.0000000000021
 21
28.0
 31
0.0
  0
LINE
  5
1E3B
  8
250
 10
324.23000000000212
 20
28.371666666666659
 30
0.0
 11
322.0000000000021
 21
28.0
 31
0.0
  0
LINE
  5
1E3C
  8
250
 10
322.0000000000021
 20
28.0
 30
0.0
 11
324.23000000000212
 21
28.0
 31
0.0
  0
LINE
  5
1E3D
  8
250
 10
313.77000000000209
 20
28.371666666666659
 30
0.0
 11
316.0000000000021
 21
28.0
 31
0.0
  0
LINE
  5
1E3E
  8
250
 10
313.77000000000209
 20
27.62833333333333
 30
0.0
 11
316.0000000000021
 21
28.0
 31
0.0
  0
LINE
  5
1E3F
  8
250
 10
316.0000000000021
 20
28.0
 30
0.0
 11
313.77000000000209
 21
28.0
 31
0.0
  0
TEXT
  5
1E40
  8
250
 10
353.0
 20
-6.4166666854578489
 30
0.0
 40
2.799999999999998
  1
28.5
 50
90.0
  0
LINE
  5
1E41
  8
250
 10
354.37166666666673
 20
-13.77000001874449
 30
0.0
 11
354.0
 21
-16.00000001874449
 31
0.0
  0
LINE
  5
1E42
  8
250
 10
353.62833333333327
 20
-13.77000001874449
 30
0.0
 11
354.0
 21
-16.00000001874449
 31
0.0
  0
LINE
  5
1E43
  8
250
 10
354.0
 20
-16.00000001874449
 30
0.0
 11
354.0
 21
-13.77000001874449
 31
0.0
  0
LINE
  5
1E44
  8
250
 10
353.62833333333327
 20
10.26999998116203
 30
0.0
 11
354.0
 21
12.499999981162031
 31
0.0
  0
LINE
  5
1E45
  8
250
 10
354.37166666666673
 20
10.26999998116203
 30
0.0
 11
354.0
 21
12.499999981162031
 31
0.0
  0
LINE
  5
1E46
  8
250
 10
354.0
 20
12.499999981162031
 30
0.0
 11
354.0
 21
10.26999998116203
 31
0.0
  0
TEXT
  5
1E73
  8
250
 10
399.3316078073338
 20
51.069369688604567
 30
0.0
 40
2.799999999999998
  1
\U+03B82
 50
67.499999999999275
  0
LINE
  5
1E74
  8
250
 10
526.76707688275212
 20
138.69505654387271
 30
0.0
 11
529.0
 21
138.34137524160769
 31
0.0
  0
LINE
  5
1E75
  8
250
 10
526.77306798024722
 20
137.9517473543726
 30
0.0
 11
529.0
 21
138.34137524160769
 31
0.0
  0
LINE
  5
1E76
  8
250
 10
529.0
 20
138.34137524160769
 30
0.0
 11
526.77007243149956
 21
138.3234019491226
 31
0.0
  0
TEXT
  5
1E77
  8
250
 10
542.86881711839851
 20
80.438954624678303
 30
0.0
 40
2.799999999999998
  1
刃先方向
  7
YOKO
  0
TEXT
  5
1E78
  8
250
 10
406.88444266872523
 20
-116.5774568322922
 30
0.0
 40
2.799999999999998
  1
位置決めピン
  7
YOKO
  0
TEXT
  5
1E79
  8
250
 10
528.28238252116137
 20
-84.573888426587004
 30
0.0
 40
2.799999999999998
  1
ドライブキー溝
  7
YOKO
  0
LINE
  5
1E7A
  8
250
 10
429.87870523677913
 20
-95.971937298398629
 30
0.0
 11
431.17787544798398
 21
-97.822124552010607
 31
0.0
  0
LINE
  5
1E7B
  8
250
 10
429.34886992269958
 20
-96.493299921146942
 30
0.0
 11
431.17787544798398
 21
-97.822124552010607
 31
0.0
  0
LINE
  5
1E7C
  8
250
 10
431.17787544798398
 20
-97.822124552010607
 30
0.0
 11
429.6137875797391
 21
-96.232618609772786
 31
0.0
  0
TEXT
  5
1E7D
  8
250
 10
509.0508057382454
 20
-135.90012730517549
 30
0.0
 40
2.799999999999998
  1
\U+03B81
 50
352.50000000000023
  0
LINE
  5
1E7E
  8
250
 10
432.5067000788473
 20
-99.651130077295846
 30
0.0
 11
431.17787544798381
 21
-97.822124552011275
 31
0.0
  0
LINE
  5
1E7F
  8
250
 10
433.02806270159562
 20
-99.121294763216596
 30
0.0
 11
431.17787544798381
 21
-97.822124552011275
 31
0.0
  0
LINE
  5
1E80
  8
250
 10
431.17787544798381
 20
-97.822124552011275
 30
0.0
 11
432.76738139022137
 21
-99.3862124202562
 31
0.0
  0
LINE
  5
1E81
  8
250
 10
596.04729397558276
 20
-120.58318371521391
 30
0.0
 11
598.17068762080737
 21
-119.80714535370591
 31
0.0
  0
LINE
  5
1E82
  8
250
 10
596.41376012770581
 20
-121.2299039049348
 30
0.0
 11
598.17068762080737
 21
-119.80714535370591
 31
0.0
  0
LINE
  5
1E83
  8
250
 10
598.17068762080737
 20
-119.80714535370591
 30
0.0
 11
596.23052705164434
 21
-120.9065438100743
 31
0.0
  0
LINE
  5
4027
  8
250
 10
-24.055475241705821
 20
-156.6778490344476
 30
0.0
 11
-58.284046670277263
 21
-156.6778490344476
 31
0.0
1001
ITEMNAME
1000
LNSP2
  0
LINE
  5
4028
  8
250
 10
10.99999999999933
 20
-95.499999999999943
 30
0.0
 11
10.99999999999933
 21
-76.000000000000185
 31
0.0
  0
LINE
  5
4029
  8
250
 10
20.99999999999957
 20
-90.999999999999943
 30
0.0
 11
20.99999999999957
 21
-76.000000000000185
 31
0.0
  0
LINE
  5
402A
  8
250
 10
13.22999999999934
 20
-77.000000000000213
 30
0.0
 11
18.769999999999548
 21
-77.000000000000213
 31
0.0
  0
LINE
  5
402B
  8
250
 10
-4.0000000000005951
 20
-98.144904710627131
 30
0.0
 11
-4.0000000000005951
 21
-76.000000000000185
 31
0.0
  0
LINE
  5
402C
  8
250
 10
10.99999999999933
 20
-95.499999999999943
 30
0.0
 11
10.99999999999933
 21
-76.000000000000185
 31
0.0
  0
LINE
  5
402D
  8
250
 10
-1.7700000000005911
 20
-77.000000000000213
 30
0.0
 11
8.7699999999993281
 21
-77.000000000000213
 31
0.0
  0
LINE
  5
402E
  8
250
 10
-10.00000000000041
 20
-35.424999999999898
 30
0.0
 11
-10.00000000000041
 21
-71.000000000000199
 31
0.0
  0
LINE
  5
402F
  8
250
 10
20.99999999999957
 20
-90.999999999999943
 30
0.0
 11
20.99999999999957
 21
-69.000000000000227
 31
0.0
  0
LINE
  5
4030
  8
250
 10
-7.7700000000004223
 20
-70.000000000000227
 30
0.0
 11
18.769999999999548
 21
-70.000000000000227
 31
0.0
  0
LINE
  5
4031
  8
250
 10
-23.500000000000512
 20
-0.0000000000001705
 30
0.0
 11
-23.00000000000048
 21
-0.0000000000001705
 31
0.0
  0
LINE
  5
4032
  8
250
 10
-8.9487512973332741
 20
-109.9999999999997
 30
0.0
 11
-25.000000000000512
 21
-109.9999999999999
 31
0.0
  0
LINE
  5
4033
  8
250
 10
-24.00000000000048
 20
-2.2300000000001869
 30
0.0
 11
-24.000000000000512
 21
-107.7700000000001
 31
0.0
  0
TEXT
  5
4034
  8
250
 10
-55.284046670277263
 20
-155.67784903444769
 30
0.0
 40
3.0
  1
位置決めブロック
  7
YOKO
1001
ITEMNAME
1000
LNSP3
1001
ACAD
1000
MTEXTBEGIN
1070
    73
1070
     1
1070
    44
1040
1.0
1070
    74
1070
     0
1000
MTEXTEND
  0
LINE
  5
4035
  8
250
 10
-10.00000000000041
 20
-35.424999999999898
 30
0.0
 11
-10.00000000000041
 21
-78.000000000000199
 31
0.0
  0
LINE
  5
4036
  8
250
 10
-4.0000000000005951
 20
-98.144904710627131
 30
0.0
 11
-4.0000000000005951
 21
-76.000000000000185
 31
0.0
  0
LINE
  5
4037
  8
250
 10
-12.23000000000042
 20
-77.000000000000213
 30
0.0
 11
-14.460000000000431
 21
-77.000000000000213
 31
0.0
  0
LINE
  5
4038
  8
250
 10
-1.7700000000005911
 20
-77.000000000000213
 30
0.0
 11
0.4599999999993969
 21
-77.000000000000213
 31
0.0
  0
LINE
  5
4039
  8
250
 10
-10.00000000000041
 20
-77.000000000000213
 30
0.0
 11
-4.0000000000005951
 21
-77.000000000000213
 31
0.0
  0
TEXT
  5
403A
  8
250
 10
-8.5000000000005098
 20
-76.000000000000199
 30
0.0
 40
3.0
  1
6
  0
LINE
  5
403B
  8
250
 10
-1.7700000000005911
 20
-77.371666666666911
 30
0.0
 11
-4.0000000000005951
 21
-77.000000000000213
 31
0.0
  0
LINE
  5
403C
  8
250
 10
-1.7700000000005911
 20
-76.628333333333558
 30
0.0
 11
-4.0000000000005951
 21
-77.000000000000213
 31
0.0
  0
LINE
  5
403D
  8
250
 10
-4.0000000000005951
 20
-77.000000000000213
 30
0.0
 11
-1.7700000000005911
 21
-77.000000000000213
 31
0.0
  0
LINE
  5
403E
  8
250
 10
-12.23000000000042
 20
-76.628333333333558
 30
0.0
 11
-10.00000000000041
 21
-77.000000000000213
 31
0.0
  0
LINE
  5
403F
  8
250
 10
-12.23000000000042
 20
-77.371666666666911
 30
0.0
 11
-10.00000000000041
 21
-77.000000000000213
 31
0.0
  0
LINE
  5
4040
  8
250
 10
-10.00000000000041
 20
-77.000000000000213
 30
0.0
 11
-12.23000000000042
 21
-77.000000000000213
 31
0.0
  0
LINE
  5
4041
  8
250
 10
-10.345362189456811
 20
-132.93123665043919
 30
0.0
 11
-24.055475241705821
 21
-156.6778490344476
 31
0.0
1001
ACAD
1000
DSTYLE
1002
{
1070
     5
1000
OPEN
1070
    78
1070
     8
1070
   140
1040
3.0
1002
}
  0
LINE
  5
4042
  8
250
 10
-10.667234964530021
 20
-132.745403317106
 30
0.0
 11
-9.2303621894568249
 21
-130.9999999999998
 31
0.0
  0
LINE
  5
4043
  8
250
 10
-10.023489414383601
 20
-133.1170699837725
 30
0.0
 11
-9.2303621894568249
 21
-130.9999999999998
 31
0.0
  0
LINE
  5
4044
  8
250
 10
-9.2303621894568249
 20
-130.9999999999998
 30
0.0
 11
-10.345362189456811
 21
-132.93123665043919
 31
0.0
  0
TEXT
  5
4045
  8
250
 10
-25.00000000000048
 20
-59.500000000000171
 30
0.0
 40
3.0
  1
110
 50
90.0
1001
ACAD
1000
MTEXTBEGIN
1070
    73
1070
     1
1070
    44
1040
1.0
1070
    74
1070
     0
1000
MTEXTEND
  0
LINE
  5
4046
  8
250
 10
-23.628333333333838
 20
-107.7700000000001
 30
0.0
 11
-24.000000000000512
 21
-109.9999999999999
 31
0.0
  0
LINE
  5
4047
  8
250
 10
-24.371666666667181
 20
-107.7700000000001
 30
0.0
 11
-24.000000000000512
 21
-109.9999999999999
 31
0.0
  0
LINE
  5
4048
  8
250
 10
-24.000000000000512
 20
-109.9999999999999
 30
0.0
 11
-24.000000000000512
 21
-107.7700000000001
 31
0.0
  0
LINE
  5
4049
  8
250
 10
-24.371666666667149
 20
-2.2300000000001869
 30
0.0
 11
-24.00000000000048
 21
-0.0000000000001705
 31
0.0
  0
LINE
  5
404A
  8
250
 10
-23.62833333333381
 20
-2.2300000000001869
 30
0.0
 11
-24.00000000000048
 21
-0.0000000000001705
 31
0.0
  0
LINE
  5
404B
  8
250
 10
-24.00000000000048
 20
-0.0000000000001705
 30
0.0
 11
-24.00000000000048
 21
-2.2300000000001869
 31
0.0
  0
TEXT
  5
404C
  8
250
 10
3.0714285714281271
 20
-69.000000000000227
 30
0.0
 40
3.0
  1
31
1001
ACAD
1000
MTEXTBEGIN
1070
    73
1070
     1
1070
    44
1040
1.0
1070
    74
1070
     0
1000
MTEXTEND
  0
LINE
  5
404D
  8
250
 10
18.769999999999548
 20
-69.628333333333558
 30
0.0
 11
20.99999999999957
 21
-70.000000000000227
 31
0.0
  0
LINE
  5
404E
  8
250
 10
18.769999999999548
 20
-70.371666666666911
 30
0.0
 11
20.99999999999957
 21
-70.000000000000227
 31
0.0
  0
LINE
  5
404F
  8
250
 10
20.99999999999957
 20
-70.000000000000227
 30
0.0
 11
18.769999999999548
 21
-70.000000000000227
 31
0.0
  0
LINE
  5
4050
  8
250
 10
-7.7700000000004339
 20
-70.371666666666911
 30
0.0
 11
-10.00000000000041
 21
-70.000000000000227
 31
0.0
  0
LINE
  5
4051
  8
250
 10
-7.7700000000004339
 20
-69.628333333333558
 30
0.0
 11
-10.00000000000041
 21
-70.000000000000227
 31
0.0
  0
LINE
  5
4052
  8
250
 10
-10.00000000000041
 20
-70.000000000000227
 30
0.0
 11
-7.7700000000004339
 21
-70.000000000000227
 31
0.0
  0
TEXT
  5
4053
  8
250
 10
0.4285714285708764
 20
-76.000000000000199
 30
0.0
 40
3.0
  1
15
1001
ACAD
1000
MTEXTBEGIN
1070
    73
1070
     1
1070
    44
1040
1.0
1070
    74
1070
     0
1000
MTEXTEND
  0
LINE
  5
4054
  8
250
 10
8.7699999999993281
 20
-76.628333333333558
 30
0.0
 11
10.99999999999933
 21
-77.000000000000213
 31
0.0
  0
LINE
  5
4055
  8
250
 10
8.7699999999993281
 20
-77.371666666666911
 30
0.0
 11
10.99999999999933
 21
-77.000000000000213
 31
0.0
  0
LINE
  5
4056
  8
250
 10
10.99999999999933
 20
-77.000000000000213
 30
0.0
 11
8.7699999999993281
 21
-77.000000000000213
 31
0.0
  0
LINE
  5
4057
  8
250
 10
-1.7700000000005911
 20
-77.371666666666911
 30
0.0
 11
-4.0000000000005951
 21
-77.000000000000213
 31
0.0
  0
LINE
  5
4058
  8
250
 10
-1.7700000000005911
 20
-76.628333333333558
 30
0.0
 11
-4.0000000000005951
 21
-77.000000000000213
 31
0.0
  0
LINE
  5
4059
  8
250
 10
-4.0000000000005951
 20
-77.000000000000213
 30
0.0
 11
-1.7700000000005911
 21
-77.000000000000213
 31
0.0
  0
TEXT
  5
405A
  8
250
 10
12.92857142857086
 20
-76.000000000000199
 30
0.0
 40
3.0
  1
10
  0
LINE
  5
405B
  8
250
 10
18.769999999999548
 20
-76.628333333333558
 30
0.0
 11
20.99999999999957
 21
-77.000000000000213
 31
0.0
  0
LINE
  5
405C
  8
250
 10
18.769999999999548
 20
-77.371666666666911
 30
0.0
 11
20.99999999999957
 21
-77.000000000000213
 31
0.0
  0
LINE
  5
405D
  8
250
 10
20.99999999999957
 20
-77.000000000000213
 30
0.0
 11
18.769999999999548
 21
-77.000000000000213
 31
0.0
  0
LINE
  5
405E
  8
250
 10
13.22999999999934
 20
-77.371666666666911
 30
0.0
 11
10.99999999999933
 21
-77.000000000000213
 31
0.0
  0
LINE
  5
405F
  8
250
 10
13.22999999999934
 20
-76.628333333333558
 30
0.0
 11
10.99999999999933
 21
-77.000000000000213
 31
0.0
  0
LINE
  5
4060
  8
250
 10
10.99999999999933
 20
-77.000000000000213
 30
0.0
 11
13.22999999999934
 21
-77.000000000000213
 31
0.0
  0
LINE
  5
4061
  8
250
 10
-42.24178141048256
 20
-49.204141969658963
 30
0.0
 11
-71.098924267625421
 21
-49.204141969658963
 31
0.0
1001
ITEMNAME
1000
LNSP2
  0
TEXT
  5
4062
  8
250
 10
-68.670352839053976
 20
-48.204141969658949
 30
0.0
 40
3.0
  1
HSK-A100
  7
YOKO
1001
ITEMNAME
1000
LNSP3
1001
ACAD
1000
MTEXTBEGIN
1070
    73
1070
     1
1070
    44
1040
1.0
1070
    74
1070
     0
1000
MTEXTEND
  0
LINE
  5
4063
  8
250
 10
-36.164937616944869
 20
-38.678739769592021
 30
0.0
 11
-42.24178141048256
 21
-49.204141969658963
 31
0.0
1001
ACAD
1000
DSTYLE
1002
{
1070
     5
1000
OPEN
1070
    78
1070
     8
1070
   140
1040
3.0
1002
}
  0
LINE
  5
4064
  8
250
 10
-36.4868103920181
 20
-38.492906436258693
 30
0.0
 11
-35.049937616944881
 21
-36.747503119152732
 31
0.0
  0
LINE
  5
4065
  8
250
 10
-35.843064841871659
 20
-38.864573102925362
 30
0.0
 11
-35.049937616944881
 21
-36.747503119152732
 31
0.0
  0
LINE
  5
4066
  8
250
 10
-35.049937616944881
 20
-36.747503119152732
 30
0.0
 11
-36.164937616944869
 21
-38.678739769592021
 31
0.0
  0
INSERT
  5
45E0
  8
250
  2
A$C70DE5ADB
 10
-10.00000000000052
 20
-0.0000000000001705
 30
0.0
  0
INSERT
  5
4692
  8
250
  2
A$C3F3566F4
 10
528.99999999990735
 20
-0.0000000000001776
 30
0.0
  0
VIEWPORT
  5
22
 67
     1
  8
0
 10
261.51769911504419
 20
148.5
 30
0.0
 40
523.0353982300885
 41
297.0
 68
     1
 69
     1
1001
ACAD
1000
MVIEW
1002
{
1070
    16
1010
0.0
1020
0.0
1030
0.0
1010
0.0
1020
0.0
1030
1.0
1040
0.0
1040
297.0
1040
261.51769911504419
1040
148.5
1040
50.0
1040
0.0
1040
0.0
1070
     0
1070
   100
1070
     1
1070
     1
1070
     0
1070
     0
1070
     0
1070
     0
1040
0.0
1040
0.0
1040
0.0
1040
1.0
1040
1.0
1040
10.0
1040
10.0
1070
     0
1002
{
1002
}
1002
}
1001
GENIUS_GENODEF_13
1002
{
1000
HIER
1070
     0
1002
}
1002
{
1000
MANEDIT
1070
     0
1002
}
1002
{
1000
NOSEL
1070
     0
1002
}
1002
{
1000
BEHIND
1070
     0
1002
}
1002
{
1000
OTHER
1070
     0
1002
}
1002
{
1000
REACTOR
1002
}
1001
GENIUS_GENOBJ-N-SDF_13
1002
{
1000
OWNER
1000
GEN
1002
}
1001
GENIUS_GENSCREG_15
1000
PF
1040
1.0
1000
DF
1040
1.0
1000
MIN
1011
0.0
1021
0.0
1031
0.0
1021
0.0
1031
0.0
1000
MAX
1011
523.0353982300885
1021
0.0
1031
0.0
1021
297.0
1031
0.0
1000
FLAGS
1070
     4
  0
ENDSEC
  0
EOF
