  0
SECTION
  2
HEADER
  9
$ACADVER
  1
AC1009
  9
$INSBASE
 10
0.0
 20
0.0
 30
0.0
  9
$EXTMIN
 10
-71.123394181043963
 20
-156.70218306222509
 30
-0.000000000000013
  9
$EXTMAX
 10
558.52983285719495
 20
139.34305093338889
 30
0.0000000000000023
  9
$LIMMIN
 10
0.0
 20
0.0
  9
$LIMMAX
 10
297.0
 20
210.0
  9
$ORTHOMODE
 70
     0
  9
$REGENMODE
 70
     1
  9
$FILLMODE
 70
     1
  9
$QTEXTMODE
 70
     0
  9
$MIRRTEXT
 70
     1
  9
$DRAGMODE
 70
     2
  9
$LTSCALE
 40
10.0
  9
$OSMODE
 70
  3071
  9
$ATTMODE
 70
     1
  9
$TEXTSIZE
 40
3.0
  9
$TRACEWID
 40
1.0
  9
$TEXTSTYLE
  7
YOKO
  9
$CLAYER
  8
250
  9
$CELTYPE
  6
BYLAYER
  9
$CECOLOR
 62
   256
  9
$DIMSCALE
 40
1.0
  9
$DIMASZ
 40
2.2299999999999991
  9
$DIMEXO
 40
0.5
  9
$DIMDLI
 40
7.0
  9
$DIMRND
 40
0.0
  9
$DIMDLE
 40
0.0
  9
$DIMEXE
 40
1.0
  9
$DIMTP
 40
0.0
  9
$DIMTM
 40
0.01
  9
$DIMTXT
 40
2.799999999999998
  9
$DIMCEN
 40
0.0
  9
$DIMTSZ
 40
0.0
  9
$DIMTOL
 70
     0
  9
$DIMLIM
 70
     0
  9
$DIMTIH
 70
     0
  9
$DIMTOH
 70
     0
  9
$DIMSE1
 70
     0
  9
$DIMSE2
 70
     0
  9
$DIMTAD
 70
     3
  9
$DIMZIN
 70
     9
  9
$DIMBLK
  1
OPEN
  9
$DIMASO
 70
     1
  9
$DIMSHO
 70
     1
  9
$DIMPOST
  1

  9
$DIMAPOST
  1

  9
$DIMALT
 70
     0
  9
$DIMALTD
 70
     2
  9
$DIMALTF
 40
25.399999999999999
  9
$DIMLFAC
 40
1.0
  9
$DIMTOFL
 70
     1
  9
$DIMTVP
 40
0.0
  9
$DIMTIX
 70
     1
  9
$DIMSOXD
 70
     0
  9
$DIMSAH
 70
     0
  9
$DIMBLK1
  1

  9
$DIMBLK2
  1

  9
$DIMSTYLE
  2
BIGT
  9
$DIMCLRD
 70
   256
  9
$DIMCLRE
 70
   256
  9
$DIMCLRT
 70
    40
  9
$DIMTFAC
 40
1.0
  9
$DIMGAP
 40
1.0
  9
$LUNITS
 70
     2
  9
$LUPREC
 70
     3
  9
$SKETCHINC
 40
1.0
  9
$FILLETRAD
 40
0.0
  9
$AUNITS
 70
     0
  9
$AUPREC
 70
     3
  9
$MENU
  1
.
  9
$ELEVATION
 40
0.0
  9
$PELEVATION
 40
0.0
  9
$THICKNESS
 40
0.0
  9
$LIMCHECK
 70
     0
  9
$BLIPMODE
 70
     0
  9
$CHAMFERA
 40
0.25
  9
$CHAMFERB
 40
0.25
  9
$SKPOLY
 70
     0
  9
$TDCREATE
 40
2453612.6927963542
  9
$TDUPDATE
 40
2456133.4008970028
  9
$TDINDWG
 40
0.0680397685
  9
$TDUSRTIMER
 40
0.0680395833
  9
$USRTIMER
 70
     1
  9
$ANGBASE
 50
0.0
  9
$ANGDIR
 70
     0
  9
$PDMODE
 70
     1
  9
$PDSIZE
 40
0.0
  9
$PLINEWID
 40
0.0
  9
$COORDS
 70
     2
  9
$SPLFRAME
 70
     0
  9
$SPLINETYPE
 70
     6
  9
$SPLINESEGS
 70
     4
  9
$ATTDIA
 70
     1
  9
$ATTREQ
 70
     1
  9
$HANDLING
 70
     1
  9
$HANDSEED
  5
4C8B
  9
$SURFTAB1
 70
     6
  9
$SURFTAB2
 70
     6
  9
$SURFTYPE
 70
     6
  9
$SURFU
 70
     6
  9
$SURFV
 70
     6
  9
$UCSNAME
  2

  9
$UCSORG
 10
0.0
 20
0.0
 30
0.0
  9
$UCSXDIR
 10
1.0
 20
0.0
 30
0.0
  9
$UCSYDIR
 10
0.0
 20
1.0
 30
0.0
  9
$PUCSNAME
  2

  9
$PUCSORG
 10
0.0
 20
0.0
 30
0.0
  9
$PUCSXDIR
 10
1.0
 20
0.0
 30
0.0
  9
$PUCSYDIR
 10
0.0
 20
1.0
 30
0.0
  9
$USERI1
 70
     1
  9
$USERI2
 70
     0
  9
$USERI3
 70
     0
  9
$USERI4
 70
     0
  9
$USERI5
 70
     0
  9
$USERR1
 40
0.0
  9
$USERR2
 40
0.0
  9
$USERR3
 40
0.0
  9
$USERR4
 40
0.0
  9
$USERR5
 40
0.0
  9
$WORLDVIEW
 70
     1
  9
$SHADEDGE
 70
     3
  9
$SHADEDIF
 70
    70
  9
$TILEMODE
 70
     1
  9
$MAXACTVP
 70
    16
  9
$PLIMCHECK
 70
     0
  9
$PEXTMIN
 10
1.0000000000000000E+020
 20
1.0000000000000000E+020
 30
1.0000000000000000E+020
  9
$PEXTMAX
 10
-1.0000000000000000E+020
 20
-1.0000000000000000E+020
 30
-1.0000000000000000E+020
  9
$PLIMMIN
 10
0.0
 20
0.0
  9
$PLIMMAX
 10
420.0
 20
297.0
  9
$UNITMODE
 70
     0
  9
$VISRETAIN
 70
     1
  9
$PLINEGEN
 70
     0
  9
$PSLTSCALE
 70
     1
  0
ENDSEC
  0
SECTION
  2
TABLES
  0
TABLE
  2
VPORT
 70
     1
  0
VPORT
  2
*ACTIVE
 70
     0
 10
0.0
 20
0.0
 11
1.0
 21
1.0
 12
243.70321933807551
 22
-8.6795660644181112
 13
0.0
 23
0.0
 14
7.0
 24
7.0
 15
7.0
 25
7.0
 16
0.0
 26
0.0
 36
1.0
 17
0.0
 27
0.0
 37
0.0
 40
310.84561104451399
 41
2.0332480818414318
 42
50.0
 43
0.0
 44
0.0
 50
0.0
 51
0.0
 71
     0
 72
  2000
 73
     1
 74
     0
 75
     0
 76
     0
 77
     0
 78
     0
  0
ENDTAB
  0
TABLE
  2
LTYPE
 70
    17
  0
LTYPE
  2
CONTINUOUS
 70
     0
  3
Solid line
 72
    65
 73
     0
 40
0.0
  0
LTYPE
  2
CENTER2
 70
     0
  3
___ _ ___ _ ___ _ ___ _ ___ _ ___ _ ___ _ ___ _
 72
    65
 73
     4
 40
1.125
 49
0.75
 49
-0.125
 49
0.125
 49
-0.125
  0
LTYPE
  2
HIDDEN2
 70
     0
  3
_ _ _ _ _ _ _ _ _ _ _ _ _ _ _ _ _ _ _ _ _ _ _ _
 72
    65
 73
     2
 40
0.1875
 49
0.125
 49
-0.0625
  0
LTYPE
  2
PHANTOM2
 70
     0
  3
___ _ _ ___ _ _ ___ _ _ ___ _ _ ___ _ _ ___ _ _
 72
    65
 73
     6
 40
1.25
 49
0.625
 49
-0.125
 49
0.125
 49
-0.125
 49
0.125
 49
-0.125
  0
LTYPE
  2
CENTER
 70
     0
  3
____ _ ____ _ ____ _ ____ _ ____ _ ____ _ ____ 
 72
    65
 73
     4
 40
2.0
 49
1.25
 49
-0.25
 49
0.25
 49
-0.25
  0
LTYPE
  2
AMCONSTR
 70
     0
  3
_______________________
 72
    65
 73
     2
 40
9999.0
 49
9999.0
 49
0.0
  0
LTYPE
  2
HIDDEN
 70
     0
  3
Hidden __ __ __ __ __ __ __ __ __ __ __ __ __ _
 72
    65
 73
     2
 40
9.5249999999999986
 49
6.349999999999997
 49
-3.174999999999998
  0
LTYPE
  2
ACANSTGB
 70
     0
  3
__ . . __ . .
 72
    65
 73
     6
 40
0.35433070866
 49
0.15748031496
 49
-0.03937007874
 49
0.03937007874
 49
-0.03937007874
 49
0.03937007874
 49
-0.03937007874
  0
LTYPE
  2
ACANSTGL
 70
     0
  3
_ _ _ _ _
 72
    65
 73
     2
 40
0.11811023622
 49
0.07874015748
 49
-0.03937007874
  0
LTYPE
  2
AMZIGZAG2
 70
     0
  3
/\/-/\/-/\/-/\/-/\/-/\/
 72
    65
 73
     2
 40
0.4401
 49
0.0001
 49
-0.4400000000000003
  0
ENDTAB
  0
TABLE
  2
LAYER
 70
    13
  0
LAYER
  2
0
 70
     0
 62
     7
  6
CONTINUOUS
  0
LAYER
  2
250
 70
     0
 62
     3
  6
CONTINUOUS
  0
LAYER
  2
240
 70
     0
 62
     4
  6
CONTINUOUS
  0
LAYER
  2
DEFPOINTS
 70
     0
 62
     7
  6
CONTINUOUS
  0
LAYER
  2
245
 70
     0
 62
     2
  6
CENTER2
  0
LAYER
  2
241
 70
     0
 62
   211
  6
CONTINUOUS
  0
LAYER
  2
242
 70
     0
 62
     3
  6
CONTINUOUS
  0
LAYER
  2
243
 70
     0
 62
   211
  6
HIDDEN2
  0
LAYER
  2
244
 70
     0
 62
     3
  6
HIDDEN2
  0
LAYER
  2
247
 70
     0
 62
    60
  6
CONTINUOUS
  0
LAYER
  2
AM_5
 70
     0
 62
     3
  6
CONTINUOUS
  0
ENDTAB
  0
TABLE
  2
STYLE
 70
     6
  0
STYLE
  2
STANDARD
 70
     0
 40
0.0
 41
1.0
 50
0.0
 71
     0
 42
3.0
  3
romans.shx
  4
extfont.shx
  0
STYLE
  2
YOKO
 70
     0
 40
0.0
 41
1.0
 50
0.0
 71
     0
 42
3.0
  3
romans.shx
  4
extfont.shx
  0
STYLE
  2
ACANSGDT
 70
     0
 40
0.0
 41
1.0
 50
0.0
 71
     0
 42
3.0
  3
amgdt.shx
  4

  0
ENDTAB
  0
TABLE
  2
VIEW
 70
     0
  0
ENDTAB
  0
TABLE
  2
UCS
 70
     0
  0
ENDTAB
  0
TABLE
  2
APPID
 70
    39
  0
APPID
  2
ACAD
 70
     0
  0
APPID
  2
ACADANNOTATIVE
 70
     0
  0
APPID
  2
GLOBAL
 70
     0
  0
APPID
  2
DETAIL
 70
     0
  0
APPID
  2
GRPNAME
 70
     0
  0
APPID
  2
GPARA
 70
     0
  0
APPID
  2
MCAD_NO_VIS
 70
     0
  0
APPID
  2
ACAD_TEMP_GRAPHIC
 70
     0
  0
APPID
  2
ACATTRIBSERVICES
 70
     0
  0
APPID
  2
GENIUS_GENSCREG_15
 70
     0
  0
APPID
  2
GENIUS_GENODEF_13
 70
     0
  0
APPID
  2
GENIUS_GENOBJ-N-SDF_13
 70
     0
  0
APPID
  2
GENIUS_GENREC_14
 70
     0
  0
APPID
  2
GENIUS_GENOBJ-N-REC_13
 70
     0
  0
APPID
  2
GENIUS_GENDIMSH_14
 70
     0
  0
APPID
  2
GENIUS_GENOBJ-N-DIM_13
 70
     0
  0
APPID
  2
GENIUS_GENDIM_13
 70
     0
  0
APPID
  2
GENIUS_GENDTOL_13
 70
     0
  0
APPID
  2
GENIUS_GENOLIS_13
 70
     0
  0
APPID
  2
GENIUS_GENOENT_13
 70
     0
  0
APPID
  2
GENIUS_GENOBJ-F-FEM_13
 70
     0
  0
APPID
  2
GENIUS_GENOREF_13
 70
     0
  0
APPID
  2
GENIUS_GEFFEM_13
 70
     0
  0
APPID
  2
GENIUS_GEFFEMP_13
 70
     0
  0
APPID
  2
AD_DRAW
 70
     0
  0
APPID
  2
DESIGNERASSEMBLIES
 70
     0
  0
APPID
  2
ACADM_DIM_EDIT
 70
     0
  0
APPID
  2
AMDT_DM_ADJ
 70
     0
  0
APPID
  2
GENIUS_GENFIL_13
 70
     0
  0
APPID
  2
GENIUS_GENOBJ-N-CHA_13
 70
     0
  0
APPID
  2
HATCH_TYPE
 70
     0
  0
APPID
  2
HATCH_DISPLAY
 70
     0
  0
APPID
  2
HATCH_DISTANCE
 70
     0
  0
APPID
  2
ACAD_DSTYLE_DIMBREAK
 70
     0
  0
APPID
  2
ACAD_DSTYLE_DIMJAG
 70
     0
  0
APPID
  2
ITEMNAME
 70
     0
  0
APPID
  2
ACAECLAYERSTANDARD
 70
     0
  0
APPID
  2
ACAD_EXEMPT_FROM_CAD_STANDARDS
 70
     0
  0
APPID
  2
ACAD_MLEADERVER
 70
     0
  0
ENDTAB
  0
TABLE
  2
DIMSTYLE
 70
     9
  0
DIMSTYLE
  2
STANDARD
 70
     0
  3

  4

  5

  6

  7

 40
1.0
 41
0.18
 42
0.0625
 43
0.38
 44
0.18
 45
0.0
 46
0.0
 47
0.0
 48
0.0
140
0.18
141
0.09
142
0.0
143
25.399999999999999
144
1.0
145
0.0
146
1.0
147
0.09
 71
     0
 72
     0
 73
     1
 74
     1
 75
     0
 76
     0
 77
     0
 78
     0
170
     0
171
     2
172
     0
173
     0
174
     0
175
     0
176
     0
177
     0
178
     0
  0
DIMSTYLE
  2
BIGT
 70
     0
  3

  4

  5

  6

  7

 40
1.0
 41
2.2299999999999991
 42
0.5
 43
7.0
 44
1.0
 45
0.0
 46
0.0
 47
0.0
 48
0.01
140
2.799999999999998
141
0.0
142
0.0
143
25.399999999999999
144
1.0
145
0.0
146
1.0
147
1.0
 71
     0
 72
     0
 73
     0
 74
     0
 75
     0
 76
     0
 77
     3
 78
     9
170
     0
171
     2
172
     1
173
     0
174
     1
175
     0
176
   256
177
   256
178
    40
  0
DIMSTYLE
  2
AM_ANSI
 70
     0
  3

  4
mm
  5

  6

  7

 40
1.0
 41
0.1
 42
0.05
 43
0.5
 44
0.1
 45
0.0
 46
0.0
 47
0.1
 48
0.1
140
0.12
141
0.0
142
0.0
143
25.399999999999999
144
1.0
145
0.0
146
0.71
147
0.06
 71
     0
 72
     0
 73
     1
 74
     1
 75
     0
 76
     0
 77
     0
 78
     7
170
     0
171
     2
172
     0
173
     0
174
     0
175
     0
176
   256
177
   256
178
     2
  0
DIMSTYLE
  2
AM_ANSI$3
 70
     0
  3

  4
mm
  5

  6

  7

 40
1.0
 41
0.1
 42
0.05
 43
0.5
 44
0.1
 45
0.0
 46
0.0
 47
0.1
 48
0.1
140
0.12
141
0.0
142
0.0
143
25.399999999999999
144
1.0
145
0.0
146
0.71
147
0.06
 71
     0
 72
     0
 73
     1
 74
     1
 75
     0
 76
     0
 77
     0
 78
     7
170
     0
171
     2
172
     0
173
     0
174
     0
175
     0
176
   256
177
   256
178
     2
  0
DIMSTYLE
  2
AM_ANSI$4
 70
     0
  3

  4
mm
  5

  6

  7

 40
1.0
 41
0.1
 42
0.05
 43
0.5
 44
0.1
 45
0.0
 46
0.0
 47
0.1
 48
0.1
140
0.12
141
0.0
142
0.0
143
25.399999999999999
144
1.0
145
0.0
146
0.71
147
0.06
 71
     0
 72
     0
 73
     1
 74
     1
 75
     0
 76
     0
 77
     0
 78
     7
170
     0
171
     2
172
     0
173
     0
174
     0
175
     0
176
   256
177
   256
178
     2
  0
DIMSTYLE
  2
AM_ANSI$7
 70
     0
  3

  4
mm
  5

  6

  7

 40
1.0
 41
0.1
 42
0.05
 43
0.5
 44
0.1
 45
0.0
 46
0.0
 47
0.1
 48
0.1
140
0.24
141
0.0
142
0.0
143
25.399999999999999
144
1.0
145
0.0
146
0.71
147
0.06
 71
     0
 72
     0
 73
     1
 74
     1
 75
     0
 76
     0
 77
     0
 78
     7
170
     0
171
     2
172
     0
173
     0
174
     0
175
     0
176
   256
177
   256
178
     2
  0
DIMSTYLE
  2
AM_ANSI$SF
 70
     0
  3

  4
mm
  5

  6

  7

 40
1.0
 41
0.1
 42
0.05
 43
0.5
 44
0.1
 45
0.0
 46
0.0
 47
0.1
 48
0.1
140
0.12
141
0.0
142
0.0
143
25.399999999999999
144
1.0
145
0.0
146
0.71
147
0.06
 71
     0
 72
     0
 73
     1
 74
     1
 75
     1
 76
     1
 77
     0
 78
     7
170
     0
171
     2
172
     0
173
     0
174
     0
175
     0
176
   256
177
   256
178
     2
  0
DIMSTYLE
  2
AM_ANSI$SH
 70
     0
  3

  4
mm
  5

  6

  7

 40
1.0
 41
0.1
 42
0.05
 43
0.5
 44
0.1
 45
0.0
 46
0.0
 47
0.1
 48
0.1
140
0.12
141
0.0
142
0.0
143
25.399999999999999
144
1.0
145
0.0
146
0.71
147
0.06
 71
     0
 72
     0
 73
     1
 74
     1
 75
     1
 76
     1
 77
     0
 78
     7
170
     0
171
     2
172
     0
173
     1
174
     0
175
     0
176
   256
177
   256
178
     2
  0
ENDTAB
  0
ENDSEC
  0
SECTION
  2
BLOCKS
  0
BLOCK
  8
0
  2
$MODEL_SPACE
 70
     0
 10
0.0
 20
0.0
 30
0.0
  3
$MODEL_SPACE
  1

  0
ENDBLK
  5
42C1
  8
0
  0
BLOCK
 67
     1
  8
0
  2
$PAPER_SPACE
 70
     0
 10
0.0
 20
0.0
 30
0.0
  3
$PAPER_SPACE
  1

  0
ENDBLK
  5
42BD
 67
     1
  8
0
  0
BLOCK
  8
0
  2
_OPEN
 70
     0
 10
0.0
 20
0.0
 30
0.0
  3
_OPEN
  1

  0
LINE
  5
595
  8
0
  6
BYBLOCK
 62
     0
 10
-1.0
 20
0.1666666666666666
 30
0.0
 11
0.0
 21
0.0
 31
0.0
  0
LINE
  5
596
  8
0
  6
BYBLOCK
 62
     0
 10
-1.0
 20
-0.1666666666666666
 30
0.0
 11
0.0
 21
0.0
 31
0.0
  0
LINE
  5
597
  8
0
  6
BYBLOCK
 62
     0
 10
0.0
 20
0.0
 30
0.0
 11
-1.0
 21
0.0
 31
0.0
  0
ENDBLK
  5
599
  8
0
  0
BLOCK
  8
0
  2
A$C21905ECA
 70
     0
 10
0.0
 20
0.0
 30
0.0
  3
A$C21905ECA
  1

  0
LINE
  5
4642
  8
241
 10
11.999999999999879
 20
-11.416407865104921
 30
0.0
 11
12.00000000000057
 21
11.41640786618602
 31
0.0
  0
LINE
  5
4643
  8
241
 10
-11.99999999999784
 20
-11.416407865106001
 30
0.0
 11
-12.0
 21
11.41640786593034
 31
0.0
  0
LINE
  5
4644
  8
241
 10
-14.999999999998179
 20
-7.9498743711737889
 30
0.0
 11
-14.99999999999886
 21
0.0000000000002274
 31
0.0
  0
LINE
  5
4645
  8
241
 10
-14.99999999999841
 20
7.9498743719122986
 30
0.0
 11
-14.99999999999886
 21
0.0000000000002274
 31
0.0
  0
ARC
  5
4646
  8
241
 10
0.0000000001431317
 20
-1.9999999989403221
 30
0.0
 40
18.0
 50
128.94244127442161
 51
146.44269023889581
  0
ARC
  5
4647
  8
241
 10
5.5000000000005684
 20
11.999999999997611
 30
0.0
 40
0.5
 50
0.0
 51
90.0
  0
ARC
  5
4648
  8
241
 10
-5.4999999999996581
 20
11.999999999997611
 30
0.0
 40
0.5
 50
90.0
 51
180.0
  0
LINE
  5
4649
  8
241
 10
-5.4999999999996581
 20
12.499999999997611
 30
0.0
 11
5.5000000000004539
 21
12.499999999997611
 31
0.0
  0
LINE
  5
464A
  8
241
 10
-11.313708500170829
 20
11.99999999998543
 30
0.0
 11
0.0000000000003411
 21
11.99999999999795
 31
0.0
  0
LINE
  5
464B
  8
241
 10
11.31370850045618
 20
11.99999999998635
 30
0.0
 11
0.0000000000003411
 21
11.99999999999795
 31
0.0
  0
ARC
  5
464C
  8
241
 10
0.0000000001431317
 20
-1.9999999989403221
 30
0.0
 40
18.0
 50
33.557309762752247
 51
51.057558725578389
  0
LINE
  5
464D
  8
241
 10
14.99999999999943
 20
7.9498743723424887
 30
0.0
 11
15.000000000000229
 21
0.0000000000001137
 31
0.0
  0
LINE
  5
464E
  8
241
 10
15.0
 20
-7.9498743711726529
 30
0.0
 11
15.000000000000229
 21
0.0000000000001137
 31
0.0
  0
ARC
  5
464F
  8
241
 10
0.0000000000003411
 20
1.999999999894269
 30
0.0
 40
18.0
 50
308.94244126948058
 51
326.44269023807271
  0
LINE
  5
4650
  8
241
 10
11.31370849910695
 20
-12.0000000000075
 30
0.0
 11
0.0000000000002274
 21
-11.999999999998391
 31
0.0
  0
LINE
  5
4651
  8
241
 10
6.0000000000002274
 20
-12.000000000000441
 30
0.0
 11
6.0000000000002274
 21
-12.300000000001431
 31
0.0
  0
LINE
  5
4652
  8
241
 10
6.0000000000002274
 20
-12.300000000001431
 30
0.0
 11
5.0000009536745429
 21
-12.29999999999915
 31
0.0
  0
ARC
  5
4653
  8
241
 10
3.9999990463257968
 20
-13.500000000001471
 30
0.0
 40
2.0
 50
270.0
 51
300.00006309460503
  0
LINE
  5
4654
  8
241
 10
5.0000009536761354
 20
-15.23204970635982
 30
0.0
 11
5.0000009536745429
 21
-12.29999999999915
 31
0.0
  0
LINE
  5
4655
  8
241
 10
-5.999999999999317
 20
-12.000000000000441
 30
0.0
 11
-5.999999999999317
 21
-12.300000000001431
 31
0.0
  0
LINE
  5
4656
  8
241
 10
-5.999999999999317
 20
-12.300000000001431
 30
0.0
 11
-5.0000009536735197
 21
-12.29999999999915
 31
0.0
  0
ARC
  5
4657
  8
241
 10
-3.999999046325001
 20
-13.500000000001471
 30
0.0
 40
2.0
 50
239.99993690539509
 51
270.00000000000648
  0
LINE
  5
4658
  8
241
 10
-3.9999990463248869
 20
-15.500000000001471
 30
0.0
 11
0.0000000000003411
 21
-15.50000000000351
 31
0.0
  0
LINE
  5
4659
  8
241
 10
-5.0000009536751122
 20
-15.23204970635982
 30
0.0
 11
-5.0000009536735197
 21
-12.29999999999915
 31
0.0
  0
LINE
  5
465A
  8
241
 10
3.9999990463256831
 20
-15.500000000001471
 30
0.0
 11
0.0000000000003411
 21
-15.50000000000351
 31
0.0
  0
LINE
  5
465B
  8
241
 10
-11.31370849910172
 20
-12.00000000001091
 30
0.0
 11
0.0000000000002274
 21
-11.999999999998391
 31
0.0
  0
ARC
  5
465C
  8
241
 10
0.0000000000003411
 20
1.999999999894269
 30
0.0
 40
18.0
 50
213.55730976192831
 51
231.05755873053619
  0
LINE
  5
465D
  8
241
 10
21.499999999999321
 20
39.50000000009107
 30
0.0
 11
21.999999999999769
 21
39.000000000091063
 31
0.0
  0
ARC
  5
465E
  8
241
 10
0.0000000000003411
 20
0.0000000000933369
 30
0.0
 40
41.0
 50
42.97028393174174
 51
56.023647086104582
  0
LINE
  5
465F
  8
241
 10
28.000000000008072
 20
22.62741699803211
 30
0.0
 11
29.999999999999432
 21
23.118400135337311
 31
0.0
  0
LINE
  5
4660
  8
241
 10
13.1814261589235
 20
33.500000066016817
 30
0.0
 11
14.048303174528881
 21
34.000000056781687
 31
0.0
  0
LINE
  5
4661
  8
241
 10
10.000000000000339
 20
18.845299461561002
 30
0.0
 11
10.000000000000339
 21
21.154700538319489
 31
0.0
1001
GRPNAME
1000
00000001
  0
LINE
  5
4662
  8
241
 10
6.0000000000003411
 20
18.845299461561002
 30
0.0
 11
8.0000000000002274
 21
17.69059892318176
 31
0.0
1001
GRPNAME
1000
00000001
  0
LINE
  5
4663
  8
241
 10
8.0000000000002274
 20
22.309401076698801
 30
0.0
 11
6.0000000000003411
 21
21.154700538319549
 31
0.0
1001
GRPNAME
1000
00000001
  0
LINE
  5
4664
  8
241
 10
6.0000000000003411
 20
18.845299461561002
 30
0.0
 11
6.0000000000003411
 21
21.154700538319549
 31
0.0
1001
GRPNAME
1000
00000001
  0
CIRCLE
  5
4665
  8
241
 10
8.0000000000002274
 20
19.999999999940311
 30
0.0
 40
4.25
1001
GRPNAME
1000
00000001
  0
LINE
  5
4666
  8
241
 10
8.0000000000002274
 20
22.309401076698801
 30
0.0
 11
10.000000000000339
 21
21.154700538319489
 31
0.0
1001
GRPNAME
1000
00000001
  0
LINE
  5
4667
  8
241
 10
10.000000000000339
 20
18.845299461561002
 30
0.0
 11
8.0000000000002274
 21
17.69059892318176
 31
0.0
1001
GRPNAME
1000
00000001
  0
ARC
  5
4668
  8
241
 10
0.0000000000003411
 20
0.0000000000934506
 30
0.0
 40
36.000000000000121
 50
38.94244126898711
 51
68.52158199482929
  0
LINE
  5
4669
  8
241
 10
21.999999999999769
 20
39.000000000091063
 30
0.0
 11
22.000000000000451
 21
33.999999962342848
 31
0.0
  0
LINE
  5
466A
  8
241
 10
11.906000000000519
 20
39.50000000009117
 30
0.0
 11
11.906000000000059
 21
33.999999962343047
 31
0.0
  0
LINE
  5
466B
  8
241
 10
-21.999999999999599
 20
39.000000000091063
 30
0.0
 11
-21.499999999999599
 21
39.50000000009107
 31
0.0
  0
LINE
  5
466C
  8
241
 10
-9.9999999999992042
 20
18.845299461561002
 30
0.0
 11
-7.999999999999317
 21
17.69059892318176
 31
0.0
1001
GRPNAME
1000
00000001
  0
LINE
  5
466D
  8
241
 10
-7.999999999999317
 20
22.309401076698801
 30
0.0
 11
-9.9999999999992042
 21
21.154700538319549
 31
0.0
1001
GRPNAME
1000
00000001
  0
LINE
  5
466E
  8
241
 10
-9.9999999999992042
 20
18.845299461561002
 30
0.0
 11
-9.9999999999992042
 21
21.154700538319549
 31
0.0
1001
GRPNAME
1000
00000001
  0
LINE
  5
466F
  8
241
 10
-7.999999999999317
 20
22.309401076698801
 30
0.0
 11
-5.9999999999992042
 21
21.154700538319489
 31
0.0
1001
GRPNAME
1000
00000001
  0
LINE
  5
4670
  8
241
 10
-5.9999999999992042
 20
18.845299461561002
 30
0.0
 11
-5.9999999999992042
 21
21.154700538319489
 31
0.0
1001
GRPNAME
1000
00000001
  0
LINE
  5
4671
  8
241
 10
-5.9999999999992042
 20
18.845299461561002
 30
0.0
 11
-7.999999999999317
 21
17.69059892318176
 31
0.0
1001
GRPNAME
1000
00000001
  0
CIRCLE
  5
4672
  8
241
 10
-7.999999999999317
 20
19.999999999940311
 30
0.0
 40
4.25
1001
GRPNAME
1000
00000001
  0
LINE
  5
4673
  8
241
 10
-13.181426158922591
 20
33.500000066016817
 30
0.0
 11
-14.04830317452808
 21
34.000000056781687
 31
0.0
  0
LINE
  5
4674
  8
241
 10
-11.90599999999961
 20
39.50000000009117
 30
0.0
 11
-11.905999999999951
 21
33.999999962343281
 31
0.0
  0
LINE
  5
4675
  8
241
 10
-21.999999999999599
 20
39.000000000091063
 30
0.0
 11
-21.999999999999599
 21
33.999999962343168
 31
0.0
  0
LINE
  5
4676
  8
242
 10
-11.90599999999961
 20
39.50000000009117
 30
0.0
 11
11.906000000000059
 21
33.999999962343047
 31
0.0
  0
LINE
  5
4677
  8
242
 10
11.906000000000519
 20
39.50000000009117
 30
0.0
 11
-11.905999999999951
 21
33.999999962343168
 31
0.0
  0
LINE
  5
4678
  8
241
 10
-22.912878530795471
 20
33.999999962343168
 30
0.0
 11
22.912878530796888
 21
33.999999962342848
 31
0.0
  0
LINE
  5
4679
  8
241
 10
-13.18142642240457
 20
33.499999962343182
 30
0.0
 11
13.181426422405931
 21
33.49999996234294
 31
0.0
  0
LINE
  5
467A
  8
241
 10
-21.499999999999599
 20
39.50000000009107
 30
0.0
 11
21.499999999999321
 21
39.50000000009107
 31
0.0
  0
LINE
  5
467B
  8
241
 10
20.500001654212952
 20
8.5594010766984603
 30
0.0
 11
22.500001654212952
 21
7.4047005383191591
 31
0.0
1001
GRPNAME
1000
00000001
  0
LINE
  5
467C
  8
241
 10
18.500001654212952
 20
5.0952994615606677
 30
0.0
 11
18.500001654212952
 21
7.4047005383192168
 31
0.0
1001
GRPNAME
1000
00000001
  0
LINE
  5
467D
  8
241
 10
20.500001654212952
 20
8.5594010766984603
 30
0.0
 11
18.500001654212952
 21
7.4047005383192168
 31
0.0
1001
GRPNAME
1000
00000001
  0
LINE
  5
467E
  8
241
 10
22.500001654212952
 20
5.0952994615606677
 30
0.0
 11
22.500001654212952
 21
7.4047005383191591
 31
0.0
1001
GRPNAME
1000
00000001
  0
LINE
  5
467F
  8
241
 10
18.500001654212952
 20
-5.0952994615606677
 30
0.0
 11
20.500001654212952
 21
-3.940598923181422
 31
0.0
1001
GRPNAME
1000
00000001
  0
LINE
  5
4680
  8
241
 10
22.500001654212952
 20
-5.0952994615606677
 30
0.0
 11
20.500001654212952
 21
-3.940598923181422
 31
0.0
1001
GRPNAME
1000
00000001
  0
LINE
  5
4681
  8
241
 10
26.50000165421352
 20
-0.0000000000923137
 30
0.0
 11
26.500001654212038
 21
7.3484632629408662
 31
0.0
  0
LINE
  5
4682
  8
241
 10
22.500001654212952
 20
5.0952994615606677
 30
0.0
 11
20.500001654212952
 21
3.940598923181426
 31
0.0
1001
GRPNAME
1000
00000001
  0
CIRCLE
  5
4683
  8
241
 10
20.500001654212952
 20
6.2499999999399716
 30
0.0
 40
4.25
1001
GRPNAME
1000
00000001
  0
LINE
  5
4684
  8
241
 10
20.500001654212952
 20
-8.5594010766984638
 30
0.0
 11
18.500001654212952
 21
-7.404700538319215
 31
0.0
1001
GRPNAME
1000
00000001
  0
LINE
  5
4685
  8
241
 10
20.500001654212952
 20
-8.5594010766984638
 30
0.0
 11
22.500001654212952
 21
-7.4047005383191618
 31
0.0
1001
GRPNAME
1000
00000001
  0
LINE
  5
4686
  8
241
 10
28.000000000062641
 20
-22.627416997589879
 30
0.0
 11
29.999999999999432
 21
-23.118400135037991
 31
0.0
  0
LINE
  5
4687
  8
241
 10
10.000000000000339
 20
-18.845299461560991
 30
0.0
 11
10.000000000000339
 21
-21.15470053831951
 31
0.0
1001
GRPNAME
1000
00000001
  0
LINE
  5
4688
  8
241
 10
6.0000000000003411
 20
-18.845299461560991
 30
0.0
 11
6.0000000000003411
 21
-21.154700538319538
 31
0.0
1001
GRPNAME
1000
00000001
  0
LINE
  5
4689
  8
241
 10
8.0000000000002274
 20
-22.309401076698801
 30
0.0
 11
6.0000000000003411
 21
-21.154700538319538
 31
0.0
1001
GRPNAME
1000
00000001
  0
LINE
  5
468A
  8
241
 10
8.0000000000002274
 20
-22.309401076698801
 30
0.0
 11
10.000000000000339
 21
-21.15470053831951
 31
0.0
1001
GRPNAME
1000
00000001
  0
LINE
  5
468B
  8
241
 10
10.000000000000339
 20
-18.845299461560991
 30
0.0
 11
8.0000000000002274
 21
-17.690598923181771
 31
0.0
1001
GRPNAME
1000
00000001
  0
LINE
  5
468C
  8
241
 10
6.0000000000003411
 20
-18.845299461560991
 30
0.0
 11
8.0000000000002274
 21
-17.690598923181771
 31
0.0
1001
GRPNAME
1000
00000001
  0
CIRCLE
  5
468D
  8
241
 10
8.0000000000002274
 20
-19.999999999940311
 30
0.0
 40
4.25
1001
GRPNAME
1000
00000001
  0
LINE
  5
468E
  8
241
 10
26.50000165421352
 20
0.0000000000939053
 30
0.0
 11
26.500001654210902
 21
-7.3484632629438202
 31
0.0
  0
LINE
  5
468F
  8
241
 10
22.500001654212952
 20
-5.0952994615606677
 30
0.0
 11
22.500001654212952
 21
-7.4047005383191618
 31
0.0
1001
GRPNAME
1000
00000001
  0
LINE
  5
4690
  8
241
 10
18.500001654212952
 20
-5.0952994615606677
 30
0.0
 11
18.500001654212952
 21
-7.404700538319215
 31
0.0
1001
GRPNAME
1000
00000001
  0
CIRCLE
  5
4691
  8
241
 10
20.500001654212952
 20
-6.2499999999399698
 30
0.0
 40
4.25
1001
GRPNAME
1000
00000001
  0
LINE
  5
4692
  8
241
 10
-18.500001654211701
 20
5.0952994615606677
 30
0.0
 11
-18.500001654211701
 21
7.4047005383191591
 31
0.0
1001
GRPNAME
1000
00000001
  0
LINE
  5
4693
  8
241
 10
-22.500001654211701
 20
5.0952994615606677
 30
0.0
 11
-22.500001654211701
 21
7.4047005383192168
 31
0.0
1001
GRPNAME
1000
00000001
  0
LINE
  5
4694
  8
241
 10
-20.500001654211701
 20
8.5594010766984603
 30
0.0
 11
-22.500001654211701
 21
7.4047005383192168
 31
0.0
1001
GRPNAME
1000
00000001
  0
LINE
  5
4695
  8
241
 10
-20.500001654211701
 20
8.5594010766984603
 30
0.0
 11
-18.500001654211701
 21
7.4047005383191591
 31
0.0
1001
GRPNAME
1000
00000001
  0
LINE
  5
4696
  8
241
 10
-22.500001654211701
 20
-5.0952994615606677
 30
0.0
 11
-20.500001654211701
 21
-3.940598923181422
 31
0.0
1001
GRPNAME
1000
00000001
  0
LINE
  5
4697
  8
241
 10
-18.500001654211701
 20
-5.0952994615606677
 30
0.0
 11
-20.500001654211701
 21
-3.940598923181422
 31
0.0
1001
GRPNAME
1000
00000001
  0
LINE
  5
4698
  8
241
 10
-26.50000165421261
 20
-0.0000000000939053
 30
0.0
 11
-26.50000165421017
 21
7.3484632629438229
 31
0.0
  0
LINE
  5
4699
  8
241
 10
-18.500001654211701
 20
5.0952994615606677
 30
0.0
 11
-20.500001654211701
 21
3.940598923181426
 31
0.0
1001
GRPNAME
1000
00000001
  0
LINE
  5
469A
  8
241
 10
-22.500001654211701
 20
5.0952994615606677
 30
0.0
 11
-20.500001654211701
 21
3.940598923181426
 31
0.0
1001
GRPNAME
1000
00000001
  0
CIRCLE
  5
469B
  8
241
 10
-20.500001654211701
 20
6.2499999999399716
 30
0.0
 40
4.25
1001
GRPNAME
1000
00000001
  0
LINE
  5
469C
  8
241
 10
-5.9999999999992042
 20
-18.845299461560991
 30
0.0
 11
-5.9999999999992042
 21
-21.15470053831951
 31
0.0
1001
GRPNAME
1000
00000001
  0
LINE
  5
469D
  8
241
 10
-9.9999999999992042
 20
-18.845299461560991
 30
0.0
 11
-9.9999999999992042
 21
-21.154700538319538
 31
0.0
1001
GRPNAME
1000
00000001
  0
LINE
  5
469E
  8
241
 10
-7.999999999999317
 20
-22.309401076698801
 30
0.0
 11
-9.9999999999992042
 21
-21.154700538319538
 31
0.0
1001
GRPNAME
1000
00000001
  0
LINE
  5
469F
  8
241
 10
-5.9999999999992042
 20
-18.845299461560991
 30
0.0
 11
-7.999999999999317
 21
-17.690598923181771
 31
0.0
1001
GRPNAME
1000
00000001
  0
LINE
  5
46A0
  8
241
 10
-9.9999999999992042
 20
-18.845299461560991
 30
0.0
 11
-7.999999999999317
 21
-17.690598923181771
 31
0.0
1001
GRPNAME
1000
00000001
  0
CIRCLE
  5
46A1
  8
241
 10
-7.999999999999317
 20
-19.999999999940311
 30
0.0
 40
4.25
1001
GRPNAME
1000
00000001
  0
LINE
  5
46A2
  8
241
 10
-20.500001654211701
 20
-8.5594010766984638
 30
0.0
 11
-22.500001654211701
 21
-7.404700538319215
 31
0.0
1001
GRPNAME
1000
00000001
  0
LINE
  5
46A3
  8
241
 10
-20.500001654211701
 20
-8.5594010766984638
 30
0.0
 11
-18.500001654211701
 21
-7.4047005383191618
 31
0.0
1001
GRPNAME
1000
00000001
  0
LINE
  5
46A4
  8
241
 10
-26.50000165421244
 20
0.0000000000923137
 30
0.0
 11
-26.500001654211019
 21
-7.3484632629408626
 31
0.0
  0
LINE
  5
46A5
  8
241
 10
-22.500001654211701
 20
-5.0952994615606677
 30
0.0
 11
-22.500001654211701
 21
-7.404700538319215
 31
0.0
1001
GRPNAME
1000
00000001
  0
LINE
  5
46A6
  8
241
 10
-18.500001654211701
 20
-5.0952994615606677
 30
0.0
 11
-18.500001654211701
 21
-7.4047005383191618
 31
0.0
1001
GRPNAME
1000
00000001
  0
CIRCLE
  5
46A7
  8
241
 10
-20.500001654211701
 20
-6.2499999999399698
 30
0.0
 40
4.25
1001
GRPNAME
1000
00000001
  0
ARC
  5
46A8
  8
241
 10
0.0000000000003411
 20
0.0
 30
0.0
 40
27.5
 50
195.4987198587595
 51
344.50128014123419
  0
ARC
  5
46A9
  8
241
 10
0.0000000000003411
 20
0.0
 30
0.0
 40
27.5
 50
15.49871985875963
 51
164.50128014123399
  0
LINE
  5
46AA
  8
241
 10
27.999999999999432
 20
-22.627416997877621
 30
0.0
 11
27.999999999999542
 21
22.62741699806406
 31
0.0
  0
LINE
  5
46AB
  8
241
 10
29.999999999999769
 20
-27.946377224871529
 30
0.0
 11
29.999999999999769
 21
27.946377225058431
 31
0.0
  0
LINE
  5
46AC
  8
241
 10
-28.000000000007159
 20
22.62741699803211
 30
0.0
 11
-29.999999999998749
 21
23.118400135337311
 31
0.0
  0
LINE
  5
46AD
  8
241
 10
-28.000000000061618
 20
-22.627416997589879
 30
0.0
 11
-29.999999999998749
 21
-23.118400135037991
 31
0.0
  0
LINE
  5
46AE
  8
241
 10
-28.000000000061618
 20
-22.62741699779939
 30
0.0
 11
-28.000000000007159
 21
22.627416998053839
 31
0.0
  0
LINE
  5
46AF
  8
241
 10
-29.999999999998749
 20
-27.94637722487176
 30
0.0
 11
-29.999999999998749
 21
27.946377225058541
 31
0.0
  0
ARC
  5
46B0
  8
241
 10
0.0000000000003411
 20
0.0000000000933369
 30
0.0
 40
41.0
 50
123.9763529138875
 51
137.02971606825821
  0
ARC
  5
46B1
  8
241
 10
0.0000000000003411
 20
0.0000000000934506
 30
0.0
 40
36.000000000000121
 50
111.4784180051707
 51
141.05755873103359
  0
LINE
  5
46B2
  8
241
 10
22.000000000000451
 20
-39.000000450359842
 30
0.0
 11
22.000000000000451
 21
-34.000000450359607
 31
0.0
  0
LINE
  5
46B3
  8
241
 10
22.000000000000451
 20
-39.000000450359842
 30
0.0
 11
21.500000000000568
 21
-39.500000450359828
 31
0.0
  0
LINE
  5
46B4
  8
241
 10
11.906000000000519
 20
-39.500000450359828
 30
0.0
 11
11.906000000000519
 21
-34.000000450359607
 31
0.0
  0
LINE
  5
46B5
  8
241
 10
13.1814261589235
 20
-33.500000065829923
 30
0.0
 11
14.048303174528881
 21
-34.000000056594793
 31
0.0
  0
LINE
  5
46B6
  8
241
 10
-11.90599999999961
 20
-39.500000450359828
 30
0.0
 11
-11.90599999999961
 21
-34.000000450359728
 31
0.0
  0
LINE
  5
46B7
  8
241
 10
-13.181426158922591
 20
-33.500000065829923
 30
0.0
 11
-14.04830317452808
 21
-34.000000056594793
 31
0.0
  0
LINE
  5
46B8
  8
241
 10
-21.999999999998241
 20
-39.000000450359842
 30
0.0
 11
-21.999999999999599
 21
-34.000000450359728
 31
0.0
  0
LINE
  5
46B9
  8
241
 10
-21.499999999996131
 20
-39.500000450359828
 30
0.0
 11
-21.999999999998241
 21
-39.000000450359842
 31
0.0
  0
LINE
  5
46BA
  8
241
 10
-21.499999999996131
 20
-39.500000450359828
 30
0.0
 11
21.500000000000568
 21
-39.500000450359828
 31
0.0
  0
LINE
  5
46BB
  8
241
 10
-22.912878530795471
 20
-33.999999962156267
 30
0.0
 11
22.912878530796888
 21
-34.000000450359607
 31
0.0
  0
LINE
  5
46BC
  8
241
 10
-13.181426158922591
 20
-33.500000065829923
 30
0.0
 11
13.181425445141141
 21
-33.500000346685837
 31
0.0
  0
LINE
  5
46BD
  8
242
 10
-11.90599999999961
 20
-34.000000450359728
 30
0.0
 11
11.906000000000519
 21
-39.500000450359828
 31
0.0
  0
LINE
  5
46BE
  8
242
 10
11.906000000000519
 20
-34.000000450359607
 30
0.0
 11
-11.90599999999961
 21
-39.500000450359828
 31
0.0
  0
ARC
  5
46BF
  8
241
 10
0.0000000000003411
 20
0.0000000000935643
 30
0.0
 40
41.0
 50
222.9702839317417
 51
236.0236470861125
  0
ARC
  5
46C0
  8
241
 10
0.0000000000003411
 20
0.0000000000934506
 30
0.0
 40
36.000000000000121
 50
218.9424412688214
 51
248.52158244546749
  0
ARC
  5
46C1
  8
241
 10
0.0000000000003411
 20
0.0000000000935643
 30
0.0
 40
41.0
 50
303.97635291389543
 51
317.02971606825832
  0
ARC
  5
46C2
  8
241
 10
0.0000000000003411
 20
0.0000000000934506
 30
0.0
 40
36.000000000000121
 50
291.4784163337327
 51
321.05755873101288
  0
LINE
  5
46C3
  8
245
  6
CENTER2
 10
-75.70476127563029
 20
0.0000000000004548
 30
0.0
 11
73.500000000000682
 21
0.0000000000004548
 31
0.0
1001
GRPNAME
1000
00000001
  0
LINE
  5
46C4
  8
245
  6
CENTER2
 10
-75.704761275630233
 20
0.0000000000004548
 30
0.0
 11
73.500000000000682
 21
0.0000000000004548
 31
0.0
1001
GRPNAME
1000
00000003
  0
ARC
  5
46C5
  8
240
  6
CONTINUOUS
 10
-36.94906304987569
 20
-96.346032669542268
 30
0.0
 40
21.000000000000021
 50
105.0000000475568
 51
135.00000004756129
1001
GRPNAME
1000
PASTMD03
  0
ARC
  5
46C6
  8
240
  6
CONTINUOUS
 10
-96.346032669544115
 20
-36.949063049870801
 30
0.0
 40
21.000000000000011
 50
315.0000000758418
 51
345.00000007583589
1001
GRPNAME
1000
PASTMD03
  0
LINE
  5
46C7
  8
240
  6
CONTINUOUS
 10
-51.798305454792853
 20
-81.496790264624451
 30
0.0
 11
-62.932503525604552
 21
-92.630988335435745
 31
0.0
1001
GRPNAME
1000
PASTMD03
  0
ARC
  5
46C8
  8
241
 10
-77.781745930521595
 20
-77.781745930517786
 30
0.0
 40
21.0
 50
315.0000000000004
 51
135.00000000000031
1001
GRPNAME
1000
PASTMD03
  0
LINE
  5
46C9
  8
240
  6
CONTINUOUS
 10
-81.496790264627066
 20
-51.79830545478864
 30
0.0
 11
-92.630988335438815
 21
-62.93250352560004
 31
0.0
1001
GRPNAME
1000
PASTMD03
  0
LINE
  5
46CA
  8
245
  6
CENTER2
 10
-60.344309759548537
 20
-95.219182101490901
 30
0.0
 11
-95.219182101491285
 21
-60.34430975954831
 31
0.0
1001
GRPNAME
1000
PASTMD03
  0
LINE
  5
46CB
  8
240
  6
CONTINUOUS
 10
-42.384262997028543
 20
-76.061590317471882
 30
0.0
 11
16.17619031890808
 21
-60.370364143066233
 31
0.0
1001
GRPNAME
1000
PASTMD03
  0
ARC
  5
46CC
  8
240
 10
0.0000000000003411
 20
0.0000000000004548
 30
0.0
 40
62.50000000000032
 50
344.99999999999812
 51
164.99999999999801
  0
LINE
  5
46CD
  8
240
  6
CONTINUOUS
 10
-76.061590310279598
 20
-42.384262970175179
 30
0.0
 11
-60.370361718384338
 21
16.176199367943461
 31
0.0
1001
GRPNAME
1000
PASTMD03
  0
LINE
  5
46CE
  8
245
  6
CENTER2
 10
-27.50000000000103
 20
47.631397208143063
 30
0.0
 11
27.500000000001819
 21
-47.631397208143092
 31
0.0
  0
LINE
  5
46CF
  8
245
  6
CENTER2
 10
0.0000000000003411
 20
72.000000000000085
 30
0.0
 11
0.0000000000003411
 21
-73.80996124149226
 31
0.0
1001
GRPNAME
1000
PASTMD03
  0
LINE
  5
46D0
  8
245
  6
CENTER2
 10
47.729707730093637
 20
47.729707730091363
 30
0.0
 11
-95.623378731493403
 21
-95.623378731488799
 31
0.0
1001
GRPNAME
1000
PASTMD03
  0
LINE
  5
46D1
  8
245
  6
CENTER2
 10
0.0000000000003411
 20
72.000000000000085
 30
0.0
 11
0.0000000000003411
 21
-73.80996124149226
 31
0.0
  0
LINE
  5
46D2
  8
241
 10
18.500001654212952
 20
5.0952994615606677
 30
0.0
 11
20.500001654212952
 21
3.940598923181426
 31
0.0
1001
GRPNAME
1000
00000001
  0
LINE
  5
46D3
  8
241
 10
-7.999999999999317
 20
-22.309401076698801
 30
0.0
 11
-5.9999999999992042
 21
-21.154700538319538
 31
0.0
1001
GRPNAME
1000
00000001
  0
ARC
  5
46D4
  8
240
  6
CONTINUOUS
 10
-77.781745930521595
 20
-77.781745930517843
 30
0.0
 40
21.0
 50
135.00000000000031
 51
315.00000000000028
1001
GRPNAME
1000
PASTMD03
  0
ARC
  5
46D5
  8
241
 10
0.0000000000002274
 20
0.0000000000003695
 30
0.0
 40
62.50000000000032
 50
164.9999999999979
 51
285.00000000000119
  0
ARC
  5
46D6
  8
240
 10
0.0000000000002274
 20
0.0000000000003695
 30
0.0
 40
62.50000000000032
 50
285.00000000000119
 51
344.99999999999812
  0
CIRCLE
  5
46D7
  8
243
  6
HIDDEN2
 10
0.0000000000002274
 20
0.0000000000002771
 30
0.0
 40
50.0
  0
ARC
  5
46D8
  8
243
  6
HIDDEN2
 10
37.22736094983361
 20
26.92031939598661
 30
0.0
 40
0.2999999999999971
 50
120.00000001286161
 51
210.00000001285869
1001
GRPNAME
1000
PASTMD01
  0
LINE
  5
46D9
  8
243
  6
HIDDEN2
 10
38.567553328698409
 20
22.616553580825489
 30
0.0
 11
38.567553328698409
 21
23.999038103876259
 31
0.0
1001
GRPNAME
1000
PASTMD01
  0
LINE
  5
46DA
  8
243
  6
HIDDEN2
 10
40.067553328698409
 20
21.40096189252306
 30
0.0
 11
38.870286611397319
 21
22.09220415404836
 31
0.0
1001
GRPNAME
1000
PASTMD01
  0
LINE
  5
46DB
  8
243
  6
HIDDEN2
 10
39.084828269862442
 20
29.003091624297941
 30
0.0
 11
38.132200325699387
 21
28.45309162429794
 31
0.0
1001
GRPNAME
1000
PASTMD01
  0
LINE
  5
46DC
  8
243
  6
HIDDEN2
 10
40.584219845904379
 20
29.204812944778201
 30
0.0
 11
39.372328269862457
 21
28.505127017121879
 31
0.0
1001
GRPNAME
1000
PASTMD01
  0
LINE
  5
46DD
  8
243
  6
HIDDEN2
 10
38.419700325699637
 20
27.955127017121871
 30
0.0
 11
37.077360949833633
 21
27.18012701712189
 31
0.0
1001
GRPNAME
1000
PASTMD01
  0
LINE
  5
46DE
  8
243
  6
HIDDEN2
 10
44.65982826986248
 20
19.346908372101421
 30
0.0
 11
43.707200325699553
 21
18.79690837210142
 31
0.0
1001
GRPNAME
1000
PASTMD01
  0
LINE
  5
46DF
  8
243
  6
HIDDEN2
 10
45.584219845904379
 20
20.544558906933961
 30
0.0
 11
44.372328269862457
 21
19.8448729792775
 31
0.0
1001
GRPNAME
1000
PASTMD01
  0
LINE
  5
46E0
  8
243
  6
HIDDEN2
 10
43.41970032569963
 20
19.294872979277489
 30
0.0
 11
42.077360949833633
 21
18.519872979277508
 31
0.0
1001
GRPNAME
1000
PASTMD01
  0
LINE
  5
46E1
  8
243
  6
HIDDEN2
 10
41.667553328698432
 20
18.629680600412811
 30
0.0
 11
36.9675533286985
 21
26.770319395986519
 31
0.0
1001
GRPNAME
1000
PASTMD01
  0
LINE
  5
46E2
  8
243
  6
HIDDEN2
 10
43.707200325699553
 20
18.79690837210142
 30
0.0
 11
38.132200325699387
 21
28.45309162429794
 31
0.0
1001
GRPNAME
1000
PASTMD01
  0
LINE
  5
46E3
  8
243
  6
HIDDEN2
 10
44.65982826986248
 20
19.346908372101421
 30
0.0
 11
39.084828269862442
 21
29.003091624297941
 31
0.0
1001
GRPNAME
1000
PASTMD01
  0
LINE
  5
46E4
  8
243
  6
HIDDEN2
 10
31.526279441632031
 20
-32.605117766515278
 30
0.0
 11
12.473720558374341
 21
-43.6051177665152
 31
0.0
1001
GRPNAME
1000
PASTMD0M
  0
LINE
  5
46E5
  8
243
  6
HIDDEN2
 10
34.021176867626536
 20
-36.926406868010368
 30
0.0
 11
31.526279441632031
 21
-32.605117766515278
 31
0.0
1001
GRPNAME
1000
PASTMD0M
  0
LINE
  5
46E6
  8
243
  6
HIDDEN2
 10
14.96861798436885
 20
-47.926406868010361
 30
0.0
 11
12.473720558374341
 21
-43.6051177665152
 31
0.0
1001
GRPNAME
1000
PASTMD0M
  0
LINE
  5
46E7
  8
243
  6
HIDDEN2
 10
-43.029800219206599
 20
11.529800219209889
 30
0.0
 11
-46.694678532242392
 21
17.877555660944989
 31
0.0
  0
LINE
  5
46E8
  8
243
  6
HIDDEN2
 10
-43.029800219206599
 20
11.529800219209889
 30
0.0
 11
-49.377555660941653
 21
7.8649219061741658
 31
0.0
  0
LINE
  5
46E9
  8
243
  6
HIDDEN2
 10
-13.339745962152159
 20
43.105117766515193
 30
0.0
 11
-30.660254037841131
 21
33.105117766515207
 31
0.0
1001
GRPNAME
1000
PASTMD0M
  0
LINE
  5
46EA
  8
243
  6
HIDDEN2
 10
-30.660254037841131
 20
33.105117766515207
 30
0.0
 11
-33.155151463835473
 21
37.42640686801024
 31
0.0
1001
GRPNAME
1000
PASTMD0M
  0
LINE
  5
46EB
  8
243
  6
HIDDEN2
 10
-13.339745962152159
 20
43.105117766515193
 30
0.0
 11
-15.83464338814667
 21
47.42640686801019
 31
0.0
1001
GRPNAME
1000
PASTMD0M
  0
ARC
  5
46EC
  8
243
  6
HIDDEN2
 10
41.927360949833989
 20
18.779680600412849
 30
0.0
 40
0.2999999999999971
 50
209.99999998714259
 51
299.99999998713832
1001
GRPNAME
1000
PASTMD01
  0
ENDBLK
  5
46F0
  8
0
  0
BLOCK
  8
0
  2
*X12
 70
     1
 10
0.0
 20
0.0
 30
0.0
  3
*X12
  1

  0
LINE
  5
494E
  8
0
 62
     0
 10
8.238164574470316
 20
-24.068193743056661
 30
0.0
 11
8.2115209144739421
 21
-24.04155008306029
 31
0.0
  0
LINE
  5
494F
  8
0
 62
     0
 10
8.2381645744703071
 20
-24.427403987899421
 30
0.0
 11
7.7079002893291602
 21
-23.897139702758281
 31
0.0
  0
LINE
  5
4950
  8
0
 62
     0
 10
8.2182125041644127
 20
-24.76666216243628
 30
0.0
 11
7.204279664184396
 21
-23.752729322456268
 31
0.0
  0
LINE
  5
4951
  8
0
 62
     0
 10
7.7145899082592511
 20
-24.622249811373891
 30
0.0
 11
6.7006590390396212
 21
-23.608318942154241
 31
0.0
  0
LINE
  5
4952
  8
0
 62
     0
 10
7.2109673123541
 20
-24.477837460311491
 30
0.0
 11
6.1970384138948571
 21
-23.463908561852239
 31
0.0
  0
LINE
  5
4953
  8
0
 62
     0
 10
6.707344716448933
 20
-24.333425109249109
 30
0.0
 11
5.6934177887500752
 21
-23.319498181550241
 31
0.0
  0
LINE
  5
4954
  8
0
 62
     0
 10
6.2037221205437874
 20
-24.18901275818672
 30
0.0
 11
5.328130013313082
 21
-23.313420650956019
 31
0.0
  0
LINE
  5
4955
  8
0
 62
     0
 10
5.7000995246386221
 20
-24.044600407124321
 30
0.0
 11
5.3281300133130891
 21
-23.67263089579879
 31
0.0
  0
LINE
  5
4956
  8
0
 62
     0
 10
5.361541979063233
 20
-24.065253106391701
 30
0.0
 11
5.328130013313082
 21
-24.03184114064155
 31
0.0
  0
ENDBLK
  5
4957
  8
0
  0
BLOCK
  8
0
  2
*X13
 70
     1
 10
0.0
 20
0.0
 30
0.0
  3
*X13
  1

  0
LINE
  5
495A
  8
0
 62
     0
 10
8.0701477227327842
 20
-21.744915422262519
 30
0.0
 11
7.7670214995727589
 21
-21.441789199102509
 31
0.0
  0
LINE
  5
495B
  8
0
 62
     0
 10
8.2332612574242212
 20
-22.267239201796741
 30
0.0
 11
7.263399477793782
 21
-21.297377422166289
 31
0.0
  0
LINE
  5
495C
  8
0
 62
     0
 10
7.7215012285300899
 20
-22.114689417745371
 30
0.0
 11
6.7597774560147812
 21
-21.152965645230051
 31
0.0
  0
LINE
  5
495D
  8
0
 62
     0
 10
8.2113774928885928
 20
-22.604565682103871
 30
0.0
 11
7.8317712232036012
 21
-22.22495941241888
 31
0.0
  0
LINE
  5
495E
  8
0
 62
     0
 10
7.199351315087112
 20
-21.95174974914514
 30
0.0
 11
6.5891407555005852
 21
-21.34153918955862
 31
0.0
  0
LINE
  5
495F
  8
0
 62
     0
 10
8.1132683095342273
 20
-22.865666743592261
 30
0.0
 11
7.8309358563367821
 21
-22.583334290394809
 31
0.0
  0
LINE
  5
4960
  8
0
 62
     0
 10
6.9124805992505713
 20
-22.02408927815139
 30
0.0
 11
6.589140755500571
 21
-21.700749434401391
 31
0.0
  0
LINE
  5
4961
  8
0
 62
     0
 10
7.964481211056718
 20
-23.07608988995754
 30
0.0
 11
7.6220402496344803
 21
-22.733648928535299
 31
0.0
  0
LINE
  5
4962
  8
0
 62
     0
 10
5.7573384204049187
 20
-21.228157344148489
 30
0.0
 11
5.723673699784575
 21
-21.194492623528149
 31
0.0
  0
LINE
  5
4963
  8
0
 62
     0
 10
7.7714733185701572
 20
-23.242292242313731
 30
0.0
 11
7.1824663108924831
 21
-22.653285234636058
 31
0.0
  0
LINE
  5
4964
  8
0
 62
     0
 10
5.847336478339713
 20
-21.677365646926059
 30
0.0
 11
5.4505793449193121
 21
-21.280608513505651
 31
0.0
  0
LINE
  5
4965
  8
0
 62
     0
 10
7.531590408954151
 20
-23.361619577540498
 30
0.0
 11
6.6788437982373523
 21
-22.508872966823692
 31
0.0
  0
LINE
  5
4966
  8
0
 62
     0
 10
5.6943798848197673
 20
-21.883619298248881
 30
0.0
 11
5.4522652133160721
 21
-21.641504626745181
 31
0.0
  0
LINE
  5
4967
  8
0
 62
     0
 10
7.2295251507729619
 20
-23.418764564202078
 30
0.0
 11
6.1752212855822322
 21
-22.364460699011349
 31
0.0
  0
LINE
  5
4968
  8
0
 62
     0
 10
6.8194166742686031
 20
-23.367866332540469
 30
0.0
 11
5.3545145625143391
 21
-21.90296422078622
 31
0.0
  0
LINE
  5
4969
  8
0
 62
     0
 10
6.3409512066324307
 20
-23.248611109747049
 30
0.0
 11
5.333284911077028
 21
-22.240944814191639
 31
0.0
  0
ENDBLK
  5
496A
  8
0
  0
BLOCK
  8
0
  2
*X14
 70
     1
 10
0.0
 20
0.0
 30
0.0
  3
*X14
  1

  0
LINE
  5
496D
  8
0
 62
     0
 10
8.6325802809247634
 20
-20.152086511397901
 30
0.0
 11
7.5727920983010542
 21
-19.092298328774199
 31
0.0
  0
LINE
  5
496E
  8
0
 62
     0
 10
7.550509858052477
 20
-19.429226333368401
 30
0.0
 11
7.1259540584896071
 21
-19.00467053380553
 31
0.0
  0
LINE
  5
496F
  8
0
 62
     0
 10
8.7202080758934244
 20
-20.59892455120934
 30
0.0
 11
8.2956522763305571
 21
-20.17436875164648
 31
0.0
  0
LINE
  5
4970
  8
0
 62
     0
 10
7.0885583729535151
 20
-19.326485093112201
 30
0.0
 11
6.7814368665633884
 21
-19.019363586722051
 31
0.0
  0
LINE
  5
4971
  8
0
 62
     0
 10
8.7231743317738051
 20
-20.96110105193247
 30
0.0
 11
8.3983935165867578
 21
-20.63632023674543
 31
0.0
  0
LINE
  5
4972
  8
0
 62
     0
 10
6.7548536742801764
 20
-19.35199063928161
 30
0.0
 11
6.490972454379194
 21
-19.088109419380629
 31
0.0
  0
LINE
  5
4973
  8
0
 62
     0
 10
8.7231743317737944
 20
-21.32031129677523
 30
0.0
 11
8.3998344963453064
 21
-20.996971461346732
 31
0.0
  0
LINE
  5
4974
  8
0
 62
     0
 10
6.48116854797534
 20
-19.437515757819561
 30
0.0
 11
6.2387585511122241
 21
-19.195105760956441
 31
0.0
  0
LINE
  5
4975
  8
0
 62
     0
 10
8.7231743317737944
 20
-21.679521541618008
 30
0.0
 11
8.3998344963452976
 21
-21.35618170618951
 31
0.0
  0
LINE
  5
4976
  8
0
 62
     0
 10
6.2495981785713921
 20
-19.56515563325836
 30
0.0
 11
6.0177543689193751
 21
-19.333311823606351
 31
0.0
  0
LINE
  5
4977
  8
0
 62
     0
 10
8.7231743317738051
 20
-22.038731786460769
 30
0.0
 11
8.3998344963452922
 21
-21.71539195103227
 31
0.0
  0
LINE
  5
4978
  8
0
 62
     0
 10
6.0533621362573351
 20
-19.72812983578709
 30
0.0
 11
5.8247263052360001
 21
-19.49949400476574
 31
0.0
  0
LINE
  5
4979
  8
0
 62
     0
 10
8.7231743317737944
 20
-22.39794203130355
 30
0.0
 11
8.3998344963453064
 21
-22.074602195875041
 31
0.0
  0
LINE
  5
497A
  8
0
 62
     0
 10
5.8906123223973932
 20
-19.92459026676989
 30
0.0
 11
5.6587246744038451
 21
-19.692702618776359
 31
0.0
  0
LINE
  5
497B
  8
0
 62
     0
 10
8.7231743317737944
 20
-22.757152276146311
 30
0.0
 11
8.3998344963452976
 21
-22.433812440717809
 31
0.0
  0
LINE
  5
497C
  8
0
 62
     0
 10
5.7632227277812831
 20
-20.15641091699656
 30
0.0
 11
5.5207122450513424
 21
-19.913900434266608
 31
0.0
  0
LINE
  5
497D
  8
0
 62
     0
 10
8.7231743317738051
 20
-23.116362520989071
 30
0.0
 11
8.3998344963452922
 21
-22.793022685560562
 31
0.0
  0
LINE
  5
497E
  8
0
 62
     0
 10
5.6780179241562223
 20
-20.430416358214249
 30
0.0
 11
5.4139410493238147
 21
-20.166339483381851
 31
0.0
  0
LINE
  5
497F
  8
0
 62
     0
 10
8.7231743317737944
 20
-23.475572765831831
 30
0.0
 11
8.3998344963453064
 21
-23.152232930403329
 31
0.0
  0
LINE
  5
4980
  8
0
 62
     0
 10
5.6530274487402252
 20
-20.76463612764104
 30
0.0
 11
5.3454872410841912
 21
-20.457095919985001
 31
0.0
  0
LINE
  5
4981
  8
0
 62
     0
 10
8.7231743317737944
 20
-23.834783010674599
 30
0.0
 11
8.3998344963452976
 21
-23.511443175246121
 31
0.0
  0
LINE
  5
4982
  8
0
 62
     0
 10
5.5947948332439603
 20
-21.065613756987531
 30
0.0
 11
5.331248046283072
 21
-20.80206697002664
 31
0.0
  0
LINE
  5
4983
  8
0
 62
     0
 10
8.7231743317738051
 20
-24.19399325551738
 30
0.0
 11
8.3998344963452976
 21
-23.87065342008886
 31
0.0
  0
LINE
  5
4984
  8
0
 62
     0
 10
8.7231743317737944
 20
-24.553203500360141
 30
0.0
 11
8.3998344963453064
 21
-24.229863664931649
 31
0.0
  0
LINE
  5
4985
  8
0
 62
     0
 10
8.7231743317737944
 20
-24.912413745202912
 30
0.0
 11
8.3998344963452976
 21
-24.58907390977441
 31
0.0
  0
LINE
  5
4986
  8
0
 62
     0
 10
8.7231743317738051
 20
-25.27162399004569
 30
0.0
 11
8.3998344963452976
 21
-24.94828415461717
 31
0.0
  0
LINE
  5
4987
  8
0
 62
     0
 10
8.7231743317738051
 20
-25.630834234888429
 30
0.0
 11
8.3998344963453064
 21
-25.30749439945993
 31
0.0
  0
LINE
  5
4988
  8
0
 62
     0
 10
8.7231743317738086
 20
-25.990044479731189
 30
0.0
 11
8.3998344963453118
 21
-25.666704644302701
 31
0.0
  0
LINE
  5
4989
  8
0
 62
     0
 10
8.7231743317737926
 20
-26.34925472457396
 30
0.0
 11
8.3998344963452976
 21
-26.025914889145461
 31
0.0
  0
LINE
  5
498A
  8
0
 62
     0
 10
8.7231743317738051
 20
-26.708464969416749
 30
0.0
 11
8.3998344963453064
 21
-26.38512513398824
 31
0.0
  0
LINE
  5
498B
  8
0
 62
     0
 10
8.7231743317738086
 20
-27.067675214259509
 30
0.0
 11
8.3998344963453118
 21
-26.744335378831011
 31
0.0
  0
LINE
  5
498C
  8
0
 62
     0
 10
8.7159298947131205
 20
-27.419641022041588
 30
0.0
 11
8.3998344963452976
 21
-27.10354562367376
 31
0.0
  0
LINE
  5
498D
  8
0
 62
     0
 10
8.6597480896313286
 20
-27.72266946180256
 30
0.0
 11
8.3870524780551001
 21
-27.449973850226321
 31
0.0
  0
LINE
  5
498E
  8
0
 62
     0
 10
8.5622572617253336
 20
-27.98438887873932
 30
0.0
 11
8.3153237888168974
 21
-27.737455405830879
 31
0.0
  0
LINE
  5
498F
  8
0
 62
     0
 10
8.4321243081799775
 20
-28.21346617003675
 30
0.0
 11
8.1982138779480973
 21
-27.979555739804859
 31
0.0
  0
LINE
  5
4990
  8
0
 62
     0
 10
8.2733954222662973
 20
-28.413947528965831
 30
0.0
 11
8.0445297685591868
 21
-28.185081875258732
 31
0.0
  0
LINE
  5
4991
  8
0
 62
     0
 10
8.0875725741075541
 20
-28.587334925649841
 30
0.0
 11
7.8572300370930961
 21
-28.356992388635391
 31
0.0
  0
LINE
  5
4992
  8
0
 62
     0
 10
7.874219936017262
 20
-28.733192532402331
 30
0.0
 11
7.6354722023712753
 21
-28.494444798756341
 31
0.0
  0
LINE
  5
4993
  8
0
 62
     0
 10
5.6514698570630912
 20
-26.86965269829091
 30
0.0
 11
5.3967359059298632
 21
-26.614918747157692
 31
0.0
  0
LINE
  5
4994
  8
0
 62
     0
 10
7.6307964035400611
 20
-28.848979244767879
 30
0.0
 11
7.3740776355567421
 21
-28.592260476784581
 31
0.0
  0
LINE
  5
4995
  8
0
 62
     0
 10
5.6514698570630912
 20
-27.22886294313367
 30
0.0
 11
5.3281300133130891
 21
-26.905523099383679
 31
0.0
  0
LINE
  5
4996
  8
0
 62
     0
 10
7.3515378208916644
 20
-28.92893090696225
 30
0.0
 11
7.0593595198280212
 21
-28.6367526058986
 31
0.0
  0
LINE
  5
4997
  8
0
 62
     0
 10
5.7045213753548323
 20
-27.641124706268201
 30
0.0
 11
5.3281309156713821
 21
-27.264734246584752
 31
0.0
  0
LINE
  5
4998
  8
0
 62
     0
 10
7.0239016873329021
 20
-28.96050501824627
 30
0.0
 11
6.647511227649459
 21
-28.584114558562831
 31
0.0
  0
LINE
  5
4999
  8
0
 62
     0
 10
6.6140306292770701
 20
-28.909844205033199
 30
0.0
 11
5.3787917288844627
 21
-27.6746053046406
 31
0.0
  0
ENDBLK
  5
499A
  8
0
  0
BLOCK
  8
0
  2
A$C403A7662
 70
     0
 10
0.0
 20
0.0
 30
0.0
  3
A$C403A7662
  1

  0
LINE
  5
499C
  8
244
  6
HIDDEN2
 10
66.000000000001307
 20
-50.999999999998849
 30
0.0
 11
65.000000000001549
 21
-49.99999999999919
 31
0.0
1001
GRPNAME
1000
PASTMD07
  0
LINE
  5
499D
  8
244
  6
HIDDEN2
 10
65.000000000001549
 20
-44.999999999998629
 30
0.0
 11
65.000000000001549
 21
-49.999999999999432
 31
0.0
1001
GRPNAME
1000
PASTMD07
  0
LINE
  5
499E
  8
244
  6
HIDDEN2
 10
58.000000000000519
 20
-52.999999999999083
 30
0.0
 11
60.000000000000519
 21
-50.99999999999919
 31
0.0
1001
GRPNAME
1000
PASTMD07
  0
LINE
  5
499F
  8
244
  6
HIDDEN2
 10
60.000000000000519
 20
-50.99999999999919
 30
0.0
 11
60.000000000000519
 21
-48.999999999999531
 31
0.0
1001
GRPNAME
1000
PASTMD07
  0
LINE
  5
49A0
  8
244
  6
HIDDEN2
 10
65.000000000001407
 20
-49.999999999999069
 30
0.0
 11
60.000000000000519
 21
-49.999999999999069
 31
0.0
1001
GRPNAME
1000
PASTMD07
  0
LINE
  5
49A1
  8
244
  6
HIDDEN2
 10
65.000000000001549
 20
-44.999999999998629
 30
0.0
 11
60.000000000001549
 21
-44.999999999998629
 31
0.0
1001
GRPNAME
1000
PASTMD07
  0
LINE
  5
49A2
  8
244
  6
HIDDEN2
 10
58.000000000000412
 20
-129.49999999999949
 30
0.0
 11
58.500000000000398
 21
-129.99999999999949
 31
0.0
1001
GRPNAME
1000
PASTMD01
  0
LINE
  5
49A3
  8
244
  6
HIDDEN2
 10
58.500000000000398
 20
-129.99999999999949
 30
0.0
 11
65.500000000000412
 21
-129.99999999999949
 31
0.0
1001
GRPNAME
1000
PASTMD01
  0
LINE
  5
49A4
  8
244
  6
HIDDEN2
 10
58.000000000000519
 20
-129.49999999999929
 30
0.0
 11
58.000000000000519
 21
-52.999999999999083
 31
0.0
1001
GRPNAME
1000
PASTMD07
  0
ARC
  5
49A5
  8
241
 10
-286.90000056882639
 20
-14.100000018744311
 30
0.0
 40
1.8999999999999999
210
0.0
220
0.0
230
-1.0
 50
227.46310164112509
 51
270.0
  0
LINE
  5
49A6
  8
241
  6
CONTINUOUS
 10
283.10000056882649
 20
-16.000000018744291
 30
0.0
 11
286.90000056882639
 21
-16.000000018744291
 31
0.0
  0
ARC
  5
49A7
  8
241
  6
CONTINUOUS
 10
-283.10000056882649
 20
-14.100000018744311
 30
0.0
 40
1.8999999999999999
210
0.0
220
0.0
230
-1.0
 50
270.0
 51
312.5368983588566
  0
LINE
  5
49A8
  8
242
 10
288.3166265156276
 20
-12.300000018875149
 30
0.0
 11
281.68337348437672
 21
-15.50000001883687
 31
0.0
  0
LINE
  5
49A9
  8
242
 10
281.68337348437672
 20
-12.300000018875149
 30
0.0
 11
288.3166265156276
 21
-15.500000018836429
 31
0.0
  0
LINE
  5
49AA
  8
241
 10
288.3166265156276
 20
-12.300000018875149
 30
0.0
 11
281.68337348437672
 21
-12.300000018875149
 31
0.0
  0
LINE
  5
49AB
  8
241
 10
288.3166265156276
 20
-15.500000018836429
 30
0.0
 11
288.3166265156276
 21
-12.300000018875149
 31
0.0
  0
LINE
  5
49AC
  8
241
 10
281.68337348437672
 20
-15.50000001883687
 30
0.0
 11
281.68337348437672
 21
-12.300000018875149
 31
0.0
  0
LINE
  5
49AD
  8
241
 10
301.9999999999867
 20
7.9999999811622029
 30
0.0
 11
304.9999999999863
 21
11.41640784705589
 31
0.0
  0
LINE
  5
49AE
  8
241
 10
301.99999999998852
 20
-8.0000000188383638
 30
0.0
 11
304.99999999998869
 21
-11.416407883980471
 31
0.0
  0
LINE
  5
49AF
  8
241
 10
301.99999999998681
 20
7.9999999811622029
 30
0.0
 11
301.99999999998909
 21
-8.0000000188382483
 31
0.0
  0
LINE
  5
49B0
  8
240
 10
304.9999999999863
 20
11.999999981162199
 30
0.0
 11
304.99999999998909
 21
-12.000000018838479
 31
0.0
  0
ARC
  5
49B1
  8
240
 10
290.5000000000025
 20
11.999999981162199
 30
0.0
 40
0.5
 50
0.0
 51
90.0
  0
LINE
  5
49B2
  8
243
 10
288.00000000000318
 20
-3.500000018835804
 30
0.0
 11
288.00000000000267
 21
12.499999981162199
 31
0.0
  0
LINE
  5
49B3
  8
243
 10
282.00000000000171
 20
-3.5000000188376812
 30
0.0
 11
282.00000000000267
 21
12.499999981162199
 31
0.0
  0
ARC
  5
49B4
  8
240
 10
279.50000000000227
 20
11.999999981162199
 30
0.0
 40
0.5
 50
90.0
 51
180.0
  0
LINE
  5
49B5
  8
240
 10
279.50000000000227
 20
12.499999981162199
 30
0.0
 11
290.50000000000227
 21
12.499999981162199
 31
0.0
  0
ARC
  5
49B6
  8
240
 10
207.00000000000179
 20
14.99999998116243
 30
0.0
 40
3.0
 50
180.0
 51
270.0
  0
ARC
  5
49B7
  8
241
 10
207.00000000000281
 20
10.999999981162659
 30
0.0
 40
3.0
 50
180.00000000000659
 51
270.0
  0
LINE
  5
49B8
  8
240
 10
291.00000095367551
 20
-13.50000001882438
 30
0.0
 11
291.00000095368159
 21
-12.000000018835751
 31
0.0
  0
ARC
  5
49B9
  8
240
 10
289.00000095367727
 20
-13.500000018836429
 30
0.0
 40
2.0
 50
270.0
 51
0.0000000003452301
  0
LINE
  5
49BA
  8
240
 10
281.0000009536771
 20
-15.50000001883687
 30
0.0
 11
289.00000095367727
 21
-15.500000018836429
 31
0.0
  0
LINE
  5
49BB
  8
240
 10
279.00000095366102
 20
-13.500000018857801
 30
0.0
 11
279.00000095366119
 21
-12.000000018836889
 31
0.0
  0
ARC
  5
49BC
  8
240
 10
281.00000095367687
 20
-13.50000001883687
 30
0.0
 40
2.0
 50
179.99998240050681
 51
270.0
  0
ARC
  5
49BD
  8
240
 10
207.00000000000171
 20
-15.00000001883598
 30
0.0
 40
3.0
 50
89.999999999996746
 51
180.0
  0
ARC
  5
49BE
  8
241
 10
207.00000000000051
 20
-11.000000018835969
 30
0.0
 40
3.0
 50
89.999999999996746
 51
180.00000000000659
  0
LINE
  5
49BF
  8
245
  6
CENTER2
 10
285.00000000000279
 20
13.70604008790235
 30
0.0
 11
285.00000059413537
 21
-16.799481067553529
 31
0.0
  0
LINE
  5
49C0
  8
240
 10
304.9999999999863
 20
11.999999981162199
 30
0.0
 11
207.00000000000179
 21
11.99999998116243
 31
0.0
  0
LINE
  5
49C1
  8
240
 10
304.99999999998909
 20
-12.000000018838479
 30
0.0
 11
207.00000000000179
 21
-12.000000018835969
 31
0.0
  0
LINE
  5
49C2
  8
241
 10
301.99999999998681
 20
7.9999999811622029
 30
0.0
 11
207.00000000000281
 21
7.9999999811626559
 31
0.0
  0
LINE
  5
49C3
  8
241
 10
301.99999999998909
 20
-8.0000000188382483
 30
0.0
 11
207.0000000000008
 21
-8.0000000188359763
 31
0.0
  0
LINE
  5
49C4
  8
241
 10
196.00000000000489
 20
27.500000000094019
 30
0.0
 11
196.00000000000591
 21
-27.500000000093792
 31
0.0
  0
LINE
  5
49C5
  8
240
 10
204.00000000000489
 20
27.200000000093951
 30
0.0
 11
204.00000000000489
 21
14.99999998116243
 31
0.0
  0
LINE
  5
49C6
  8
240
 10
204.00000000000489
 20
-27.20000000009361
 30
0.0
 11
204.00000000000509
 21
-15.00000001883598
 31
0.0
  0
LINE
  5
49C7
  8
242
 10
196.00000000001131
 20
7.3484632623360531
 30
0.0
 11
204.00000000000489
 21
-7.3484632635482958
 31
0.0
  0
LINE
  5
49C8
  8
242
 10
204.00000000000489
 20
7.3484632623360531
 30
0.0
 11
196.00000000001131
 21
-7.3484632635481812
 31
0.0
  0
LINE
  5
49C9
  8
242
 10
207.00000000000591
 20
11.99999998116243
 30
0.0
 11
207.00000000000611
 21
-12.000000018835969
 31
0.0
  0
LINE
  5
49CA
  8
240
  6
CONTINUOUS
 10
203.70000000000491
 20
-27.500000000093682
 30
0.0
 11
196.00000000000489
 21
-27.500000000093792
 31
0.0
  0
LINE
  5
49CB
  8
240
  6
CONTINUOUS
 10
203.70000000000491
 20
-27.500000000093682
 30
0.0
 11
204.00000000000489
 21
-27.20000000009361
 31
0.0
1001
GENIUS_GENFIL_13
1070
     0
1040
0.3
1040
0.3
1040
0.0
1040
0.0
1002
{
1002
}
1001
GENIUS_GENOBJ-N-CHA_13
1002
{
1000
OWNER
1000
GEN
1002
}
1001
GENIUS_GENODEF_13
1002
{
1000
HIER
1070
     0
1002
}
1002
{
1000
MANEDIT
1070
     0
1002
}
1002
{
1000
NOSEL
1070
     0
1002
}
1002
{
1000
BEHIND
1070
     0
1002
}
1002
{
1000
OTHER
1070
     0
1002
}
1002
{
1000
REACTOR
1002
}
  0
LINE
  5
49CC
  8
241
 10
196.00000000001131
 20
-7.3484632635481812
 30
0.0
 11
204.00000000000489
 21
-7.3484632635482958
 31
0.0
  0
LINE
  5
49CD
  8
241
 10
196.00000000001131
 20
7.3484632623360531
 30
0.0
 11
204.00000000000489
 21
7.3484632623360531
 31
0.0
  0
LINE
  5
49CE
  8
240
  6
CONTINUOUS
 10
203.70000000000491
 20
27.500000000093909
 30
0.0
 11
196.00000000000489
 21
27.500000000094019
 31
0.0
  0
LINE
  5
49CF
  8
240
  6
CONTINUOUS
 10
203.70000000000491
 20
27.500000000093909
 30
0.0
 11
204.00000000000489
 21
27.200000000093951
 31
0.0
1001
GENIUS_GENFIL_13
1070
     0
1040
0.3
1040
0.3
1040
0.0
1040
0.0
1002
{
1002
}
1001
GENIUS_GENOBJ-N-CHA_13
1002
{
1000
OWNER
1000
GEN
1002
}
1001
GENIUS_GENODEF_13
1002
{
1000
HIER
1070
     0
1002
}
1002
{
1000
MANEDIT
1070
     0
1002
}
1002
{
1000
NOSEL
1070
     0
1002
}
1002
{
1000
BEHIND
1070
     0
1002
}
1002
{
1000
OTHER
1070
     0
1002
}
1002
{
1000
REACTOR
1002
}
  0
LINE
  5
49D0
  8
241
 10
154.00000000000409
 20
62.500000000000099
 30
0.0
 11
154.0000000000002
 21
-62.499999999999758
 31
0.0
  0
LINE
  5
49D1
  8
240
 10
134.00000000000051
 20
62.500000000000099
 30
0.0
 11
154.00000000000409
 21
62.500000000000099
 31
0.0
  0
LINE
  5
49D2
  8
240
 10
155.00000000000409
 20
61.500000000000121
 30
0.0
 11
155.0000000000019
 21
33.999999962250172
 31
0.0
  0
LINE
  5
49D3
  8
240
 10
155.49999999999861
 20
38.999999999997158
 30
0.0
 11
155.99999999999861
 21
39.499999999997158
 31
0.0
  0
LINE
  5
49D4
  8
240
 10
155.49999999999861
 20
38.999999999997158
 30
0.0
 11
155.49999999999861
 21
33.999999962250421
 31
0.0
  0
LINE
  5
49D5
  8
240
 10
155.99999999999861
 20
39.499999999997158
 30
0.0
 11
193.99999999999699
 21
39.500000000000341
 31
0.0
1001
GRPNAME
1000
PASTMD3N
  0
LINE
  5
49D6
  8
240
 10
193.99999999999699
 20
39.500000000000341
 30
0.0
 11
194.49999999999699
 21
39.000000000000341
 31
0.0
  0
LINE
  5
49D7
  8
240
 10
194.49999999999699
 20
39.000000000000341
 30
0.0
 11
194.4999999999979
 21
33.999999962249049
 31
0.0
1001
GRPNAME
1000
PASTMD3N
  0
LINE
  5
49D8
  8
240
 10
195.50000000000219
 20
33.999999962250421
 30
0.0
 11
196.00000000000219
 21
33.499999962250421
 31
0.0
1001
GENIUS_GENFIL_13
1070
     0
1040
0.5
1040
0.5
1040
2.0000000000000271
1040
44.999999999999673
1002
{
1002
}
1001
GENIUS_GENOBJ-N-CHA_13
1002
{
1000
OWNER
1000
GEN
1002
}
1001
GENIUS_GENODEF_13
1002
{
1000
HIER
1070
     0
1002
}
1002
{
1000
MANEDIT
1070
     0
1002
}
1002
{
1000
NOSEL
1070
     0
1002
}
1002
{
1000
BEHIND
1070
     0
1002
}
1002
{
1000
OTHER
1070
     0
1002
}
1002
{
1000
REACTOR
1002
}
  0
LINE
  5
49D9
  8
241
 10
194.00000000000119
 20
23.118400135244318
 30
0.0
 11
196.0000000000021
 21
22.627416997939122
 31
0.0
  0
LINE
  5
49DA
  8
241
 10
191.00000000000111
 20
27.946377224963729
 30
0.0
 11
194.00000000000119
 21
23.118400135244318
 31
0.0
  0
LINE
  5
49DB
  8
240
 10
155.00000000000409
 20
61.500000000000121
 30
0.0
 11
154.00000000000409
 21
62.500000000000099
 31
0.0
  0
LINE
  5
49DC
  8
241
 10
191.00000000000091
 20
27.946377224963729
 30
0.0
 11
191.00000000000091
 21
33.999999962250421
 31
0.0
  0
ARC
  5
49DD
  8
241
 10
158.00000000000139
 20
30.946377224964071
 30
0.0
 40
3.0
 50
179.99999999999341
 51
270.0
  0
LINE
  5
49DE
  8
240
 10
155.00000000000301
 20
33.999999962250172
 30
0.0
 11
155.49999999999861
 21
33.9999999622502
 31
0.0
  0
LINE
  5
49DF
  8
241
 10
158.00000000000139
 20
27.946377224964071
 30
0.0
 11
191.00000000000111
 21
27.946377224963729
 31
0.0
  0
LINE
  5
49E0
  8
240
 10
155.99999999999841
 20
-39.500000450453172
 30
0.0
 11
155.49999999999841
 21
-39.000000450453172
 31
0.0
1001
GENIUS_GENFIL_13
1070
     0
1040
0.5
1040
0.5
1040
0.4999999999999716
1040
44.99999999999919
1000
~T
  0
LINE
  5
49E1
  8
240
 10
155.49999999999841
 20
-39.000000450453172
 30
0.0
 11
155.49999999999841
 21
-34.000000450453058
 31
0.0
  0
LINE
  5
49E2
  8
240
 10
155.99999999999841
 20
-39.500000450453172
 30
0.0
 11
193.9999999999981
 21
-39.500000450453172
 31
0.0
  0
LINE
  5
49E3
  8
240
 10
194.4999999999979
 20
-39.000000450453172
 30
0.0
 11
194.4999999999979
 21
-34.000000450453058
 31
0.0
  0
LINE
  5
49E4
  8
240
 10
194.4999999999979
 20
-39.000000450453172
 30
0.0
 11
193.9999999999981
 21
-39.500000450453172
 31
0.0
1001
GENIUS_GENFIL_13
1070
     0
1040
0.5000000000000285
1040
0.4999999999999858
1040
0.5000000000000285
1040
45.000000000000803
1002
{
1002
}
  0
LINE
  5
49E5
  8
240
 10
195.50000000000139
 20
-33.999999999891877
 30
0.0
 11
196.00000000000139
 21
-33.499999999891891
 31
0.0
1001
GENIUS_GENFIL_13
1070
     0
1040
0.5
1040
0.5
1040
2.0000000000000271
1040
44.999999999999673
1002
{
1002
}
1001
GENIUS_GENODEF_13
1002
{
1000
HIER
1070
     0
1002
}
1002
{
1000
MANEDIT
1070
     0
1002
}
1002
{
1000
NOSEL
1070
     0
1002
}
1002
{
1000
BEHIND
1070
     0
1002
}
1002
{
1000
OTHER
1070
     0
1002
}
1002
{
1000
REACTOR
1002
}
1001
GENIUS_GENOBJ-N-CHA_13
1002
{
1000
OWNER
1000
GEN
1002
}
  0
LINE
  5
49E6
  8
241
 10
194.00000000000119
 20
-23.118400135130958
 30
0.0
 11
196.00000000000159
 21
-22.627416997682761
 31
0.0
  0
LINE
  5
49E7
  8
241
 10
191.00000000000119
 20
-27.946377224964071
 30
0.0
 11
194.00000000000119
 21
-23.118400135130958
 31
0.0
  0
LINE
  5
49E8
  8
242
 10
158.00000000000139
 20
33.999999962250172
 30
0.0
 11
158.00000000000139
 21
-33.999999999892111
 31
0.0
  0
LINE
  5
49E9
  8
241
 10
194.00000000000119
 20
23.118400135244318
 30
0.0
 11
194.00000000000119
 21
-23.118400135130958
 31
0.0
  0
LINE
  5
49EA
  8
241
 10
191.00000000000091
 20
-27.946377224964071
 30
0.0
 11
191.00000000000171
 21
-33.999999999891877
 31
0.0
  0
LINE
  5
49EB
  8
240
 10
196.00000000000219
 20
33.499999962250421
 30
0.0
 11
196.00000000000219
 21
27.500000000094019
 31
0.0
  0
ARC
  5
49EC
  8
241
 10
158.00000000000091
 20
-30.94637722496396
 30
0.0
 40
3.0
 50
90.0
 51
180.0
  0
LINE
  5
49ED
  8
240
 10
154.9999999999977
 20
-33.999999999892111
 30
0.0
 11
195.50000000000139
 21
-33.999999999891877
 31
0.0
  0
LINE
  5
49EE
  8
241
 10
158.00000000000091
 20
-27.94637722496396
 30
0.0
 11
191.00000000000111
 21
-27.946377224964071
 31
0.0
  0
LINE
  5
49EF
  8
240
 10
154.0000000000002
 20
-62.499999999999758
 30
0.0
 11
155.0000000000002
 21
-61.49999999999978
 31
0.0
  0
LINE
  5
49F0
  8
240
 10
134.00000000000051
 20
-62.499999999999758
 30
0.0
 11
154.0000000000002
 21
-62.499999999999758
 31
0.0
  0
LINE
  5
49F1
  8
240
 10
155.0000000000002
 20
-61.49999999999978
 30
0.0
 11
155.0000000000008
 21
-33.999999999892111
 31
0.0
  0
POLYLINE
  5
49F2
  8
241
 66
     1
 10
0.0
 20
0.0
 30
0.0
1001
GRPNAME
1000
PASTMD01
  0
VERTEX
  5
49F3
  8
241
  6
CONTINUOUS
 10
130.29999999999939
 20
44.132527686502257
 30
0.0
  0
VERTEX
  5
49F4
  8
241
  6
CONTINUOUS
 10
130.28632758035349
 20
43.920335515811992
 30
0.0
  0
VERTEX
  5
49F5
  8
241
  6
CONTINUOUS
 10
130.24542361539079
 20
43.709901636275163
 30
0.0
  0
VERTEX
  5
49F6
  8
241
  6
CONTINUOUS
 10
130.17762704824719
 20
43.502969769290956
 30
0.0
  0
VERTEX
  5
49F7
  8
241
  6
CONTINUOUS
 10
130.08349966262949
 20
43.301254617480019
 30
0.0
  0
VERTEX
  5
49F8
  8
241
  6
CONTINUOUS
 10
129.9638214276996
 20
43.106427656117603
 30
0.0
  0
VERTEX
  5
49F9
  8
241
  6
CONTINUOUS
 10
129.81958403500289
 20
42.920103282763613
 30
0.0
  0
VERTEX
  5
49FA
  8
241
  6
CONTINUOUS
 10
129.6519826810009
 20
42.743825439856302
 30
0.0
  0
VERTEX
  5
49FB
  8
241
  6
CONTINUOUS
 10
129.46240616329681
 20
42.579054821118341
 30
0.0
  0
VERTEX
  5
49FC
  8
241
  6
CONTINUOUS
 10
129.25242537262099
 20
42.427156767788908
 30
0.0
  0
VERTEX
  5
49FD
  8
241
  6
CONTINUOUS
 10
129.02378027593571
 20
42.289389954976258
 30
0.0
  0
VERTEX
  5
49FE
  8
241
  6
CONTINUOUS
 10
128.77836549852091
 20
42.166895961879163
 30
0.0
  0
VERTEX
  5
49FF
  8
241
  6
CONTINUOUS
 10
128.5182146245123
 20
42.060689812302343
 30
0.0
  0
VERTEX
  5
4A00
  8
241
  6
CONTINUOUS
 10
128.2454833459831
 20
41.971651563849377
 30
0.0
  0
VERTEX
  5
4A01
  8
241
  6
CONTINUOUS
 10
127.9624316002004
 20
41.900519015488499
 30
0.0
  0
VERTEX
  5
4A02
  8
241
  6
CONTINUOUS
 10
127.6714048430732
 20
41.84788159391745
 30
0.0
  0
VERTEX
  5
4A03
  8
241
  6
CONTINUOUS
 10
127.37481461396609
 20
41.814175469389163
 30
0.0
  0
VERTEX
  5
4A04
  8
241
  6
CONTINUOUS
 10
127.07511855292471
 20
41.799679941466557
 30
0.0
  0
VERTEX
  5
4A05
  8
241
  6
CONTINUOUS
 10
126.77480003589611
 20
41.804515124659197
 30
0.0
  0
VERTEX
  5
4A06
  8
241
  6
CONTINUOUS
 10
126.4763475966939
 20
41.828640953116519
 30
0.0
  0
VERTEX
  5
4A07
  8
241
  6
CONTINUOUS
 10
126.18223430622299
 20
41.871857512625752
 30
0.0
  0
VERTEX
  5
4A08
  8
241
  6
CONTINUOUS
 10
125.89489727983531
 20
41.933806697164158
 30
0.0
  0
VERTEX
  5
4A09
  8
241
  6
CONTINUOUS
 10
125.61671748262459
 20
42.013975176278777
 30
0.0
  0
VERTEX
  5
4A0A
  8
241
  6
CONTINUOUS
 10
125.3499999999996
 20
42.111698648703367
 30
0.0
  0
VERTEX
  5
4A0B
  8
241
  6
CONTINUOUS
 10
125.0969549370206
 20
42.226167346969078
 30
0.0
  0
VERTEX
  5
4A0C
  8
241
  6
CONTINUOUS
 10
124.8596791047725
 20
42.356432747391182
 30
0.0
  0
VERTEX
  5
4A0D
  8
241
  6
CONTINUOUS
 10
124.6401386455284
 20
42.501415429836911
 30
0.0
  0
VERTEX
  5
4A0E
  8
241
  6
CONTINUOUS
 10
124.440152740675
 20
42.659914022138757
 30
0.0
  0
VERTEX
  5
4A0F
  8
241
  6
CONTINUOUS
 10
124.2613785364029
 20
42.830615155043908
 30
0.0
  0
VERTEX
  5
4A10
  8
241
  6
CONTINUOUS
 10
124.1052974120711
 20
43.012104345205223
 30
0.0
  0
VERTEX
  5
4A11
  8
241
  6
CONTINUOUS
 10
123.9732027050316
 20
43.202877716035132
 30
0.0
  0
VERTEX
  5
4A12
  8
241
  6
CONTINUOUS
 10
123.8661889936285
 20
43.401354459301388
 30
0.0
  0
VERTEX
  5
4A13
  8
241
  6
CONTINUOUS
 10
123.7851430271772
 20
43.605889934201748
 30
0.0
  0
VERTEX
  5
4A14
  8
241
  6
CONTINUOUS
 10
123.7307363780797
 20
43.814789295375348
 30
0.0
  0
VERTEX
  5
4A15
  8
241
  6
CONTINUOUS
 10
123.7034198769654
 20
44.026321536925359
 30
0.0
  0
VERTEX
  5
4A16
  8
241
  6
CONTINUOUS
 10
123.7034198769654
 20
44.238733836079057
 30
0.0
  0
VERTEX
  5
4A17
  8
241
  6
CONTINUOUS
 10
123.7307363780797
 20
44.450266077629067
 30
0.0
  0
VERTEX
  5
4A18
  8
241
  6
CONTINUOUS
 10
123.7851430271772
 20
44.659165438802667
 30
0.0
  0
VERTEX
  5
4A19
  8
241
  6
CONTINUOUS
 10
123.8661889936285
 20
44.863700913703042
 30
0.0
  0
VERTEX
  5
4A1A
  8
241
  6
CONTINUOUS
 10
123.9732027050316
 20
45.062177656969311
 30
0.0
  0
VERTEX
  5
4A1B
  8
241
  6
CONTINUOUS
 10
124.1052974120711
 20
45.252951027799213
 30
0.0
  0
VERTEX
  5
4A1C
  8
241
  6
CONTINUOUS
 10
124.2613785364029
 20
45.434440217960379
 30
0.0
  0
VERTEX
  5
4A1D
  8
241
  6
CONTINUOUS
 10
124.440152740675
 20
45.605141350865651
 30
0.0
  0
VERTEX
  5
4A1E
  8
241
  6
CONTINUOUS
 10
124.6401386455284
 20
45.763639943167618
 30
0.0
  0
VERTEX
  5
4A1F
  8
241
  6
CONTINUOUS
 10
124.8596791047725
 20
45.908622625613127
 30
0.0
  0
VERTEX
  5
4A20
  8
241
  6
CONTINUOUS
 10
125.0969549370206
 20
46.038888026035437
 30
0.0
  0
VERTEX
  5
4A21
  8
241
  6
CONTINUOUS
 10
125.3499999999996
 20
46.153356724301027
 30
0.0
  0
VERTEX
  5
4A22
  8
241
  6
CONTINUOUS
 10
125.61671748262459
 20
46.251080196725752
 30
0.0
  0
VERTEX
  5
4A23
  8
241
  6
CONTINUOUS
 10
125.89489727983531
 20
46.331248675840243
 30
0.0
  0
VERTEX
  5
4A24
  8
241
  6
CONTINUOUS
 10
126.18223430622299
 20
46.393197860378677
 30
0.0
  0
VERTEX
  5
4A25
  8
241
  6
CONTINUOUS
 10
126.4763475966939
 20
46.436414419887782
 30
0.0
  0
VERTEX
  5
4A26
  8
241
  6
CONTINUOUS
 10
126.77480003589611
 20
46.460540248345069
 30
0.0
  0
VERTEX
  5
4A27
  8
241
  6
CONTINUOUS
 10
127.07511855292471
 20
46.465375431537801
 30
0.0
  0
VERTEX
  5
4A28
  8
241
  6
CONTINUOUS
 10
127.37481461396609
 20
46.450879903615267
 30
0.0
  0
VERTEX
  5
4A29
  8
241
  6
CONTINUOUS
 10
127.6714048430732
 20
46.417173779086824
 30
0.0
  0
VERTEX
  5
4A2A
  8
241
  6
CONTINUOUS
 10
127.9624316002004
 20
46.364536357516023
 30
0.0
  0
VERTEX
  5
4A2B
  8
241
  6
CONTINUOUS
 10
128.2454833459831
 20
46.293403809155052
 30
0.0
  0
VERTEX
  5
4A2C
  8
241
  6
CONTINUOUS
 10
128.5182146245123
 20
46.204365560702172
 30
0.0
  0
VERTEX
  5
4A2D
  8
241
  6
CONTINUOUS
 10
128.77836549852091
 20
46.098159411125259
 30
0.0
  0
VERTEX
  5
4A2E
  8
241
  6
CONTINUOUS
 10
129.02378027593571
 20
45.97566541802825
 30
0.0
  0
VERTEX
  5
4A2F
  8
241
  6
CONTINUOUS
 10
129.25242537262099
 20
45.8378986052155
 30
0.0
  0
VERTEX
  5
4A30
  8
241
  6
CONTINUOUS
 10
129.46240616329681
 20
45.686000551886082
 30
0.0
  0
VERTEX
  5
4A31
  8
241
  6
CONTINUOUS
 10
129.6519826810009
 20
45.521229933148092
 30
0.0
  0
VERTEX
  5
4A32
  8
241
  6
CONTINUOUS
 10
129.81958403500289
 20
45.344952090240767
 30
0.0
  0
VERTEX
  5
4A33
  8
241
  6
CONTINUOUS
 10
129.9638214276996
 20
45.158627716886897
 30
0.0
  0
VERTEX
  5
4A34
  8
241
  6
CONTINUOUS
 10
130.08349966262949
 20
44.963800755524389
 30
0.0
  0
VERTEX
  5
4A35
  8
241
  6
CONTINUOUS
 10
130.17762704824719
 20
44.762085603713331
 30
0.0
  0
VERTEX
  5
4A36
  8
241
  6
CONTINUOUS
 10
130.24542361539079
 20
44.55515373672938
 30
0.0
  0
VERTEX
  5
4A37
  8
241
  6
CONTINUOUS
 10
130.28632758035349
 20
44.344719857192537
 30
0.0
  0
VERTEX
  5
4A38
  8
241
  6
CONTINUOUS
 10
130.29999999999939
 20
44.132527686502257
 30
0.0
  0
SEQEND
  5
4A39
  8
241
  6
CONTINUOUS
  0
LINE
  5
4A3A
  8
241
 10
104.2500000000003
 20
62.500000000000341
 30
0.0
 11
104.2500000000003
 21
56.000000000000341
 31
0.0
  0
LINE
  5
4A3B
  8
241
 10
101.5000000000003
 20
57.443375672974412
 30
0.0
 11
99.000000000000327
 21
58.886751345948483
 31
0.0
  0
LINE
  5
4A3C
  8
241
 10
101.5000000000003
 20
57.443375672974412
 30
0.0
 11
101.5000000000003
 21
54.556624327026263
 31
0.0
  0
LINE
  5
4A3D
  8
241
 10
99.000000000000185
 20
53.113248654052192
 30
0.0
 11
101.5000000000003
 21
54.556624327026263
 31
0.0
  0
LINE
  5
4A3E
  8
240
  6
CONTINUOUS
 10
108.00000000000151
 20
62.499999999999872
 30
0.0
 11
120.0000000000005
 21
62.499999999999872
 31
0.0
1001
GRPNAME
1000
PASTMD01
  0
LINE
  5
4A3F
  8
240
  6
CONTINUOUS
 10
134.00000000000051
 20
62.499999999999872
 30
0.0
 11
120.0000000000005
 21
62.499999999999872
 31
0.0
1001
GRPNAME
1000
PASTMD01
  0
LINE
  5
4A40
  8
241
 10
108.0000000000018
 20
-3.999999999999996
 30
0.0
 11
106.20000000000179
 21
-3.999999999999996
 31
0.0
1001
GRPNAME
1000
PASTMD01
  0
LINE
  5
4A41
  8
241
 10
106.20000000000179
 20
-3.999999999999996
 30
0.0
 11
106.20000000000159
 21
50.249999999999659
 31
0.0
1001
GRPNAME
1000
PASTMD01
  0
LINE
  5
4A42
  8
241
 10
108.0000000000018
 20
-3.999999999999996
 30
0.0
 11
108.00000000000161
 21
50.249999999999631
 31
0.0
1001
GRPNAME
1000
PASTMD01
  0
LINE
  5
4A43
  8
241
 10
120.0000000000005
 20
62.499999999999872
 30
0.0
 11
120.0000000000006
 21
-62.5
 31
0.0
1001
GRPNAME
1000
PASTMD01
  0
LINE
  5
4A44
  8
241
 10
134.00000000000051
 20
62.499999999999872
 30
0.0
 11
134.0
 21
-62.5
 31
0.0
1001
GRPNAME
1000
PASTMD01
  0
LINE
  5
4A45
  8
245
 10
309.92539327350721
 20
0.000000000000341
 30
0.0
 11
155.0000000000002
 21
0.000000000000341
 31
0.0
1001
GRPNAME
1000
00000002
  0
LINE
  5
4A46
  8
241
 10
93.750000000000256
 20
62.500000000000341
 30
0.0
 11
93.750000000000256
 21
56.000000000000341
 31
0.0
  0
LINE
  5
4A47
  8
241
 10
96.500000000000185
 20
57.443375672974412
 30
0.0
 11
96.500000000000185
 21
54.556624327026263
 31
0.0
  0
LINE
  5
4A48
  8
241
 10
86.750000000000298
 20
62.500000000000341
 30
0.0
 11
86.750000000000298
 21
56.000000000000341
 31
0.0
  0
LINE
  5
4A49
  8
241
 10
84.000000000000327
 20
57.443375672974412
 30
0.0
 11
84.000000000000327
 21
54.556624327026263
 31
0.0
  0
LINE
  5
4A4A
  8
240
  6
CONTINUOUS
 10
75.000000000000284
 20
62.499999999999872
 30
0.0
 11
74.000000000000298
 21
61.499999999999872
 31
0.0
1001
GRPNAME
1000
PASTMD01
  0
LINE
  5
4A4B
  8
241
 10
76.250000000000284
 20
62.500000000000341
 30
0.0
 11
76.250000000000284
 21
56.000000000000341
 31
0.0
  0
LINE
  5
4A4C
  8
241
 10
81.500000000000185
 20
53.113248654052192
 30
0.0
 11
79.000000000000284
 21
54.556624327026263
 31
0.0
  0
LINE
  5
4A4D
  8
241
 10
79.000000000000284
 20
57.443375672974412
 30
0.0
 11
79.000000000000284
 21
54.556624327026263
 31
0.0
  0
LINE
  5
4A4E
  8
241
 10
79.000000000000284
 20
57.443375672974412
 30
0.0
 11
81.500000000000284
 21
58.886751345948483
 31
0.0
  0
LINE
  5
4A4F
  8
240
  6
CONTINUOUS
 10
64.999999999999844
 20
43.500000000000668
 30
0.0
 11
65.499999999999858
 21
44.000000000000661
 31
0.0
1001
GRPNAME
1000
PASTMD07
  0
LINE
  5
4A50
  8
240
  6
CONTINUOUS
 10
71.500000000001322
 20
44.000000000000661
 30
0.0
 11
65.499999999999858
 21
44.000000000000661
 31
0.0
1001
GRPNAME
1000
PASTMD07
  0
ARC
  5
4A51
  8
240
  6
CONTINUOUS
 10
71.500000000001322
 20
45.000000000000661
 30
0.0
 40
1.0
 50
269.99999999228288
 51
359.99999999228118
1001
GRPNAME
1000
PASTMD07
  0
LINE
  5
4A52
  8
240
  6
CONTINUOUS
 10
72.500000000001307
 20
49.750000000000917
 30
0.0
 11
72.500000000001307
 21
45.000000000000661
 31
0.0
1001
GRPNAME
1000
PASTMD07
  0
LINE
  5
4A53
  8
240
  6
CONTINUOUS
 10
72.500000000001307
 20
49.750000000000917
 30
0.0
 11
73.000000000001307
 21
50.250000000000909
 31
0.0
1001
GRPNAME
1000
PASTMD07
  0
LINE
  5
4A54
  8
240
  6
CONTINUOUS
 10
73.000000000001307
 20
50.250000000000909
 30
0.0
 11
74.000000000001293
 21
50.250000000000909
 31
0.0
1001
GRPNAME
1000
PASTMD07
  0
CIRCLE
  5
4A55
  8
241
 10
81.500000000000284
 20
56.000000000000341
 30
0.0
 40
5.0
  0
ARC
  5
4A56
  8
241
 10
81.500000000000284
 20
56.000000000000341
 30
0.0
 40
5.25
 50
179.99999999485411
 51
359.99999999485402
  0
LINE
  5
4A57
  8
241
 10
84.000000000000327
 20
57.443375672974412
 30
0.0
 11
81.500000000000284
 21
58.886751345948483
 31
0.0
  0
LINE
  5
4A58
  8
241
 10
81.500000000000185
 20
53.113248654052192
 30
0.0
 11
84.000000000000327
 21
54.556624327026263
 31
0.0
  0
LINE
  5
4A59
  8
240
 10
48.000000000000753
 20
43.999999999945771
 30
0.0
 11
64.499999999999829
 21
44.000000000002011
 31
0.0
1001
GRPNAME
1000
PASTMD07
  0
LINE
  5
4A5A
  8
240
 10
64.999999999999844
 20
42.500000000000547
 30
0.0
 11
64.499999999999829
 21
42.500000000000547
 31
0.0
1001
GRPNAME
1000
PASTMD07
  0
LINE
  5
4A5B
  8
240
 10
74.000000000000298
 20
61.499999999999872
 30
0.0
 11
74.000000000000298
 21
50.250000000000909
 31
0.0
1001
GRPNAME
1000
PASTMD01
  0
LINE
  5
4A5C
  8
240
 10
64.499999999999829
 20
44.000000000002011
 30
0.0
 11
64.499999999999829
 21
42.500000000000547
 31
0.0
1001
GRPNAME
1000
PASTMD07
  0
LINE
  5
4A5D
  8
240
 10
64.999999999999844
 20
43.500000000000668
 30
0.0
 11
64.999999999999844
 21
42.500000000000547
 31
0.0
1001
GRPNAME
1000
PASTMD07
  0
LINE
  5
4A5E
  8
241
 10
72.500000000001307
 20
45.000000000000661
 30
0.0
 11
72.500000000001307
 21
-44.99999999999919
 31
0.0
1001
GRPNAME
1000
PASTMD07
  0
LINE
  5
4A5F
  8
240
 10
75.000000000000284
 20
62.499999999999872
 30
0.0
 11
106.20000000000159
 21
62.499999999999872
 31
0.0
1001
GRPNAME
1000
PASTMD01
  0
ARC
  5
4A60
  8
241
 10
99.000000000000327
 20
56.000000000000341
 30
0.0
 40
5.25
 50
179.99999999485411
 51
359.99999999485402
  0
CIRCLE
  5
4A61
  8
241
 10
99.000000000000327
 20
56.000000000000341
 30
0.0
 40
5.0
  0
LINE
  5
4A62
  8
241
 10
99.000000000000185
 20
53.113248654052192
 30
0.0
 11
96.500000000000185
 21
54.556624327026263
 31
0.0
  0
LINE
  5
4A63
  8
241
 10
96.500000000000185
 20
57.443375672974412
 30
0.0
 11
99.000000000000327
 21
58.886751345948483
 31
0.0
  0
LINE
  5
4A64
  8
240
 10
106.20000000000159
 20
50.249999999999631
 30
0.0
 11
108.00000000000161
 21
50.249999999999631
 31
0.0
1001
GRPNAME
1000
PASTMD01
  0
LINE
  5
4A65
  8
245
 10
-50.000000000000007
 20
0.0
 30
0.0
 11
155.0000000000002
 21
0.0
 31
0.0
1001
GRPNAME
1000
PASTMD01
  0
POLYLINE
  5
4A66
  8
241
 66
     1
 10
0.0
 20
0.0
 30
0.0
1001
GRPNAME
1000
PASTMD01
  0
VERTEX
  5
4A67
  8
241
  6
CONTINUOUS
 10
130.29999999999939
 20
-44.132527686502002
 30
0.0
  0
VERTEX
  5
4A68
  8
241
  6
CONTINUOUS
 10
130.28632758035349
 20
-43.920335515811743
 30
0.0
  0
VERTEX
  5
4A69
  8
241
  6
CONTINUOUS
 10
130.24542361539079
 20
-43.709901636274907
 30
0.0
  0
VERTEX
  5
4A6A
  8
241
  6
CONTINUOUS
 10
130.17762704824719
 20
-43.502969769290978
 30
0.0
  0
VERTEX
  5
4A6B
  8
241
  6
CONTINUOUS
 10
130.08349966262949
 20
-43.301254617480033
 30
0.0
  0
VERTEX
  5
4A6C
  8
241
  6
CONTINUOUS
 10
129.9638214276996
 20
-43.106427656117361
 30
0.0
  0
VERTEX
  5
4A6D
  8
241
  6
CONTINUOUS
 10
129.81958403500289
 20
-42.920103282763513
 30
0.0
  0
VERTEX
  5
4A6E
  8
241
  6
CONTINUOUS
 10
129.6519826810009
 20
-42.743825439856188
 30
0.0
  0
VERTEX
  5
4A6F
  8
241
  6
CONTINUOUS
 10
129.46240616329681
 20
-42.57905482111822
 30
0.0
  0
VERTEX
  5
4A70
  8
241
  6
CONTINUOUS
 10
129.25242537262099
 20
-42.427156767788787
 30
0.0
  0
VERTEX
  5
4A71
  8
241
  6
CONTINUOUS
 10
129.02378027593571
 20
-42.289389954976052
 30
0.0
  0
VERTEX
  5
4A72
  8
241
  6
CONTINUOUS
 10
128.77836549852091
 20
-42.166895961879042
 30
0.0
  0
VERTEX
  5
4A73
  8
241
  6
CONTINUOUS
 10
128.5182146245123
 20
-42.060689812302137
 30
0.0
  0
VERTEX
  5
4A74
  8
241
  6
CONTINUOUS
 10
128.2454833459831
 20
-41.97165156384925
 30
0.0
  0
VERTEX
  5
4A75
  8
241
  6
CONTINUOUS
 10
127.9624316002004
 20
-41.90051901548825
 30
0.0
  0
VERTEX
  5
4A76
  8
241
  6
CONTINUOUS
 10
127.6714048430732
 20
-41.847881593917457
 30
0.0
  0
VERTEX
  5
4A77
  8
241
  6
CONTINUOUS
 10
127.37481461396609
 20
-41.814175469389049
 30
0.0
  0
VERTEX
  5
4A78
  8
241
  6
CONTINUOUS
 10
127.07511855292471
 20
-41.799679941466472
 30
0.0
  0
VERTEX
  5
4A79
  8
241
  6
CONTINUOUS
 10
126.77480003589611
 20
-41.80451512465924
 30
0.0
  0
VERTEX
  5
4A7A
  8
241
  6
CONTINUOUS
 10
126.4763475966939
 20
-41.828640953116519
 30
0.0
  0
VERTEX
  5
4A7B
  8
241
  6
CONTINUOUS
 10
126.18223430622299
 20
-41.871857512625638
 30
0.0
  0
VERTEX
  5
4A7C
  8
241
  6
CONTINUOUS
 10
125.89489727983531
 20
-41.933806697164073
 30
0.0
  0
VERTEX
  5
4A7D
  8
241
  6
CONTINUOUS
 10
125.61671748262459
 20
-42.013975176278556
 30
0.0
  0
VERTEX
  5
4A7E
  8
241
  6
CONTINUOUS
 10
125.3499999999996
 20
-42.111698648703282
 30
0.0
  0
VERTEX
  5
4A7F
  8
241
  6
CONTINUOUS
 10
125.0969549370206
 20
-42.226167346968843
 30
0.0
  0
VERTEX
  5
4A80
  8
241
  6
CONTINUOUS
 10
124.8596791047725
 20
-42.356432747391182
 30
0.0
  0
VERTEX
  5
4A81
  8
241
  6
CONTINUOUS
 10
124.6401386455284
 20
-42.50141542983669
 30
0.0
  0
VERTEX
  5
4A82
  8
241
  6
CONTINUOUS
 10
124.440152740675
 20
-42.659914022138622
 30
0.0
  0
VERTEX
  5
4A83
  8
241
  6
CONTINUOUS
 10
124.2613785364029
 20
-42.830615155043908
 30
0.0
  0
VERTEX
  5
4A84
  8
241
  6
CONTINUOUS
 10
124.1052974120711
 20
-43.012104345204968
 30
0.0
  0
VERTEX
  5
4A85
  8
241
  6
CONTINUOUS
 10
123.9732027050316
 20
-43.202877716034997
 30
0.0
  0
VERTEX
  5
4A86
  8
241
  6
CONTINUOUS
 10
123.8661889936285
 20
-43.401354459301253
 30
0.0
  0
VERTEX
  5
4A87
  8
241
  6
CONTINUOUS
 10
123.7851430271772
 20
-43.605889934201613
 30
0.0
  0
VERTEX
  5
4A88
  8
241
  6
CONTINUOUS
 10
123.7307363780797
 20
-43.81478929537522
 30
0.0
  0
VERTEX
  5
4A89
  8
241
  6
CONTINUOUS
 10
123.7034198769654
 20
-44.026321536925252
 30
0.0
  0
VERTEX
  5
4A8A
  8
241
  6
CONTINUOUS
 10
123.7034198769654
 20
-44.23873383607895
 30
0.0
  0
VERTEX
  5
4A8B
  8
241
  6
CONTINUOUS
 10
123.7307363780797
 20
-44.450266077628932
 30
0.0
  0
VERTEX
  5
4A8C
  8
241
  6
CONTINUOUS
 10
123.7851430271772
 20
-44.659165438802567
 30
0.0
  0
VERTEX
  5
4A8D
  8
241
  6
CONTINUOUS
 10
123.8661889936285
 20
-44.863700913702921
 30
0.0
  0
VERTEX
  5
4A8E
  8
241
  6
CONTINUOUS
 10
123.9732027050316
 20
-45.06217765696919
 30
0.0
  0
VERTEX
  5
4A8F
  8
241
  6
CONTINUOUS
 10
124.1052974120711
 20
-45.252951027799092
 30
0.0
  0
VERTEX
  5
4A90
  8
241
  6
CONTINUOUS
 10
124.2613785364029
 20
-45.4344402179604
 30
0.0
  0
VERTEX
  5
4A91
  8
241
  6
CONTINUOUS
 10
124.440152740675
 20
-45.60514135086553
 30
0.0
  0
VERTEX
  5
4A92
  8
241
  6
CONTINUOUS
 10
124.6401386455284
 20
-45.763639943167377
 30
0.0
  0
VERTEX
  5
4A93
  8
241
  6
CONTINUOUS
 10
124.8596791047725
 20
-45.908622625613113
 30
0.0
  0
VERTEX
  5
4A94
  8
241
  6
CONTINUOUS
 10
125.0969549370206
 20
-46.03888802603521
 30
0.0
  0
VERTEX
  5
4A95
  8
241
  6
CONTINUOUS
 10
125.3499999999996
 20
-46.153356724300913
 30
0.0
  0
VERTEX
  5
4A96
  8
241
  6
CONTINUOUS
 10
125.61671748262459
 20
-46.251080196725511
 30
0.0
  0
VERTEX
  5
4A97
  8
241
  6
CONTINUOUS
 10
125.89489727983531
 20
-46.331248675840122
 30
0.0
  0
VERTEX
  5
4A98
  8
241
  6
CONTINUOUS
 10
126.18223430622299
 20
-46.393197860378542
 30
0.0
  0
VERTEX
  5
4A99
  8
241
  6
CONTINUOUS
 10
126.4763475966939
 20
-46.436414419887797
 30
0.0
  0
VERTEX
  5
4A9A
  8
241
  6
CONTINUOUS
 10
126.77480003589611
 20
-46.460540248345069
 30
0.0
  0
VERTEX
  5
4A9B
  8
241
  6
CONTINUOUS
 10
127.07511855292471
 20
-46.465375431537723
 30
0.0
  0
VERTEX
  5
4A9C
  8
241
  6
CONTINUOUS
 10
127.37481461396609
 20
-46.450879903615117
 30
0.0
  0
VERTEX
  5
4A9D
  8
241
  6
CONTINUOUS
 10
127.6714048430732
 20
-46.417173779086852
 30
0.0
  0
VERTEX
  5
4A9E
  8
241
  6
CONTINUOUS
 10
127.9624316002004
 20
-46.364536357515817
 30
0.0
  0
VERTEX
  5
4A9F
  8
241
  6
CONTINUOUS
 10
128.2454833459831
 20
-46.293403809154917
 30
0.0
  0
VERTEX
  5
4AA0
  8
241
  6
CONTINUOUS
 10
128.5182146245123
 20
-46.204365560701937
 30
0.0
  0
VERTEX
  5
4AA1
  8
241
  6
CONTINUOUS
 10
128.77836549852091
 20
-46.098159411125138
 30
0.0
  0
VERTEX
  5
4AA2
  8
241
  6
CONTINUOUS
 10
129.02378027593571
 20
-45.975665418028008
 30
0.0
  0
VERTEX
  5
4AA3
  8
241
  6
CONTINUOUS
 10
129.25242537262099
 20
-45.8378986052154
 30
0.0
  0
VERTEX
  5
4AA4
  8
241
  6
CONTINUOUS
 10
129.46240616329681
 20
-45.686000551885947
 30
0.0
  0
VERTEX
  5
4AA5
  8
241
  6
CONTINUOUS
 10
129.6519826810009
 20
-45.521229933147978
 30
0.0
  0
VERTEX
  5
4AA6
  8
241
  6
CONTINUOUS
 10
129.81958403500289
 20
-45.34495209024066
 30
0.0
  0
VERTEX
  5
4AA7
  8
241
  6
CONTINUOUS
 10
129.9638214276996
 20
-45.158627716886713
 30
0.0
  0
VERTEX
  5
4AA8
  8
241
  6
CONTINUOUS
 10
130.08349966262949
 20
-44.963800755524296
 30
0.0
  0
VERTEX
  5
4AA9
  8
241
  6
CONTINUOUS
 10
130.17762704824719
 20
-44.762085603713317
 30
0.0
  0
VERTEX
  5
4AAA
  8
241
  6
CONTINUOUS
 10
130.24542361539079
 20
-44.555153736729117
 30
0.0
  0
VERTEX
  5
4AAB
  8
241
  6
CONTINUOUS
 10
130.28632758035349
 20
-44.344719857192281
 30
0.0
  0
VERTEX
  5
4AAC
  8
241
  6
CONTINUOUS
 10
130.29999999999939
 20
-44.132527686502002
 30
0.0
  0
SEQEND
  5
4AAD
  8
241
  6
CONTINUOUS
  0
LINE
  5
4AAE
  8
240
  6
CONTINUOUS
 10
120.0000000000006
 20
-62.499999999999069
 30
0.0
 11
119.5000000000002
 21
-62.499999999999069
 31
0.0
1001
GRPNAME
1000
PASTMD01
  0
LINE
  5
4AAF
  8
240
  6
CONTINUOUS
 10
134.0000000000002
 20
-62.5
 30
0.0
 11
120.0000000000004
 21
-62.5
 31
0.0
1001
GRPNAME
1000
PASTMD01
  0
LINE
  5
4AB0
  8
240
  6
CONTINUOUS
 10
142.49999999999969
 20
-88.999999999999773
 30
0.0
 11
142.99999999999969
 21
-89.499999999999773
 31
0.0
1001
GRPNAME
1000
PASTMD01
  0
LINE
  5
4AB1
  8
240
  6
CONTINUOUS
 10
142.99999999999969
 20
-89.499999999999773
 30
0.0
 11
142.99999999999969
 21
-109.9999999999997
 31
0.0
1001
GRPNAME
1000
PASTMD01
  0
LINE
  5
4AB2
  8
240
  6
CONTINUOUS
 10
142.49999999999969
 20
-88.999999999999773
 30
0.0
 11
119.5000000000001
 21
-88.999999999999645
 31
0.0
1001
GRPNAME
1000
PASTMD01
  0
LINE
  5
4AB3
  8
240
  6
CONTINUOUS
 10
119.5000000000002
 20
-62.499999999999069
 30
0.0
 11
119.5000000000001
 21
-88.999999999999645
 31
0.0
1001
GRPNAME
1000
PASTMD01
  0
LINE
  5
4AB4
  8
240
  6
CONTINUOUS
 10
142.99999999999969
 20
-130.4999999999996
 30
0.0
 11
142.49999999999969
 21
-130.9999999999996
 31
0.0
1001
GRPNAME
1000
PASTMD01
  0
LINE
  5
4AB5
  8
241
 10
135.99999999999969
 20
-130.9999999999996
 30
0.0
 11
135.99999999999969
 21
-88.999999999999773
 31
0.0
1001
GRPNAME
1000
PASTMD01
  0
LINE
  5
4AB6
  8
240
  6
CONTINUOUS
 10
142.99999999999969
 20
-130.4999999999996
 30
0.0
 11
142.99999999999969
 21
-109.9999999999997
 31
0.0
1001
GRPNAME
1000
PASTMD01
  0
LINE
  5
4AB7
  8
240
  6
CONTINUOUS
 10
64.999999999999716
 20
-43.499999999999183
 30
0.0
 11
65.499999999999702
 21
-43.99999999999919
 31
0.0
1001
GRPNAME
1000
PASTMD07
  0
LINE
  5
4AB8
  8
240
  6
CONTINUOUS
 10
71.50000000000118
 20
-43.99999999999919
 30
0.0
 11
65.499999999999702
 21
-43.99999999999919
 31
0.0
1001
GRPNAME
1000
PASTMD07
  0
ARC
  5
4AB9
  8
240
  6
CONTINUOUS
 10
71.50000000000118
 20
-44.99999999999919
 30
0.0
 40
1.0
 50
359.99999998713531
 51
89.999999987138551
1001
GRPNAME
1000
PASTMD07
  0
LINE
  5
4ABA
  8
240
  6
CONTINUOUS
 10
71.000000000001549
 20
-44.999999999998629
 30
0.0
 11
66.000000000001549
 21
-44.999999999998629
 31
0.0
1001
GRPNAME
1000
PASTMD07
  0
LINE
  5
4ABB
  8
241
 10
66.000000000426496
 20
-50.0
 30
0.0
 11
71.000000000001549
 21
-50.0
 31
0.0
1001
GRPNAME
1000
PASTMD07
  0
LINE
  5
4ABC
  8
240
  6
CONTINUOUS
 10
72.50000000000118
 20
-49.749999999999432
 30
0.0
 11
73.000000000001194
 21
-50.249999999999432
 31
0.0
1001
GRPNAME
1000
PASTMD07
  0
LINE
  5
4ABD
  8
240
  6
CONTINUOUS
 10
72.000000000001336
 20
-50.999999999998849
 30
0.0
 11
71.000000000001549
 21
-49.99999999999919
 31
0.0
1001
GRPNAME
1000
PASTMD07
  0
LINE
  5
4ABE
  8
240
  6
CONTINUOUS
 10
73.000000000001194
 20
-50.249999999999432
 30
0.0
 11
74.000000000001194
 21
-50.249999999999432
 31
0.0
1001
GRPNAME
1000
PASTMD07
  0
LINE
  5
4ABF
  8
240
  6
CONTINUOUS
 10
72.50000000000118
 20
-49.749999999999432
 30
0.0
 11
72.50000000000118
 21
-44.99999999999919
 31
0.0
1001
GRPNAME
1000
PASTMD07
  0
LINE
  5
4AC0
  8
240
  6
CONTINUOUS
 10
71.000000000001549
 20
-44.999999999998629
 30
0.0
 11
71.000000000001549
 21
-49.999999999999432
 31
0.0
1001
GRPNAME
1000
PASTMD07
  0
LINE
  5
4AC1
  8
240
  6
CONTINUOUS
 10
66.000000000001549
 20
-44.999999999998629
 30
0.0
 11
66.000000000001549
 21
-50.999999999999083
 31
0.0
1001
GRPNAME
1000
PASTMD07
  0
LINE
  5
4AC2
  8
240
  6
CONTINUOUS
 10
72.000000000000412
 20
-61.999999999999432
 30
0.0
 11
74.000000000000625
 21
-61.999999999999432
 31
0.0
1001
GRPNAME
1000
PASTMD01
  0
LINE
  5
4AC3
  8
240
  6
CONTINUOUS
 10
72.000000000000412
 20
-79.999999999999318
 30
0.0
 11
74.000000000000625
 21
-79.999999999999318
 31
0.0
1001
GRPNAME
1000
PASTMD01
  0
LINE
  5
4AC4
  8
240
  6
CONTINUOUS
 10
72.000000000000412
 20
-71.999999999999417
 30
0.0
 11
74.000000000000625
 21
-71.999999999999417
 31
0.0
1001
GRPNAME
1000
PASTMD01
  0
LINE
  5
4AC5
  8
240
 10
64.000000000001108
 20
-44.499999999999197
 30
0.0
 11
64.49999999999973
 21
-44.00000000000054
 31
0.0
1001
GRPNAME
1000
PASTMD07
  0
LINE
  5
4AC6
  8
243
  6
HIDDEN2
 10
61.393670461135173
 20
-44.0
 30
0.0
 11
60.000000000000412
 21
-44.0
 31
0.0
1001
GRPNAME
1000
PASTMD01
  0
LINE
  5
4AC7
  8
243
  6
HIDDEN2
 10
64.000000000000412
 20
-44.0
 30
0.0
 11
62.854950102237517
 21
-44.0
 31
0.0
1001
GRPNAME
1000
PASTMD01
  0
LINE
  5
4AC8
  8
243
  6
HIDDEN2
 10
60.000000000000412
 20
-44.0
 30
0.0
 11
60.000000000000412
 21
-45.600604266487487
 31
0.0
1001
GRPNAME
1000
PASTMD01
  0
LINE
  5
4AC9
  8
243
  6
HIDDEN2
 10
61.393670461135287
 20
-43.999999999999758
 30
0.0
 11
60.000000000000519
 21
-43.999999999999758
 31
0.0
1001
GRPNAME
1000
PASTMD07
  0
LINE
  5
4ACA
  8
243
  6
HIDDEN2
 10
64.000000000000526
 20
-43.999999999999758
 30
0.0
 11
62.854950102237638
 21
-43.999999999999758
 31
0.0
1001
GRPNAME
1000
PASTMD07
  0
LINE
  5
4ACB
  8
243
  6
HIDDEN2
 10
60.000000000000519
 20
-43.999999999999758
 30
0.0
 11
60.000000000000519
 21
-45.60060426648726
 31
0.0
1001
GRPNAME
1000
PASTMD07
  0
LINE
  5
4ACC
  8
243
  6
HIDDEN2
 10
61.393670461135287
 20
-43.999999999999758
 30
0.0
 11
60.000000000000519
 21
-43.999999999999758
 31
0.0
1001
GRPNAME
1000
PASTMD07
  0
LINE
  5
4ACD
  8
243
  6
HIDDEN2
 10
64.000000000000526
 20
-43.999999999999758
 30
0.0
 11
62.854950102237638
 21
-43.999999999999758
 31
0.0
1001
GRPNAME
1000
PASTMD07
  0
LINE
  5
4ACE
  8
243
  6
HIDDEN2
 10
60.000000000000519
 20
-43.999999999999758
 30
0.0
 11
60.000000000000519
 21
-45.60060426648726
 31
0.0
1001
GRPNAME
1000
PASTMD07
  0
LINE
  5
4ACF
  8
243
  6
HIDDEN2
 10
60.000000000000519
 20
-43.999999999999758
 30
0.0
 11
60.000000000000519
 21
-45.60060426648726
 31
0.0
1001
GRPNAME
1000
PASTMD07
  0
LINE
  5
4AD0
  8
243
  6
HIDDEN2
 10
64.000000000000526
 20
-43.999999999999758
 30
0.0
 11
62.854950102237638
 21
-43.999999999999758
 31
0.0
1001
GRPNAME
1000
PASTMD07
  0
LINE
  5
4AD1
  8
243
  6
HIDDEN2
 10
61.393670461135287
 20
-43.999999999999758
 30
0.0
 11
60.000000000000519
 21
-43.999999999999758
 31
0.0
1001
GRPNAME
1000
PASTMD07
  0
LINE
  5
4AD2
  8
240
  6
CONTINUOUS
 10
64.000000000000412
 20
-48.499999999999758
 30
0.0
 11
63.500000000000398
 21
-48.99999999999978
 31
0.0
1001
GRPNAME
1000
PASTMD01
  0
LINE
  5
4AD3
  8
240
  6
CONTINUOUS
 10
64.000000000000526
 20
-48.499999999999552
 30
0.0
 11
63.500000000000519
 21
-48.999999999999531
 31
0.0
1001
GRPNAME
1000
PASTMD07
  0
LINE
  5
4AD4
  8
240
  6
CONTINUOUS
 10
64.00000000000118
 20
-48.499999999999552
 30
0.0
 11
63.500000000001187
 21
-48.999999999999531
 31
0.0
1001
GRPNAME
1000
PASTMD07
  0
LINE
  5
4AD5
  8
240
  6
CONTINUOUS
 10
64.00000000000118
 20
-48.499999999999552
 30
0.0
 11
63.500000000001187
 21
-48.999999999999531
 31
0.0
1001
GRPNAME
1000
PASTMD07
  0
LINE
  5
4AD6
  8
243
  6
HIDDEN2
 10
60.000000000000412
 20
-47.215643787957319
 30
0.0
 11
60.000000000000412
 21
-48.99999999999978
 31
0.0
1001
GRPNAME
1000
PASTMD01
  0
LINE
  5
4AD7
  8
243
  6
HIDDEN2
 10
60.000000000000519
 20
-47.215643787957113
 30
0.0
 11
60.000000000000519
 21
-48.999999999999531
 31
0.0
1001
GRPNAME
1000
PASTMD07
  0
LINE
  5
4AD8
  8
243
  6
HIDDEN2
 10
60.000000000000519
 20
-47.215643787957113
 30
0.0
 11
60.000000000000519
 21
-48.999999999999531
 31
0.0
1001
GRPNAME
1000
PASTMD07
  0
LINE
  5
4AD9
  8
243
  6
HIDDEN2
 10
60.000000000000519
 20
-47.215643787957113
 30
0.0
 11
60.000000000000519
 21
-48.999999999999531
 31
0.0
1001
GRPNAME
1000
PASTMD07
  0
LINE
  5
4ADA
  8
240
  6
CONTINUOUS
 10
63.500000000000398
 20
-48.99999999999978
 30
0.0
 11
48.000000000000519
 21
-48.99999999999978
 31
0.0
1001
GRPNAME
1000
PASTMD01
  0
LINE
  5
4ADB
  8
240
  6
CONTINUOUS
 10
63.500000000000519
 20
-48.999999999999531
 30
0.0
 11
48.000000000000611
 21
-48.999999999999531
 31
0.0
1001
GRPNAME
1000
PASTMD07
  0
LINE
  5
4ADC
  8
240
  6
CONTINUOUS
 10
58.000000000000412
 20
-61.999999999999432
 30
0.0
 11
64.000000000000412
 21
-61.999999999999432
 31
0.0
1001
GRPNAME
1000
PASTMD01
  0
LINE
  5
4ADD
  8
240
  6
CONTINUOUS
 10
58.000000000000412
 20
-71.999999999999417
 30
0.0
 11
64.000000000000412
 21
-71.999999999999417
 31
0.0
1001
GRPNAME
1000
PASTMD01
  0
LINE
  5
4ADE
  8
240
  6
CONTINUOUS
 10
58.000000000000412
 20
-61.999999999999432
 30
0.0
 11
58.000000000000412
 21
-71.999999999999417
 31
0.0
1001
GRPNAME
1000
PASTMD01
  0
LINE
  5
4ADF
  8
240
  6
CONTINUOUS
 10
64.000000000000526
 20
-52.999999999999083
 30
0.0
 11
66.000000000000526
 21
-50.99999999999919
 31
0.0
1001
GRPNAME
1000
PASTMD07
  0
LINE
  5
4AE0
  8
240
  6
CONTINUOUS
 10
64.000000000000526
 20
-52.999999999999083
 30
0.0
 11
66.000000000000526
 21
-50.99999999999919
 31
0.0
1001
GRPNAME
1000
PASTMD07
  0
LINE
  5
4AE1
  8
240
  6
CONTINUOUS
 10
64.000000000443919
 20
-52.999999999555712
 30
0.0
 11
66.000000000443919
 21
-50.999999999555939
 31
0.0
1001
GRPNAME
1000
PASTMD07
  0
LINE
  5
4AE2
  8
241
  6
CONTINUOUS
 10
64.999999999999716
 20
-42.499999999999112
 30
0.0
 11
64.49999999999973
 21
-42.499999999999112
 31
0.0
1001
GRPNAME
1000
PASTMD07
  0
LINE
  5
4AE3
  8
240
  6
CONTINUOUS
 10
72.000000000000412
 20
-89.999999999999432
 30
0.0
 11
74.000000000000625
 21
-89.999999999999432
 31
0.0
1001
GRPNAME
1000
PASTMD01
  0
LINE
  5
4AE4
  8
240
  6
CONTINUOUS
 10
74.000000000000625
 20
-97.499999999999545
 30
0.0
 11
72.000000000000412
 21
-97.499999999999545
 31
0.0
1001
GRPNAME
1000
PASTMD01
  0
LINE
  5
4AE5
  8
240
  6
CONTINUOUS
 10
71.500000000000412
 20
-129.99999999999949
 30
0.0
 11
72.000000000000412
 21
-129.49999999999949
 31
0.0
1001
GRPNAME
1000
PASTMD01
  0
LINE
  5
4AE6
  8
240
  6
CONTINUOUS
 10
74.000000000000625
 20
-122.4999999999995
 30
0.0
 11
72.000000000000412
 21
-122.4999999999995
 31
0.0
1001
GRPNAME
1000
PASTMD01
  0
LINE
  5
4AE7
  8
240
  6
CONTINUOUS
 10
31.000000000000519
 20
-90.999999999999545
 30
0.0
 11
64.000000000000412
 21
-90.999999999999545
 31
0.0
1001
GRPNAME
1000
PASTMD01
  0
LINE
  5
4AE8
  8
240
  6
CONTINUOUS
 10
64.000000000000412
 20
-129.49999999999949
 30
0.0
 11
64.500000000000412
 21
-129.99999999999949
 31
0.0
1001
GRPNAME
1000
PASTMD01
  0
LINE
  5
4AE9
  8
240
  6
CONTINUOUS
 10
31.000000000000519
 20
-128.99999999999949
 30
0.0
 11
64.000000000000412
 21
-128.99999999999949
 31
0.0
1001
GRPNAME
1000
PASTMD01
  0
LINE
  5
4AEA
  8
240
  6
CONTINUOUS
 10
64.500000000000412
 20
-129.99999999999949
 30
0.0
 11
71.500000000000412
 21
-129.99999999999949
 31
0.0
1001
GRPNAME
1000
PASTMD01
  0
LINE
  5
4AEB
  8
240
  6
CONTINUOUS
 10
64.000000000000526
 20
-129.49999999999929
 30
0.0
 11
64.000000000000526
 21
-128.99999999999949
 31
0.0
1001
GRPNAME
1000
PASTMD07
  0
LINE
  5
4AEC
  8
240
  6
CONTINUOUS
 10
64.000000000443919
 20
-52.999999999555712
 30
0.0
 11
64.000000000443919
 21
-61.999999999999432
 31
0.0
1001
GRPNAME
1000
PASTMD07
  0
LINE
  5
4AED
  8
240
  6
CONTINUOUS
 10
72.000000000001336
 20
-50.999999999998849
 30
0.0
 11
72.000000000001336
 21
-61.999999999999439
 31
0.0
1001
GRPNAME
1000
PASTMD07
  0
LINE
  5
4AEE
  8
240
  6
CONTINUOUS
 10
74.000000000000625
 20
-129.99999999999949
 30
0.0
 11
75.000000000000625
 21
-130.99999999999949
 31
0.0
1001
GRPNAME
1000
PASTMD01
  0
CIRCLE
  5
4AEF
  8
241
 10
97.000000000001521
 20
-53.749999999999531
 30
0.0
 40
5.0
1001
GRPNAME
1000
PASTMD01
  0
LINE
  5
4AF0
  8
240
  6
CONTINUOUS
 10
75.000000000000625
 20
-130.99999999999949
 30
0.0
 11
142.49999999999969
 21
-130.9999999999996
 31
0.0
1001
GRPNAME
1000
PASTMD01
  0
LINE
  5
4AF1
  8
245
 10
1.0512487026672439
 20
-109.9999999999995
 30
0.0
 11
148.00913724173759
 21
-109.9999999999997
 31
0.0
1001
GRPNAME
1000
PASTMD01
  0
LINE
  5
4AF2
  8
240
  6
CONTINUOUS
 10
74.000000000000625
 20
-129.99999999999949
 30
0.0
 11
74.000000000000625
 21
-122.4999999999995
 31
0.0
1001
GRPNAME
1000
PASTMD01
  0
LINE
  5
4AF3
  8
240
  6
CONTINUOUS
 10
64.000000000000526
 20
-48.499999999999552
 30
0.0
 11
64.00000000000054
 21
-44.499999999999773
 31
0.0
1001
GRPNAME
1000
PASTMD07
  0
LINE
  5
4AF4
  8
240
 10
64.49999999999973
 20
-44.00000000000054
 30
0.0
 11
64.49999999999973
 21
-42.499999999999112
 31
0.0
1001
GRPNAME
1000
PASTMD07
  0
LINE
  5
4AF5
  8
240
 10
64.999999999999716
 20
-43.499999999999183
 30
0.0
 11
64.99999999999973
 21
-42.499999999999112
 31
0.0
1001
GRPNAME
1000
PASTMD07
  0
LINE
  5
4AF6
  8
241
 10
64.000000000443919
 20
-61.999999999999432
 30
0.0
 11
64.000000000443919
 21
-71.999999999999417
 31
0.0
1001
GRPNAME
1000
PASTMD07
  0
LINE
  5
4AF7
  8
240
  6
CONTINUOUS
 10
64.000000000443919
 20
-71.999999999999417
 30
0.0
 11
64.000000000443919
 21
-90.999999999999545
 31
0.0
1001
GRPNAME
1000
PASTMD07
  0
LINE
  5
4AF8
  8
241
 10
64.000000000443919
 20
-90.999999999999545
 30
0.0
 11
64.000000000000526
 21
-128.99999999999949
 31
0.0
1001
GRPNAME
1000
PASTMD07
  0
LINE
  5
4AF9
  8
240
  6
CONTINUOUS
 10
72.000000000001336
 20
-122.4999999999995
 30
0.0
 11
72.000000000001336
 21
-129.49999999999861
 31
0.0
1001
GRPNAME
1000
PASTMD07
  0
LINE
  5
4AFA
  8
241
 10
72.000000000001336
 20
-97.499999999999545
 30
0.0
 11
72.000000000001336
 21
-122.4999999999995
 31
0.0
1001
GRPNAME
1000
PASTMD07
  0
LINE
  5
4AFB
  8
240
 10
72.000000000001336
 20
-89.999999999999432
 30
0.0
 11
72.000000000001336
 21
-97.499999999999545
 31
0.0
1001
GRPNAME
1000
PASTMD07
  0
LINE
  5
4AFC
  8
241
 10
72.000000000001336
 20
-79.999999999999318
 30
0.0
 11
72.000000000001336
 21
-89.999999999999432
 31
0.0
1001
GRPNAME
1000
PASTMD07
  0
LINE
  5
4AFD
  8
240
 10
72.000000000001336
 20
-71.999999999999417
 30
0.0
 11
72.000000000001336
 21
-79.999999999999318
 31
0.0
1001
GRPNAME
1000
PASTMD07
  0
LINE
  5
4AFE
  8
241
 10
72.000000000001336
 20
-61.999999999999439
 30
0.0
 11
72.000000000001336
 21
-71.999999999999417
 31
0.0
1001
GRPNAME
1000
PASTMD07
  0
LINE
  5
4AFF
  8
240
  6
CONTINUOUS
 10
74.000000000000625
 20
-61.999999999999432
 30
0.0
 11
74.000000000000625
 21
-50.249999999999439
 31
0.0
1001
GRPNAME
1000
PASTMD01
  0
LINE
  5
4B00
  8
241
 10
74.000000000000625
 20
-71.999999999999417
 30
0.0
 11
74.000000000000625
 21
-61.999999999999432
 31
0.0
1001
GRPNAME
1000
PASTMD01
  0
LINE
  5
4B01
  8
240
 10
74.000000000000625
 20
-79.999999999999332
 30
0.0
 11
74.000000000000625
 21
-71.999999999999417
 31
0.0
1001
GRPNAME
1000
PASTMD01
  0
LINE
  5
4B02
  8
241
 10
74.000000000000625
 20
-89.999999999999432
 30
0.0
 11
74.000000000000625
 21
-79.999999999999332
 31
0.0
1001
GRPNAME
1000
PASTMD01
  0
LINE
  5
4B03
  8
240
 10
74.000000000000625
 20
-97.499999999999545
 30
0.0
 11
74.000000000000625
 21
-89.999999999999432
 31
0.0
1001
GRPNAME
1000
PASTMD01
  0
LINE
  5
4B04
  8
241
 10
74.000000000000625
 20
-122.4999999999995
 30
0.0
 11
74.000000000000625
 21
-97.499999999999545
 31
0.0
1001
GRPNAME
1000
PASTMD01
  0
LINE
  5
4B05
  8
241
 10
64.499999999999829
 20
42.500000000000547
 30
0.0
 11
64.499999999999829
 21
-42.499999999999112
 31
0.0
1001
GRPNAME
1000
PASTMD07
  0
LINE
  5
4B06
  8
241
 10
64.00000000000054
 20
-44.499999999999773
 30
0.0
 11
64.000000000000739
 21
44.000000000000341
 31
0.0
1001
GRPNAME
1000
PASTMD07
  0
LINE
  5
4B07
  8
241
  6
CONTINUOUS
 10
64.99999999999973
 20
-42.499999999999112
 30
0.0
 11
64.999999999999716
 21
42.500000000000547
 31
0.0
1001
GRPNAME
1000
PASTMD07
  0
LINE
  5
4B08
  8
240
 10
106.20000000000159
 20
50.249999999999659
 30
0.0
 11
106.20000000000159
 21
62.499999999999872
 31
0.0
1001
GRPNAME
1000
PASTMD01
  0
LINE
  5
4B09
  8
240
 10
108.00000000000161
 20
50.249999999999631
 30
0.0
 11
108.00000000000151
 21
62.499999999999872
 31
0.0
1001
GRPNAME
1000
PASTMD01
  0
LINE
  5
4B0A
  8
241
 10
74.000000000000298
 20
50.250000000000909
 30
0.0
 11
74.000000000000298
 21
-50.249999999999432
 31
0.0
1001
GRPNAME
1000
PASTMD01
  0
LINE
  5
4B0B
  8
241
 10
204.00000000000489
 20
14.99999998116243
 30
0.0
 11
204.00000000000489
 21
-0.0000000006824621
 31
0.0
  0
LINE
  5
4B0C
  8
241
 10
204.00000000000509
 20
-15.00000001883598
 30
0.0
 11
204.00000000000489
 21
-0.0000000006824621
 31
0.0
  0
LINE
  5
4B0D
  8
241
 10
196.00000000000219
 20
27.500000000094019
 30
0.0
 11
196.00000000000159
 21
-27.500000000093792
 31
0.0
  0
LINE
  5
4B0E
  8
240
 10
196.00000000000159
 20
-27.500000000093792
 30
0.0
 11
196.00000000000139
 21
-33.499999999891891
 31
0.0
  0
LINE
  5
4B0F
  8
241
 10
155.0000000000008
 20
-33.999999999892111
 30
0.0
 11
155.00000000000199
 21
33.999999962250158
 31
0.0
  0
LINE
  5
4B10
  8
241
 10
155.49999999999861
 20
33.9999999622502
 30
0.0
 11
194.4999999999979
 21
33.999999962250421
 31
0.0
  0
LINE
  5
4B11
  8
240
 10
194.4999999999979
 20
33.999999962250421
 30
0.0
 11
195.50000000000219
 21
33.999999962250421
 31
0.0
  0
LINE
  5
4B12
  8
244
  6
HIDDEN2
 10
-29.99999999999962
 20
-54.999999999999758
 30
0.0
 11
-29.99999999999962
 21
-140.5649281289098
 31
0.0
1001
GRPNAME
1000
PASTMD01
  0
LINE
  5
4B13
  8
244
  6
HIDDEN2
 10
30.000000000000401
 20
-88.999999999999545
 30
0.0
 11
-29.99999999999962
 21
-88.999999999999446
 31
0.0
1001
GRPNAME
1000
PASTMD01
  0
LINE
  5
4B14
  8
244
  6
HIDDEN2
 10
30.000000000000401
 20
-130.99999999999929
 30
0.0
 11
-29.99999999999962
 21
-130.99999999999929
 31
0.0
1001
GRPNAME
1000
PASTMD01
  0
LINE
  5
4B15
  8
244
  6
HIDDEN2
 10
3.000000000000405
 20
-121.3550952893724
 30
0.0
 11
3.000000000000405
 21
-98.644904710626577
 31
0.0
1001
GRPNAME
1000
PASTMD01
  0
LINE
  5
4B16
  8
244
  6
HIDDEN2
 10
25.000000000000401
 20
-90.999999999999545
 30
0.0
 11
25.000000000000352
 21
-128.99999999999929
 31
0.0
1001
GRPNAME
1000
PASTMD01
  0
LINE
  5
4B17
  8
244
  6
HIDDEN2
 10
18.000000000000181
 20
-95.99999999999946
 30
0.0
 11
18.000000000000181
 21
-123.9999999999994
 31
0.0
1001
GRPNAME
1000
PASTMD01
  0
LINE
  5
4B18
  8
244
  6
HIDDEN2
 10
3.000000000000405
 20
-121.3550952893724
 30
0.0
 11
18.000000000000181
 21
-123.9999999999994
 31
0.0
1001
GRPNAME
1000
PASTMD01
  0
LINE
  5
4B19
  8
244
  6
HIDDEN2
 10
18.000000000000181
 20
-123.9999999999994
 30
0.0
 11
21.000000000000181
 21
-123.9999999999994
 31
0.0
1001
GRPNAME
1000
PASTMD01
  0
LINE
  5
4B1A
  8
244
  6
HIDDEN2
 10
31.000000000000391
 20
-128.99999999999929
 30
0.0
 11
31.000000000000391
 21
-129.99999999999929
 31
0.0
1001
GRPNAME
1000
PASTMD01
  0
LINE
  5
4B1B
  8
244
  6
HIDDEN2
 10
31.000000000000391
 20
-129.99999999999929
 30
0.0
 11
30.000000000000401
 21
-130.99999999999929
 31
0.0
1001
GRPNAME
1000
PASTMD01
  0
LINE
  5
4B1C
  8
244
  6
HIDDEN2
 10
25.000000000000352
 20
-128.99999999999929
 30
0.0
 11
31.000000000000391
 21
-128.99999999999929
 31
0.0
1001
GRPNAME
1000
PASTMD01
  0
LINE
  5
4B1D
  8
244
  6
HIDDEN2
 10
3.000000000000405
 20
-98.644904710626577
 30
0.0
 11
18.000000000000181
 21
-95.99999999999946
 31
0.0
1001
GRPNAME
1000
PASTMD01
  0
LINE
  5
4B1E
  8
244
  6
HIDDEN2
 10
31.000000000000391
 20
-89.999999999999531
 30
0.0
 11
30.000000000000401
 21
-88.999999999999545
 31
0.0
1001
GRPNAME
1000
PASTMD01
  0
LINE
  5
4B1F
  8
244
  6
HIDDEN2
 10
18.000000000000181
 20
-95.99999999999946
 30
0.0
 11
21.000000000000181
 21
-95.99999999999946
 31
0.0
1001
GRPNAME
1000
PASTMD01
  0
LINE
  5
4B20
  8
244
  6
HIDDEN2
 10
25.000000000000401
 20
-90.999999999999545
 30
0.0
 11
31.000000000000391
 21
-90.999999999999545
 31
0.0
1001
GRPNAME
1000
PASTMD01
  0
LINE
  5
4B21
  8
240
  6
CONTINUOUS
 10
48.000000000000611
 20
48.500000000000618
 30
0.0
 11
48.000000000000611
 21
44.00000000000027
 31
0.0
1001
GRPNAME
1000
PASTMD01
  0
LINE
  5
4B22
  8
240
  6
CONTINUOUS
 10
31.000000000000519
 20
-95.99999999999946
 30
0.0
 11
31.000000000000519
 21
-90.999999999999545
 31
0.0
1001
GRPNAME
1000
PASTMD01
  0
LINE
  5
4B23
  8
240
  6
CONTINUOUS
 10
21.000000000000291
 20
-95.99999999999946
 30
0.0
 11
31.000000000000519
 21
-95.99999999999946
 31
0.0
1001
GRPNAME
1000
PASTMD01
  0
LINE
  5
4B24
  8
240
  6
CONTINUOUS
 10
6.0000000000005178
 20
-121.3550952893724
 30
0.0
 11
6.0000000000005178
 21
-98.644904710626619
 31
0.0
1001
GRPNAME
1000
PASTMD01
  0
LINE
  5
4B25
  8
240
  6
CONTINUOUS
 10
6.0000000000005178
 20
-98.644904710626619
 30
0.0
 11
21.000000000000291
 21
-95.99999999999946
 31
0.0
1001
GRPNAME
1000
PASTMD01
  0
LINE
  5
4B26
  8
240
  6
CONTINUOUS
 10
31.000000000000519
 20
-128.99999999999929
 30
0.0
 11
31.000000000000519
 21
-123.9999999999994
 31
0.0
1001
GRPNAME
1000
PASTMD01
  0
LINE
  5
4B27
  8
240
  6
CONTINUOUS
 10
21.000000000000291
 20
-123.9999999999994
 30
0.0
 11
31.000000000000519
 21
-123.9999999999994
 31
0.0
1001
GRPNAME
1000
PASTMD01
  0
LINE
  5
4B28
  8
240
  6
CONTINUOUS
 10
6.0000000000005178
 20
-121.3550952893724
 30
0.0
 11
21.000000000000291
 21
-123.9999999999994
 31
0.0
1001
GRPNAME
1000
PASTMD01
  0
LINE
  5
4B29
  8
241
  6
CONTINUOUS
 10
21.000000000000291
 20
-95.99999999999946
 30
0.0
 11
21.000000000000291
 21
-123.9999999999994
 31
0.0
1001
GRPNAME
1000
PASTMD01
  0
LINE
  5
4B2A
  8
241
  6
CONTINUOUS
 10
31.000000000000519
 20
-95.99999999999946
 30
0.0
 11
31.000000000000519
 21
-123.9999999999994
 31
0.0
1001
GRPNAME
1000
PASTMD01
  0
LINE
  5
4B2B
  8
241
  6
CONTINUOUS
 10
48.000000000000611
 20
44.00000000000027
 30
0.0
 11
47.999999999999893
 21
-48.499999999999368
 31
0.0
1001
GRPNAME
1000
PASTMD01
  0
LINE
  5
4B2C
  8
247
 10
6.6180491050615942
 20
-35.904822089183092
 30
0.0
 11
6.6180491050615942
 21
-29.341064764964361
 31
0.0
  0
LINE
  5
4B2D
  8
247
 10
6.9413889404900937
 20
-35.904822089183092
 30
0.0
 11
6.9413889404900937
 21
-29.341064764964361
 31
0.0
  0
LINE
  5
4B2E
  8
247
 10
6.4563791831866197
 20
-35.224503598190601
 30
0.0
 11
6.0404920830568551
 21
-34.808616498060921
 31
0.0
  0
LINE
  5
4B2F
  8
247
 10
6.4563791831866197
 20
-35.73515656183929
 30
0.0
 11
6.4563791831866197
 21
-34.39335968683929
 31
0.0
  0
LINE
  5
4B30
  8
247
 10
6.2667185386553328
 20
-30.408398749339309
 30
0.0
 11
6.4563791831866197
 21
-30.218725897776721
 31
0.0
  0
LINE
  5
4B31
  8
247
 10
6.4563791831866197
 20
-33.414221503245599
 30
0.0
 11
6.4563791831866197
 21
-32.69102814387054
 31
0.0
  0
LINE
  5
4B32
  8
247
 10
6.3957737885069372
 20
-34.086267468982669
 30
0.0
 11
5.9551336172297686
 21
-33.645627297705573
 31
0.0
  0
ARC
  5
4B33
  8
247
 10
4.3223578056231204
 20
-34.38322785090179
 30
0.0
 40
0.4849962234497072
 50
351.6626016879294
 51
156.33815509518979
  0
LINE
  5
4B34
  8
247
 10
3.5463446220293871
 20
-35.068909003245381
 30
0.0
 11
3.5463446220295021
 21
-34.025829667581782
 31
0.0
  0
LINE
  5
4B35
  8
247
 10
3.8781357518150581
 20
-34.188579183629138
 30
0.0
 11
4.802228385442171
 21
-34.453552550578479
 31
0.0
  0
LINE
  5
4B36
  8
247
 10
4.6542192912885492
 20
-35.218394930506413
 30
0.0
 11
3.5463446220295021
 21
-34.110520261247309
 31
0.0
  0
LINE
  5
4B37
  8
247
 10
5.5121411057927006
 20
-34.280265520796767
 30
0.0
 11
4.4518961181325167
 21
-33.220020533136562
 31
0.0
  0
LINE
  5
4B38
  8
247
 10
5.2783205674230453
 20
-34.40565522726979
 30
0.0
 11
4.1212558126499976
 21
-33.248590472496858
 31
0.0
  0
LINE
  5
4B39
  8
247
 10
5.1578408659201012
 20
-35.362806260295187
 30
0.0
 11
4.0260171479971874
 21
-34.230982542372203
 31
0.0
  0
LINE
  5
4B3A
  8
247
 10
3.5463446220293871
 20
-35.237085272776767
 30
0.0
 11
3.8696844657793941
 21
-35.329797675120517
 31
0.0
  0
LINE
  5
4B3B
  8
247
 10
3.5463446220293871
 20
-35.068909003245381
 30
0.0
 11
3.8696844657793941
 21
-35.161621405589599
 31
0.0
  0
LINE
  5
4B3C
  8
247
 10
3.8696844657794212
 20
-35.152280594682907
 30
0.0
 11
3.5463446220294159
 21
-34.82894075093283
 31
0.0
  0
LINE
  5
4B3D
  8
247
 10
4.1505977166569972
 20
-35.073983600717611
 30
0.0
 11
3.5463446220294732
 21
-34.469730506090059
 31
0.0
  0
LINE
  5
4B3E
  8
247
 10
3.5463446220293871
 20
-35.904822089183092
 30
0.0
 11
3.5463446220293871
 21
-35.237085272776767
 31
0.0
  0
LINE
  5
4B3F
  8
247
 10
3.8696844657793941
 20
-35.904822089183092
 30
0.0
 11
3.8696844657793941
 21
-35.329797675120517
 31
0.0
  0
LINE
  5
4B40
  8
247
 10
3.8696844657793941
 20
-35.161621405589599
 30
0.0
 11
3.8696844657803311
 21
-34.993432929027222
 31
0.0
  0
ARC
  5
4B41
  8
247
 10
4.354682024373127
 20
-34.022497870433092
 30
0.0
 40
0.8083442687988282
 50
17.669577547397999
 51
180.2361598426682
  0
LINE
  5
4B42
  8
247
 10
3.9150195094160058
 20
-34.119984903791078
 30
0.0
 11
3.5815501978060591
 21
-33.786515592181097
 31
0.0
  0
LINE
  5
4B43
  8
247
 10
3.90200868452937
 20
-32.799499823557987
 30
0.0
 11
3.5463446220293871
 21
-32.697510077464258
 31
0.0
  0
ARC
  5
4B44
  8
247
 10
4.5971869071856366
 20
-30.778808905589251
 30
0.0
 40
1.050843811035155
 50
143.44401219705341
 51
254.00018438768541
  0
LINE
  5
4B45
  8
247
 10
3.5463446220293871
 20
-32.697510077464258
 30
0.0
 11
3.5463446220293871
 21
-31.85659210871427
 31
0.0
  0
LINE
  5
4B46
  8
247
 10
3.9112372001543809
 20
-29.67647736262052
 30
0.0
 11
3.6024359306231371
 21
-29.77385285090179
 31
0.0
  0
LINE
  5
4B47
  8
247
 10
3.9598578056231371
 20
-29.830664374339339
 30
0.0
 11
3.6510565360918941
 21
-29.928039862620501
 31
0.0
  0
POLYLINE
  5
4B48
  8
247
 66
     1
 10
0.0
 20
0.0
 30
0.0
 70
     1
  0
VERTEX
  5
4B49
  8
247
 10
3.9112372001543809
 20
-29.67647736262052
 30
0.0
  0
VERTEX
  5
4B4A
  8
247
 10
3.6024359306231371
 20
-29.77385285090179
 30
0.0
  0
VERTEX
  5
4B4B
  8
247
 10
3.6024359306231371
 20
-29.77385285090179
 30
0.0
  0
VERTEX
  5
4B4C
  8
247
 10
3.9112372001543809
 20
-29.67647736262052
 30
0.0
  0
SEQEND
  5
4B4D
  8
247
  0
POLYLINE
  5
4B4E
  8
247
 66
     1
 10
0.0
 20
0.0
 30
0.0
 70
     1
1001
HATCH_DISTANCE
1040
1.0
1001
HATCH_DISPLAY
1070
     0
1001
HATCH_TYPE
1070
     7
  0
VERTEX
  5
4B4F
  8
247
 10
3.9112372001543809
 20
-29.67647736262052
 30
0.0
  0
VERTEX
  5
4B50
  8
247
 10
3.6024359306231371
 20
-29.77385285090179
 30
0.0
  0
VERTEX
  5
4B51
  8
247
 10
3.6024359306231371
 20
-29.77385285090179
 30
0.0
  0
VERTEX
  5
4B52
  8
247
 10
3.9112372001543809
 20
-29.67647736262052
 30
0.0
  0
SEQEND
  5
4B53
  8
247
  0
POLYLINE
  5
4B54
  8
247
 66
     1
 10
0.0
 20
0.0
 30
0.0
 70
     1
  0
VERTEX
  5
4B55
  8
247
 10
3.9112372001543809
 20
-29.67647736262052
 30
0.0
  0
VERTEX
  5
4B56
  8
247
 10
3.6024359306231371
 20
-29.77385285090179
 30
0.0
  0
VERTEX
  5
4B57
  8
247
 10
3.6024359306231371
 20
-29.77385285090179
 30
0.0
  0
VERTEX
  5
4B58
  8
247
 10
3.9112372001543809
 20
-29.67647736262052
 30
0.0
  0
SEQEND
  5
4B59
  8
247
  0
POLYLINE
  5
4B5A
  8
247
 66
     1
 10
0.0
 20
0.0
 30
0.0
 70
     1
1001
HATCH_DISTANCE
1040
1.0
1001
HATCH_DISPLAY
1070
     0
1001
HATCH_TYPE
1070
     7
  0
VERTEX
  5
4B5B
  8
247
 10
3.9112372001543809
 20
-29.67647736262052
 30
0.0
  0
VERTEX
  5
4B5C
  8
247
 10
3.6024359306231371
 20
-29.77385285090179
 30
0.0
  0
VERTEX
  5
4B5D
  8
247
 10
3.6024359306231371
 20
-29.77385285090179
 30
0.0
  0
VERTEX
  5
4B5E
  8
247
 10
3.9112372001543809
 20
-29.67647736262052
 30
0.0
  0
SEQEND
  5
4B5F
  8
247
  0
ARC
  5
4B60
  8
247
 10
5.2438665946856213
 20
-29.341064764964361
 30
0.0
 40
1.697522735595703
 50
200.22964506331999
 51
208.57168892371681
  0
ARC
  5
4B61
  8
247
 10
5.2438665946856213
 20
-29.341064764964361
 30
0.0
 40
1.3741859436035151
 50
200.87218340207721
 51
222.54194893738349
  0
LINE
  5
4B62
  8
247
 10
4.1042742490339572
 20
-33.950029398566251
 30
0.0
 11
3.70109335992138
 21
-33.54684850945376
 31
0.0
  0
LINE
  5
4B63
  8
247
 10
4.4220415061694851
 20
-33.908586410859023
 30
0.0
 11
3.8809634927657499
 21
-33.367508397455367
 31
0.0
  0
LINE
  5
4B64
  8
247
 10
3.90200868452937
 20
-32.799499823557987
 30
0.0
 11
3.90200868452937
 21
-32.681763007151858
 31
0.0
  0
LINE
  5
4B65
  8
247
 10
5.1306952079668866
 20
-30.78042023371427
 30
0.0
 11
4.8073553642168809
 21
-30.68770783137052
 31
0.0
  0
ARC
  5
4B66
  8
247
 10
5.4607855399981204
 20
-29.29250519465177
 30
0.0
 40
2.749951171874998
 50
245.20517736984161
 51
262.79482596205048
  0
LINE
  5
4B67
  8
247
 10
5.1306952079668866
 20
-30.78042023371427
 30
0.0
 11
5.1306952079668866
 21
-30.511328436839339
 31
0.0
  0
LINE
  5
4B68
  8
247
 10
4.8073553642168809
 20
-30.68770783137052
 30
0.0
 11
4.8073553642168809
 21
-29.74587433527677
 31
0.0
  0
ARC
  5
4B69
  8
247
 10
4.2415228446856119
 20
-30.60954621027679
 30
0.0
 40
0.3395066738128662
 50
91.710121382064258
 51
253.99839835444789
  0
LINE
  5
4B6A
  8
247
 10
6.4563791831866482
 20
-34.506083108505081
 30
0.0
 11
5.5422685513370098
 21
-33.591972476655549
 31
0.0
  0
LINE
  5
4B6B
  8
247
 10
6.4563791831866197
 20
-34.865293353347973
 30
0.0
 11
5.2699717806717166
 21
-33.678885950832978
 31
0.0
  0
ARC
  5
4B6C
  8
247
 10
5.6480413993731204
 20
-34.39335968683929
 30
0.0
 40
0.80833740234375
 50
0.0
 51
130.3298406541671
  0
ARC
  5
4B6D
  8
247
 10
5.6157049735918818
 20
-34.754089667308001
 30
0.0
 40
0.485010099411011
 50
351.6628542111489
 51
156.33819215911001
  0
ARC
  5
4B6E
  8
247
 10
5.2438665946856213
 20
-35.904822089183092
 30
0.0
 40
1.374182128906249
 50
180.0
 51
0.0
  0
LINE
  5
4B6F
  8
247
 10
6.4563791831866197
 20
-35.583713843033479
 30
0.0
 11
5.5368779493907221
 21
-34.664212609237438
 31
0.0
  0
LINE
  5
4B70
  8
247
 10
6.4563791831866197
 20
-35.73515656183929
 30
0.0
 11
3.8696844657803311
 21
-34.993432929027222
 31
0.0
  0
LINE
  5
4B71
  8
247
 10
5.1714694611668568
 20
-34.559437140915293
 30
0.0
 11
6.095589504304634
 21
-34.824414867011342
 31
0.0
  0
LINE
  5
4B72
  8
247
 10
6.16508401518319
 20
-35.651628919872792
 30
0.0
 11
4.7969992456658943
 21
-34.283544150355397
 31
0.0
  0
LINE
  5
4B73
  8
247
 10
5.6614624405516532
 20
-35.507217590083997
 30
0.0
 11
4.5296339560078209
 21
-34.375389105540201
 31
0.0
  0
INSERT
  5
4B74
  8
247
  6
CONTINUOUS
  2
*X12
 10
-1.7817853912836921
 20
-8.6418381412346417
 30
0.0
1001
ACAD
1000
HATCH
1002
{
1070
    19
1000
ANSI31
1040
0.08
1040
1.570796326794893
1002
}
  0
INSERT
  5
4B75
  8
247
  6
CONTINUOUS
  2
*X13
 10
-1.7817853912836921
 20
-8.6418381412346417
 30
0.0
1001
ACAD
1000
HATCH
1002
{
1070
    19
1000
ANSI31
1040
0.08
1040
1.570796326794893
1002
}
  0
POLYLINE
  5
4B76
  8
247
 66
     1
 10
0.0
 20
0.0
 30
0.0
 70
     1
  0
VERTEX
  5
4B77
  8
247
 10
3.5463446220293871
 20
-32.697510077464258
 30
0.0
  0
VERTEX
  5
4B78
  8
247
 10
3.90200868452937
 20
-32.799499823557987
 30
0.0
  0
VERTEX
  5
4B79
  8
247
 10
3.90200868452937
 20
-32.681763007151858
 30
0.0
  0
VERTEX
  5
4B7A
  8
247
 10
6.4563791831866197
 20
-33.414221503245599
 30
0.0
  0
VERTEX
  5
4B7B
  8
247
 10
6.4563791831866197
 20
-32.69102814387054
 30
0.0
  0
VERTEX
  5
4B7C
  8
247
 10
3.5463446220293871
 20
-31.85659210871427
 30
0.0
  0
SEQEND
  5
4B7D
  8
247
  0
POLYLINE
  5
4B7E
  8
247
 66
     1
 10
0.0
 20
0.0
 30
0.0
 70
     1
1001
HATCH_DISTANCE
1040
1.0
1001
HATCH_DISPLAY
1070
     0
1001
HATCH_TYPE
1070
     7
  0
VERTEX
  5
4B7F
  8
247
 10
3.5463446220293871
 20
-32.697510077464258
 30
0.0
  0
VERTEX
  5
4B80
  8
247
 10
3.90200868452937
 20
-32.799499823557987
 30
0.0
  0
VERTEX
  5
4B81
  8
247
 10
3.90200868452937
 20
-32.681763007151858
 30
0.0
  0
VERTEX
  5
4B82
  8
247
 10
6.4563791831866197
 20
-33.414221503245599
 30
0.0
  0
VERTEX
  5
4B83
  8
247
 10
6.4563791831866197
 20
-32.69102814387054
 30
0.0
  0
VERTEX
  5
4B84
  8
247
 10
3.5463446220293871
 20
-31.85659210871427
 30
0.0
  0
SEQEND
  5
4B85
  8
247
  0
LINE
  5
4B86
  8
247
 10
6.4563791831866197
 20
-32.69102814387054
 30
0.0
 11
3.5463446220293871
 21
-31.85659210871427
 31
0.0
  0
ARC
  5
4B87
  8
247
 10
5.2438665946856213
 20
-29.341064764964361
 30
0.0
 40
1.69752197265625
 50
0.0
 51
194.77079396609409
  0
LINE
  5
4B88
  8
247
 10
6.4563791831866197
 20
-30.218725897776721
 30
0.0
 11
4.8073553642168809
 21
-29.74587433527677
 31
0.0
  0
LINE
  5
4B89
  8
247
 10
6.4563791831866197
 20
-33.414221503245599
 30
0.0
 11
3.90200868452937
 21
-32.681763007151858
 31
0.0
  0
ARC
  5
4B8A
  8
247
 10
5.7612005790606213
 20
-31.04531281183927
 30
0.0
 40
0.3395064353942871
 50
254.00027305718521
 51
74.000273057185254
  0
LINE
  5
4B8B
  8
247
 10
5.6676214774981366
 20
-31.37166779230802
 30
0.0
 11
4.1479315360918809
 21
-30.93590119074554
 31
0.0
  0
ARC
  5
4B8C
  8
247
 10
5.2438665946856213
 20
-29.341064764964361
 30
0.0
 40
1.374182128906249
 50
0.0
 51
194.12743649641169
  0
ARC
  5
4B8D
  8
247
 10
5.4055365165606366
 20
-31.010596014964339
 30
0.0
 40
1.0508544921875
 50
253.99975070172849
 51
34.963873291630833
  0
LINE
  5
4B8E
  8
247
 10
5.8547796806231318
 20
-30.71895783137052
 30
0.0
 11
5.1306952079668866
 21
-30.511328436839339
 31
0.0
  0
INSERT
  5
4B8F
  8
247
  6
CONTINUOUS
  2
*X14
 10
-1.7817853912836921
 20
-8.6418381412346417
 30
0.0
1001
ACAD
1000
HATCH
1002
{
1070
    19
1000
ANSI31
1040
0.08
1040
1.570796326794893
1002
}
  0
ARC
  5
4B90
  8
247
 10
5.2438665946856213
 20
-35.904822089183092
 30
0.0
 40
1.69752197265625
 50
180.0
 51
0.0
  0
TEXT
  5
4B91
  8
247
 10
6.5318044328566387
 20
-26.98055804997307
 30
0.0
 40
2.399999999999999
  1
HSK-A100-AG90-CA6SGM-285
 50
90.0
  7
YOKO
 11
6.5318044328566387
 21
-26.98055804997307
 31
0.0
 73
     1
  0
LINE
  5
4B92
  8
241
 10
28.999999999999861
 20
-42.699999999999577
 30
0.0
 11
28.999999999999861
 21
0.000000000000341
 31
0.0
1001
GRPNAME
1000
PASTMD2V
  0
LINE
  5
4B93
  8
241
 10
23.247595264191521
 20
-49.999999999999659
 30
0.0
 11
23.247595264191521
 21
31.500000000000458
 31
0.0
1001
GRPNAME
1000
PASTMD19
  0
LINE
  5
4B94
  8
240
 10
-50.000000000000007
 20
-33.597501560549517
 30
0.0
 11
-50.000000000000007
 21
0.000000000000341
 31
0.0
1001
GRPNAME
1000
PASTMD19
  0
LINE
  5
4B95
  8
241
 10
16.75240473580833
 20
-49.999999999999659
 30
0.0
 11
16.75240473580833
 21
31.500000000000458
 31
0.0
1001
GRPNAME
1000
PASTMD19
  0
LINE
  5
4B96
  8
241
 10
21.875
 20
-46.999999999999659
 30
0.0
 11
21.875
 21
31.500000000000458
 31
0.0
1001
GRPNAME
1000
PASTMD19
  0
LINE
  5
4B97
  8
241
 10
18.124999999999989
 20
-46.999999999999659
 30
0.0
 11
18.124999999999989
 21
31.500000000000458
 31
0.0
1001
GRPNAME
1000
PASTMD19
  0
LINE
  5
4B98
  8
241
 10
-2.0000000000000009
 20
-37.899999999999643
 30
0.0
 11
-2.0000000000000009
 21
37.900000000000432
 31
0.0
1001
GRPNAME
1000
PASTMD19
  0
LINE
  5
4B99
  8
240
 10
-2.000000000000389
 20
-37.899999999999643
 30
0.0
 11
-48.099875233887708
 21
-35.595006238305253
 31
0.0
1001
GRPNAME
1000
PASTMD19
  0
LINE
  5
4B9A
  8
243
 10
-30.003375672974251
 20
-26.499999999999659
 30
0.0
 11
-50.000000000000007
 21
-26.499999999999659
 31
0.0
1001
GRPNAME
1000
PASTMD19
  0
ARC
  5
4B9B
  8
240
 10
-48.000000000000007
 20
-33.597501560549517
 30
0.0
 40
2.0
 50
180.00000008102811
 51
267.1375948549188
1001
GRPNAME
1000
PASTMD19
  0
LINE
  5
4B9C
  8
240
 10
16.75240473580833
 20
-49.999999999999659
 30
0.0
 11
0.4999999999999947
 21
-49.999999999999659
 31
0.0
1001
GRPNAME
1000
PASTMD19
  0
LINE
  5
4B9D
  8
243
 10
-9.4966925428956301
 20
-31.499999999999659
 30
0.0
 11
-26.539274057836231
 21
-31.499999999999659
 31
0.0
1001
GRPNAME
1000
PASTMD19
  0
LINE
  5
4B9E
  8
243
 10
-35.000000000000007
 20
-36.249999999999659
 30
0.0
 11
-35.000000000000007
 21
-26.499999999999659
 31
0.0
1001
GRPNAME
1000
PASTMD19
  0
LINE
  5
4B9F
  8
243
 10
-30.003375672974251
 20
-26.499999999999659
 30
0.0
 11
-27.405299461620672
 21
-30.999999999999659
 31
0.0
1001
GRPNAME
1000
PASTMD19
  0
ARC
  5
4BA0
  8
243
 10
-26.539274057836231
 20
-30.499999999999659
 30
0.0
 40
1.0
 50
209.99999985859279
 51
269.99999985859569
1001
GRPNAME
1000
PASTMD19
  0
LINE
  5
4BA1
  8
243
 10
-21.000000000000011
 20
-31.499999998054481
 30
0.0
 11
-21.000000000000011
 21
-36.949999999999577
 31
0.0
1001
GRPNAME
1000
PASTMD1F
  0
LINE
  5
4BA2
  8
240
 10
-0.0000000000000018
 20
-49.499999999999659
 30
0.0
 11
-0.0000000000000018
 21
-37.899999999999643
 31
0.0
1001
GRPNAME
1000
PASTMD19
  0
ARC
  5
4BA3
  8
240
 10
0.4999999999999947
 20
-49.499999999999659
 30
0.0
 40
0.5
 50
179.99999989458101
 51
269.99999989459332
1001
GRPNAME
1000
PASTMD19
  0
ARC
  5
4BA4
  8
243
 10
-9.4966925428956301
 20
-19.499999999999659
 30
0.0
 40
11.999999998054699
 50
270.00000006042342
 51
316.28721582905848
1001
GRPNAME
1000
PASTMD19
  0
LINE
  5
4BA5
  8
245
 10
-15.000000000000011
 20
-30.51032519832825
 30
0.0
 11
-15.000000000000011
 21
-38.75111949497159
 31
0.0
1001
GRPNAME
1000
PASTMD1F
  0
LINE
  5
4BA6
  8
243
 10
-9.0
 20
-31.489716279843272
 30
0.0
 11
-9.0
 21
-37.549999999999621
 31
0.0
1001
GRPNAME
1000
PASTMD1F
  0
LINE
  5
4BA7
  8
240
 10
-2.000000000000389
 20
-37.899999999999643
 30
0.0
 11
-0.0000000000000018
 21
-37.899999999999643
 31
0.0
  0
LINE
  5
4BA8
  8
240
 10
28.499999999999861
 20
-49.999999999999659
 30
0.0
 11
23.247595264191641
 21
-49.999999999999659
 31
0.0
1001
GRPNAME
1000
PASTMD19
  0
LINE
  5
4BA9
  8
243
 10
28.999999999999861
 20
-43.999999999999652
 30
0.0
 11
4.9999999999994236
 21
-43.999999999999652
 31
0.0
1001
GRPNAME
1000
PASTMD19
  0
LINE
  5
4BAA
  8
243
 10
4.9999999999994236
 20
-49.999999999999659
 30
0.0
 11
4.9999999999994236
 21
-43.999999999999652
 31
0.0
1001
GRPNAME
1000
PASTMD19
  0
LINE
  5
4BAB
  8
240
 10
21.875
 20
-46.999999999999659
 30
0.0
 11
21.875
 21
-47.622595264191432
 31
0.0
1001
GRPNAME
1000
PASTMD19
  0
LINE
  5
4BAC
  8
240
 10
18.124999999999989
 20
-46.999999999999659
 30
0.0
 11
18.124999999999989
 21
-47.622595264191432
 31
0.0
1001
GRPNAME
1000
PASTMD19
  0
LINE
  5
4BAD
  8
240
 10
18.124999999999989
 20
-47.622595264191432
 30
0.0
 11
16.75240473580833
 21
-49.999999999999659
 31
0.0
1001
GRPNAME
1000
PASTMD19
  0
LINE
  5
4BAE
  8
240
 10
21.875
 20
-47.622595264191432
 30
0.0
 11
23.247595264191641
 21
-49.999999999999659
 31
0.0
1001
GRPNAME
1000
PASTMD19
  0
ARC
  5
4BAF
  8
240
 10
20.874999999999979
 20
-46.999999999999659
 30
0.0
 40
1.0
 50
359.9999998997335
 51
89.999999899733439
1001
GRPNAME
1000
PASTMD19
  0
ARC
  5
4BB0
  8
240
 10
19.124999999999989
 20
-46.999999999999659
 30
0.0
 40
1.0
 50
89.999999902299876
 51
179.99999990229981
1001
GRPNAME
1000
PASTMD19
  0
LINE
  5
4BB1
  8
240
 10
20.874999999999979
 20
-45.999999999999652
 30
0.0
 11
19.124999999999989
 21
-45.999999999999652
 31
0.0
1001
GRPNAME
1000
PASTMD19
  0
LINE
  5
4BB2
  8
240
 10
28.999999999999861
 20
-49.499999999999659
 30
0.0
 11
28.999999999999861
 21
-42.699999999999577
 31
0.0
1001
GRPNAME
1000
PASTMD2V
  0
ARC
  5
4BB3
  8
240
 10
28.499999999999861
 20
-49.499999999999659
 30
0.0
 40
0.5
 50
269.99999988687432
 51
359.99999988687517
1001
GRPNAME
1000
PASTMD2V
  0
LINE
  5
4BB4
  8
240
 10
-1.9999999999997931
 20
37.900000000000432
 30
0.0
 11
-48.099875233887708
 21
35.595006238305928
 31
0.0
1001
GRPNAME
1000
PASTMD19
  0
LINE
  5
4BB5
  8
243
 10
-30.003375672974251
 20
26.500000000000341
 30
0.0
 11
-50.000000000000007
 21
26.500000000000341
 31
0.0
1001
GRPNAME
1000
PASTMD19
  0
LINE
  5
4BB6
  8
240
 10
-50.000000000000007
 20
0.000000000000341
 30
0.0
 11
-50.000000000000007
 21
33.59750156055032
 31
0.0
1001
GRPNAME
1000
PASTMD19
  0
ARC
  5
4BB7
  8
240
 10
-48.000000000000007
 20
33.59750156055032
 30
0.0
 40
1.999999999999952
 50
92.862405134789526
 51
179.99999990868341
1001
GRPNAME
1000
PASTMD19
  0
LINE
  5
4BB8
  8
241
 10
21.875
 20
33.500000000000462
 30
0.0
 11
21.875
 21
47.000000000000327
 31
0.0
1001
GRPNAME
1000
PASTMD19
  0
LINE
  5
4BB9
  8
241
 10
23.247595264191521
 20
38.829756626071799
 30
0.0
 11
23.247595264191521
 21
50.000000000000341
 31
0.0
1001
GRPNAME
1000
PASTMD19
  0
LINE
  5
4BBA
  8
240
 10
28.999999999999861
 20
42.700000000000273
 30
0.0
 11
29.0
 21
49.500000000000341
 31
0.0
1001
GRPNAME
1000
PASTMD2V
  0
LINE
  5
4BBB
  8
241
 10
18.124999999999989
 20
33.500000000000462
 30
0.0
 11
18.124999999999989
 21
47.000000000000327
 31
0.0
1001
GRPNAME
1000
PASTMD19
  0
LINE
  5
4BBC
  8
241
 10
16.75240473580833
 20
38.829756626071799
 30
0.0
 11
16.75240473580833
 21
50.000000000000341
 31
0.0
1001
GRPNAME
1000
PASTMD19
  0
LINE
  5
4BBD
  8
240
 10
-0.0000000000000018
 20
37.900000000000432
 30
0.0
 11
-0.0000000000000018
 21
49.500000000000341
 31
0.0
1001
GRPNAME
1000
PASTMD19
  0
ARC
  5
4BBE
  8
241
 10
14.63689785791971
 20
28.829756626071799
 30
0.0
 40
9.9999999999997158
 50
90.000000080441055
 51
164.5127260540782
1001
GRPNAME
1000
PASTMD1F
  0
LINE
  5
4BBF
  8
243
 10
-9.4966925428956301
 20
31.499999998055159
 30
0.0
 11
-26.539274057836231
 21
31.500000000000341
 31
0.0
1001
GRPNAME
1000
PASTMD19
  0
LINE
  5
4BC0
  8
243
 10
-40.000000000000007
 20
26.500000000000341
 30
0.0
 11
-40.000000000000007
 21
36.250000000000341
 31
0.0
1001
GRPNAME
1000
PASTMD19
  0
LINE
  5
4BC1
  8
243
 10
-21.000000000000011
 20
31.499999998055159
 30
0.0
 11
-21.000000000000011
 21
36.950000000000401
 31
0.0
1001
GRPNAME
1000
PASTMD1J
  0
LINE
  5
4BC2
  8
243
 10
-30.003375672974251
 20
26.500000000000341
 30
0.0
 11
-27.405299461620672
 21
31.000000000000341
 31
0.0
1001
GRPNAME
1000
PASTMD19
  0
ARC
  5
4BC3
  8
243
 10
-26.539274057836231
 20
30.500000000000341
 30
0.0
 40
1.0
 50
90.000000074556681
 51
150.00000007456001
1001
GRPNAME
1000
PASTMD19
  0
ARC
  5
4BC4
  8
243
 10
-9.4966925428956301
 20
19.500000000000341
 30
0.0
 40
11.99999999805488
 50
43.712766570848963
 51
89.999999939576583
1001
GRPNAME
1000
PASTMD19
  0
LINE
  5
4BC5
  8
243
 10
-9.0
 20
31.489716279843961
 30
0.0
 11
-9.0
 21
37.550000000000423
 31
0.0
1001
GRPNAME
1000
PASTMD1J
  0
LINE
  5
4BC6
  8
245
 10
-15.000000000000011
 20
30.510325198328928
 30
0.0
 11
-15.000000000000011
 21
38.7511194949724
 31
0.0
1001
GRPNAME
1000
PASTMD1J
  0
LINE
  5
4BC7
  8
240
 10
-1.9999999999997931
 20
37.900000000000432
 30
0.0
 11
-0.0000000000000018
 21
37.900000000000432
 31
0.0
  0
LINE
  5
4BC8
  8
241
 10
28.999999999999861
 20
0.000000000000341
 30
0.0
 11
28.999999999999861
 21
42.700000000000273
 31
0.0
1001
GRPNAME
1000
PASTMD2V
  0
LINE
  5
4BC9
  8
241
 10
23.247595264191521
 20
38.829756626071799
 30
0.0
 11
28.999999999999861
 21
38.829756626071799
 31
0.0
1001
GRPNAME
1000
PASTMD1F
  0
LINE
  5
4BCA
  8
241
 10
4.9999999999996518
 20
31.500000000000458
 30
0.0
 11
28.999999999999861
 21
31.500000000000458
 31
0.0
1001
GRPNAME
1000
PASTMD1F
  0
LINE
  5
4BCB
  8
241
 10
14.63689785791971
 20
38.829756626071799
 30
0.0
 11
16.75240473580833
 21
38.829756626071799
 31
0.0
1001
GRPNAME
1000
PASTMD1F
  0
LINE
  5
4BCC
  8
241
 10
18.124999999999989
 20
33.500000000000462
 30
0.0
 11
21.875
 21
33.500000000000462
 31
0.0
1001
GRPNAME
1000
PASTMD1F
  0
LINE
  5
4BCD
  8
241
 10
18.124999999999989
 20
36.452351890263678
 30
0.0
 11
16.752404735808451
 21
38.829756626071799
 31
0.0
1001
GRPNAME
1000
PASTMD1F
  0
LINE
  5
4BCE
  8
241
 10
21.875
 20
36.45235189026392
 30
0.0
 11
23.247595264191521
 21
38.829756626071799
 31
0.0
1001
GRPNAME
1000
PASTMD1F
  0
LINE
  5
4BCF
  8
240
 10
16.75240473580833
 20
50.000000000000341
 30
0.0
 11
0.4999999999999947
 21
50.000000000000341
 31
0.0
1001
GRPNAME
1000
PASTMD19
  0
ARC
  5
4BD0
  8
240
 10
0.4999999999999947
 20
49.500000000000341
 30
0.0
 40
0.5
 50
89.999999902299876
 51
179.99999990229981
1001
GRPNAME
1000
PASTMD19
  0
LINE
  5
4BD1
  8
240
 10
28.5
 20
50.000000000000341
 30
0.0
 11
23.247595264191521
 21
50.000000000000341
 31
0.0
1001
GRPNAME
1000
PASTMD19
  0
LINE
  5
4BD2
  8
243
 10
28.999999999999861
 20
44.000000000000341
 30
0.0
 11
4.9999999999994236
 21
44.000000000000341
 31
0.0
1001
GRPNAME
1000
PASTMD19
  0
LINE
  5
4BD3
  8
243
 10
4.9999999999994236
 20
44.000000000000341
 30
0.0
 11
4.9999999999994236
 21
50.000000000000341
 31
0.0
1001
GRPNAME
1000
PASTMD19
  0
ARC
  5
4BD4
  8
240
 10
20.874999999999979
 20
47.000000000000327
 30
0.0
 40
1.0
 50
269.99999988430562
 51
359.99999988429568
1001
GRPNAME
1000
PASTMD19
  0
ARC
  5
4BD5
  8
240
 10
19.124999999999989
 20
47.000000000000327
 30
0.0
 40
1.0
 50
179.99999989458101
 51
269.99999989458757
1001
GRPNAME
1000
PASTMD19
  0
LINE
  5
4BD6
  8
240
 10
20.874999999999979
 20
46.000000000000341
 30
0.0
 11
19.124999999999989
 21
46.000000000000341
 31
0.0
1001
GRPNAME
1000
PASTMD19
  0
LINE
  5
4BD7
  8
240
 10
18.124999999999989
 20
47.622595264192107
 30
0.0
 11
16.75240473580833
 21
50.000000000000341
 31
0.0
1001
GRPNAME
1000
PASTMD19
  0
LINE
  5
4BD8
  8
240
 10
18.124999999999989
 20
47.000000000000327
 30
0.0
 11
18.124999999999989
 21
47.622595264192107
 31
0.0
1001
GRPNAME
1000
PASTMD19
  0
LINE
  5
4BD9
  8
240
 10
21.875
 20
47.622595264192107
 30
0.0
 11
23.247595264191641
 21
50.000000000000341
 31
0.0
1001
GRPNAME
1000
PASTMD19
  0
LINE
  5
4BDA
  8
240
 10
21.875
 20
47.000000000000327
 30
0.0
 11
21.875
 21
47.622595264192107
 31
0.0
1001
GRPNAME
1000
PASTMD19
  0
ARC
  5
4BDB
  8
240
 10
28.5
 20
49.500000000000341
 30
0.0
 40
0.5
 50
359.99999989972707
 51
89.99999989972693
1001
GRPNAME
1000
PASTMD2V
  0
LINE
  5
4BDC
  8
241
 10
-0.0000000000000018
 20
37.900000000000432
 30
0.0
 11
-0.0000000000000018
 21
-37.899999999999643
 31
0.0
  0
LINE
  5
4BDD
  8
240
  6
CONTINUOUS
 10
29.199999999999541
 20
-42.499999999999659
 30
0.0
 11
44.999999999999559
 21
-42.499999999999659
 31
0.0
  0
ARC
  5
4BDE
  8
240
  6
CONTINUOUS
 10
29.199999999999541
 20
-42.699999999999712
 30
0.0
 40
0.1999999999999886
 50
90.0
 51
180.0
  0
ARC
  5
4BDF
  8
240
  6
CONTINUOUS
 10
29.199999999999541
 20
42.700000000000443
 30
0.0
 40
0.1999999999999886
 50
180.0
 51
270.0
  0
LINE
  5
4BE0
  8
242
  6
CONTINUOUS
 10
29.49999999999962
 20
41.030820341967733
 30
0.0
 11
44.499999999999559
 21
38.853046166453581
 31
0.0
  0
LINE
  5
4BE1
  8
242
  6
CONTINUOUS
 10
29.49999999999962
 20
38.853046166453581
 30
0.0
 11
44.499999999999559
 21
41.030820341967733
 31
0.0
  0
LINE
  5
4BE2
  8
241
  6
CONTINUOUS
 10
29.49999999999962
 20
38.853046166453581
 30
0.0
 11
44.499999999999559
 21
38.853046166453581
 31
0.0
  0
LINE
  5
4BE3
  8
240
  6
CONTINUOUS
 10
29.49999999999962
 20
41.030820341967733
 30
0.0
 11
44.499999999999559
 21
41.030820341967733
 31
0.0
  0
LINE
  5
4BE4
  8
241
  6
CONTINUOUS
 10
29.49999999999962
 20
38.853046166453581
 30
0.0
 11
29.49999999999962
 21
41.030820341967733
 31
0.0
  0
LINE
  5
4BE5
  8
240
  6
CONTINUOUS
 10
29.49999999999962
 20
41.030820341967733
 30
0.0
 11
29.49999999999962
 21
42.500000000000391
 31
0.0
  0
LINE
  5
4BE6
  8
240
  6
CONTINUOUS
 10
29.199999999999541
 20
42.500000000000391
 30
0.0
 11
29.49999999999962
 21
42.500000000000391
 31
0.0
  0
LINE
  5
4BE7
  8
240
  6
CONTINUOUS
 10
44.999999999999559
 20
30.000000000000401
 30
0.0
 11
44.999999999999559
 21
42.500000000000391
 31
0.0
  0
LINE
  5
4BE8
  8
241
  6
CONTINUOUS
 10
44.499999999999559
 20
38.853046166453581
 30
0.0
 11
44.499999999999559
 21
41.030820341967733
 31
0.0
  0
LINE
  5
4BE9
  8
240
  6
CONTINUOUS
 10
44.499999999999559
 20
42.500000000000391
 30
0.0
 11
44.999999999999559
 21
42.500000000000391
 31
0.0
  0
LINE
  5
4BEA
  8
240
  6
CONTINUOUS
 10
44.499999999999559
 20
41.030820341967733
 30
0.0
 11
44.499999999999559
 21
42.500000000000391
 31
0.0
  0
LINE
  5
4BEB
  8
240
  6
CONTINUOUS
 10
44.999999999999559
 20
-47.999999999999417
 30
0.0
 11
44.999999999999559
 21
48.000000000000618
 31
0.0
  0
LINE
  5
4BEC
  8
240
  6
CONTINUOUS
 10
44.999999999999552
 20
-47.999999999999368
 30
0.0
 11
45.499999999999567
 21
-48.499999999999368
 31
0.0
  0
LINE
  5
4BED
  8
240
  6
CONTINUOUS
 10
45.499999999999567
 20
-48.499999999999368
 30
0.0
 11
47.999999999999893
 21
-48.499999999999368
 31
0.0
  0
LINE
  5
4BEE
  8
240
  6
CONTINUOUS
 10
45.499999999999567
 20
48.500000000000618
 30
0.0
 11
44.999999999999559
 21
48.000000000000618
 31
0.0
  0
LINE
  5
4BEF
  8
240
  6
CONTINUOUS
 10
45.499999999999567
 20
48.500000000000618
 30
0.0
 11
48.000000000000611
 21
48.500000000000618
 31
0.0
  0
LINE
  5
4BF0
  8
240
 10
48.000000000000519
 20
-48.99999999999978
 30
0.0
 11
48.000000000000611
 21
-48.499999999999368
 31
0.0
  0
ENDBLK
  5
4BF4
  8
0
  0
ENDSEC
  0
SECTION
  2
ENTITIES
  0
TEXT
  5
199B
  8
241
 62
   211
 10
-60.409229540313419
 20
86.975031655402745
 30
0.0
 40
5.0
  1
HSK-A100-AG90-CA6SGM-285
  7
YOKO
 11
-60.409229540313419
 21
86.975031655402745
 31
0.0
 73
     1
  0
LINE
  5
1DC9
  8
250
 10
512.30881711839857
 20
79.038954624678297
 30
0.0
 11
496.06881711839827
 21
79.038954624678297
 31
0.0
  0
LINE
  5
1DCA
  8
250
 10
496.06881711839827
 20
79.038954624678297
 30
0.0
 11
493.9467923810484
 21
79.038954624678297
 31
0.0
  0
LINE
  5
1DCB
  8
250
 10
493.9467923810484
 20
79.038954624678297
 30
0.0
 11
486.57684812204587
 21
71.669010365675845
 31
0.0
  0
LINE
  5
1DCC
  8
250
 10
486.57684812204587
 20
71.669010365675845
 30
0.0
 11
485.0
 21
70.092162243629843
 31
0.0
  0
LINE
  5
1DCD
  8
250
 10
486.36925212938871
 20
71.87660635833295
 30
0.0
 11
485.0
 21
70.092162243629843
 31
0.0
  0
LINE
  5
1DCE
  8
250
 10
485.0
 20
70.092162243629843
 30
0.0
 11
486.78444411470298
 21
71.461414373018727
 31
0.0
  0
LINE
  5
1DD0
  8
250
 10
389.02306787791292
 20
-95.976932122082232
 30
0.0
 11
386.47076866679703
 21
-98.529231333197799
 31
0.0
  0
LINE
  5
1DD1
  8
250
 10
512.75000000000125
 20
-48.064409910035472
 30
0.0
 11
554.67068762080714
 21
-120.6731707574903
 31
0.0
  0
ARC
  5
1DD2
  8
250
 10
484.99999999999972
 20
0.0000000000001137
 30
0.0
 40
138.34137524160801
 50
225.92359188600341
 51
299.07640811399688
  0
LINE
  5
1DD6
  8
250
 10
485.0
 20
72.499999999999901
 30
0.0
 11
485.0
 21
139.34137524160769
 31
0.0
  0
LINE
  5
1DD7
  8
250
 10
389.02306787791281
 20
-95.976932122082161
 30
0.0
 11
386.47076866679771
 21
-98.529231333197103
 31
0.0
  0
ARC
  5
1DD8
  8
250
 10
485.0
 20
0.0000000000002842
 30
0.0
 40
138.34137524160741
 50
90.923591886004786
 51
224.07640811399381
  0
LINE
  5
1DDC
  8
250
 10
484.28238252116131
 20
-85.973888426586996
 30
0.0
 11
508.7623825211611
 21
-85.973888426586996
 31
0.0
  0
LINE
  5
1DDD
  8
250
 10
508.7623825211611
 20
-85.973888426586996
 30
0.0
 11
521.10619420950945
 21
-66.488569484620456
 31
0.0
  0
LINE
  5
1DDE
  8
250
 10
521.10619420950945
 20
-66.488569484620456
 30
0.0
 11
522.29957491552432
 21
-64.604758854405219
 31
0.0
  0
LINE
  5
1DDF
  8
250
 10
521.35420258285262
 20
-66.645681034438923
 30
0.0
 11
522.29957491552432
 21
-64.604758854405219
 31
0.0
  0
LINE
  5
1DE0
  8
250
 10
522.29957491552432
 20
-64.604758854405219
 30
0.0
 11
520.8581858361664
 21
-66.331457934802003
 31
0.0
  0
LINE
  5
1DE2
  8
250
 10
362.88444266872523
 20
-117.97745683229221
 30
0.0
 11
385.84444266872561
 21
-117.97745683229221
 31
0.0
  0
LINE
  5
1DE3
  8
250
 10
385.84444266872561
 20
-117.97745683229221
 30
0.0
 11
406.17128006065371
 21
-79.750691187463289
 31
0.0
  0
LINE
  5
1DE4
  8
250
 10
406.17128006065371
 20
-79.750691187463332
 30
0.0
 11
407.21825406947761
 21
-77.781745930518014
 31
0.0
  0
LINE
  5
1DE5
  8
250
 10
406.43049662018723
 20
-79.88852793001908
 30
0.0
 11
407.21825406947761
 21
-77.781745930518014
 31
0.0
  0
LINE
  5
1DE6
  8
250
 10
407.21825406947761
 20
-77.781745930518014
 30
0.0
 11
405.91206350112088
 21
-79.612854444907555
 31
0.0
  0
LINE
  5
1E1C
  8
250
 10
281.00000000000182
 20
12.499999981162031
 30
0.0
 11
311.0
 21
12.499999981162031
 31
0.0
  0
LINE
  5
1E1D
  8
250
 10
277.40000056882587
 20
-16.00000001874448
 30
0.0
 11
311.0
 21
-16.00000001874449
 31
0.0
  0
LINE
  5
1E1E
  8
250
 10
310.0
 20
10.26999998116203
 30
0.0
 11
310.0
 21
-13.77000001874449
 31
0.0
  0
LINE
  5
1E22
  8
250
 10
272.0000000000021
 20
12.999999981162031
 30
0.0
 11
272.0000000000021
 21
29.0
 31
0.0
  0
LINE
  5
1E23
  8
250
 10
278.00000000000222
 20
12.999999981162031
 30
0.0
 11
278.00000000000222
 21
29.0
 31
0.0
  0
LINE
  5
1E24
  8
250
 10
269.77000000000209
 20
28.0
 30
0.0
 11
267.54000000000212
 21
28.0
 31
0.0
  0
LINE
  5
1E25
  8
250
 10
280.23000000000212
 20
28.0
 30
0.0
 11
298.3266666666687
 21
28.0
 31
0.0
  0
LINE
  5
1E26
  8
250
 10
272.0000000000021
 20
28.0
 30
0.0
 11
278.00000000000222
 21
28.0
 31
0.0
  0
LINE
  5
1E2A
  8
250
 10
-10.00000000000052
 20
49.500000000000171
 30
0.0
 11
-10.00000000000022
 21
78.0
 31
0.0
  0
LINE
  5
1E2B
  8
250
 10
275.00000000000227
 20
14.20604008790218
 30
0.0
 11
275.00000000000227
 21
78.0
 31
0.0
  0
LINE
  5
1E2C
  8
250
 10
-7.7700000000002252
 20
77.0
 30
0.0
 11
272.77000000000209
 21
77.0
 31
0.0
  0
TEXT
  5
1E30
  8
250
 10
128.30792037272471
 20
78.0
 30
0.0
 40
2.799999999999998
  1
285
  0
LINE
  5
1E31
  8
250
 10
272.77000000000209
 20
77.371666666666655
 30
0.0
 11
275.00000000000227
 21
77.0
 31
0.0
  0
LINE
  5
1E32
  8
250
 10
272.77000000000209
 20
76.62833333333333
 30
0.0
 11
275.00000000000227
 21
77.0
 31
0.0
  0
LINE
  5
1E33
  8
250
 10
275.00000000000227
 20
77.0
 30
0.0
 11
272.77000000000209
 21
77.0
 31
0.0
  0
LINE
  5
1E34
  8
250
 10
-7.7700000000002252
 20
76.62833333333333
 30
0.0
 11
-10.00000000000022
 21
77.0
 31
0.0
  0
LINE
  5
1E35
  8
250
 10
-7.7700000000002252
 20
77.371666666666655
 30
0.0
 11
-10.00000000000022
 21
77.0
 31
0.0
  0
LINE
  5
1E36
  8
250
 10
-10.00000000000022
 20
77.0
 30
0.0
 11
-7.7700000000002252
 21
77.0
 31
0.0
  0
TEXT
  5
1E37
  8
250
 10
282.92666666666878
 20
29.0
 30
0.0
 40
2.799999999999998
  1
MAX.
  0
TEXT
  5
1E38
  8
250
 10
292.5266666666688
 20
29.0
 30
0.0
 40
2.799999999999998
  1
\U+2205
  0
TEXT
  5
1E39
  8
250
 10
295.06000000000199
 20
29.0
 30
0.0
 40
2.799999999999998
  1
6
  0
LINE
  5
1E3A
  8
250
 10
280.23000000000212
 20
27.62833333333333
 30
0.0
 11
278.00000000000222
 21
28.0
 31
0.0
  0
LINE
  5
1E3B
  8
250
 10
280.23000000000212
 20
28.371666666666659
 30
0.0
 11
278.00000000000222
 21
28.0
 31
0.0
  0
LINE
  5
1E3C
  8
250
 10
278.00000000000222
 20
28.0
 30
0.0
 11
280.23000000000212
 21
28.0
 31
0.0
  0
LINE
  5
1E3D
  8
250
 10
269.77000000000209
 20
28.371666666666659
 30
0.0
 11
272.0000000000021
 21
28.0
 31
0.0
  0
LINE
  5
1E3E
  8
250
 10
269.77000000000209
 20
27.62833333333333
 30
0.0
 11
272.0000000000021
 21
28.0
 31
0.0
  0
LINE
  5
1E3F
  8
250
 10
272.0000000000021
 20
28.0
 30
0.0
 11
269.77000000000209
 21
28.0
 31
0.0
  0
TEXT
  5
1E40
  8
250
 10
309.0
 20
-6.4166666854578489
 30
0.0
 40
2.799999999999998
  1
28.5
 50
90.0
  0
LINE
  5
1E41
  8
250
 10
310.37166666666673
 20
-13.77000001874449
 30
0.0
 11
310.0
 21
-16.00000001874449
 31
0.0
  0
LINE
  5
1E42
  8
250
 10
309.62833333333327
 20
-13.77000001874449
 30
0.0
 11
310.0
 21
-16.00000001874449
 31
0.0
  0
LINE
  5
1E43
  8
250
 10
310.0
 20
-16.00000001874449
 30
0.0
 11
310.0
 21
-13.77000001874449
 31
0.0
  0
LINE
  5
1E44
  8
250
 10
309.62833333333327
 20
10.26999998116203
 30
0.0
 11
310.0
 21
12.499999981162031
 31
0.0
  0
LINE
  5
1E45
  8
250
 10
310.37166666666673
 20
10.26999998116203
 30
0.0
 11
310.0
 21
12.499999981162031
 31
0.0
  0
LINE
  5
1E46
  8
250
 10
310.0
 20
12.499999981162031
 30
0.0
 11
310.0
 21
10.26999998116203
 31
0.0
  0
TEXT
  5
1E73
  8
250
 10
355.33160780733391
 20
51.069369688604567
 30
0.0
 40
2.799999999999998
  1
\U+03B82
 50
67.499999999999275
  0
LINE
  5
1E74
  8
250
 10
482.76707688275212
 20
138.69505654387271
 30
0.0
 11
485.0
 21
138.34137524160769
 31
0.0
  0
LINE
  5
1E75
  8
250
 10
482.77306798024711
 20
137.9517473543726
 30
0.0
 11
485.0
 21
138.34137524160769
 31
0.0
  0
LINE
  5
1E76
  8
250
 10
485.0
 20
138.34137524160769
 30
0.0
 11
482.77007243149961
 21
138.3234019491226
 31
0.0
  0
TEXT
  5
1E77
  8
250
 10
498.8688171183984
 20
80.438954624678303
 30
0.0
 40
2.799999999999998
  1
刃先方向
  7
YOKO
  0
TEXT
  5
1E78
  8
250
 10
362.88444266872523
 20
-116.5774568322922
 30
0.0
 40
2.799999999999998
  1
位置決めピン
  7
YOKO
  0
TEXT
  5
1E79
  8
250
 10
484.28238252116131
 20
-84.573888426587004
 30
0.0
 40
2.799999999999998
  1
ドライブキー溝
  7
YOKO
  0
LINE
  5
1E7A
  8
250
 10
385.87870523677913
 20
-95.971937298398629
 30
0.0
 11
387.17787544798398
 21
-97.822124552010607
 31
0.0
  0
LINE
  5
1E7B
  8
250
 10
385.34886992269958
 20
-96.493299921146942
 30
0.0
 11
387.17787544798398
 21
-97.822124552010607
 31
0.0
  0
LINE
  5
1E7C
  8
250
 10
387.17787544798398
 20
-97.822124552010607
 30
0.0
 11
385.6137875797391
 21
-96.232618609772786
 31
0.0
  0
TEXT
  5
1E7D
  8
250
 10
465.05080573824529
 20
-135.90012730517549
 30
0.0
 40
2.799999999999998
  1
\U+03B81
 50
352.50000000000023
  0
LINE
  5
1E7E
  8
250
 10
388.5067000788473
 20
-99.651130077295846
 30
0.0
 11
387.17787544798381
 21
-97.822124552011275
 31
0.0
  0
LINE
  5
1E7F
  8
250
 10
389.02806270159562
 20
-99.121294763216596
 30
0.0
 11
387.17787544798381
 21
-97.822124552011275
 31
0.0
  0
LINE
  5
1E80
  8
250
 10
387.17787544798381
 20
-97.822124552011275
 30
0.0
 11
388.76738139022137
 21
-99.3862124202562
 31
0.0
  0
LINE
  5
1E81
  8
250
 10
552.04729397558265
 20
-120.58318371521391
 30
0.0
 11
554.17068762080726
 21
-119.80714535370591
 31
0.0
  0
LINE
  5
1E82
  8
250
 10
552.4137601277057
 20
-121.2299039049348
 30
0.0
 11
554.17068762080726
 21
-119.80714535370591
 31
0.0
  0
LINE
  5
1E83
  8
250
 10
554.17068762080726
 20
-119.80714535370591
 30
0.0
 11
552.23052705164434
 21
-120.9065438100743
 31
0.0
  0
LINE
  5
4027
  8
250
 10
-24.055475241705821
 20
-156.6778490344476
 30
0.0
 11
-58.284046670277263
 21
-156.6778490344476
 31
0.0
1001
ITEMNAME
1000
LNSP2
  0
LINE
  5
4028
  8
250
 10
10.99999999999933
 20
-95.499999999999943
 30
0.0
 11
10.99999999999933
 21
-76.000000000000185
 31
0.0
  0
LINE
  5
4029
  8
250
 10
20.99999999999957
 20
-90.999999999999943
 30
0.0
 11
20.99999999999957
 21
-76.000000000000185
 31
0.0
  0
LINE
  5
402A
  8
250
 10
13.22999999999934
 20
-77.000000000000213
 30
0.0
 11
18.769999999999548
 21
-77.000000000000213
 31
0.0
  0
LINE
  5
402B
  8
250
 10
-4.0000000000005951
 20
-98.144904710627131
 30
0.0
 11
-4.0000000000005951
 21
-76.000000000000185
 31
0.0
  0
LINE
  5
402C
  8
250
 10
10.99999999999933
 20
-95.499999999999943
 30
0.0
 11
10.99999999999933
 21
-76.000000000000185
 31
0.0
  0
LINE
  5
402D
  8
250
 10
-1.7700000000005911
 20
-77.000000000000213
 30
0.0
 11
8.7699999999993281
 21
-77.000000000000213
 31
0.0
  0
LINE
  5
402E
  8
250
 10
-10.00000000000041
 20
-35.424999999999898
 30
0.0
 11
-10.00000000000041
 21
-71.000000000000199
 31
0.0
  0
LINE
  5
402F
  8
250
 10
20.99999999999957
 20
-90.999999999999943
 30
0.0
 11
20.99999999999957
 21
-69.000000000000227
 31
0.0
  0
LINE
  5
4030
  8
250
 10
-7.7700000000004223
 20
-70.000000000000227
 30
0.0
 11
18.769999999999548
 21
-70.000000000000227
 31
0.0
  0
LINE
  5
4031
  8
250
 10
-23.500000000000512
 20
-0.0000000000001705
 30
0.0
 11
-23.00000000000048
 21
-0.0000000000001705
 31
0.0
  0
LINE
  5
4032
  8
250
 10
-8.9487512973332741
 20
-109.9999999999997
 30
0.0
 11
-25.000000000000512
 21
-109.9999999999999
 31
0.0
  0
LINE
  5
4033
  8
250
 10
-24.00000000000048
 20
-2.2300000000001869
 30
0.0
 11
-24.000000000000512
 21
-107.7700000000001
 31
0.0
  0
TEXT
  5
4034
  8
250
 10
-55.284046670277263
 20
-155.67784903444769
 30
0.0
 40
3.0
  1
位置決めブロック
  7
YOKO
1001
ITEMNAME
1000
LNSP3
1001
ACAD
1000
MTEXTBEGIN
1070
    73
1070
     1
1070
    44
1040
1.0
1070
    74
1070
     0
1000
MTEXTEND
  0
LINE
  5
4035
  8
250
 10
-10.00000000000041
 20
-35.424999999999898
 30
0.0
 11
-10.00000000000041
 21
-78.000000000000199
 31
0.0
  0
LINE
  5
4036
  8
250
 10
-4.0000000000005951
 20
-98.144904710627131
 30
0.0
 11
-4.0000000000005951
 21
-76.000000000000185
 31
0.0
  0
LINE
  5
4037
  8
250
 10
-12.23000000000042
 20
-77.000000000000213
 30
0.0
 11
-14.460000000000431
 21
-77.000000000000213
 31
0.0
  0
LINE
  5
4038
  8
250
 10
-1.7700000000005911
 20
-77.000000000000213
 30
0.0
 11
0.4599999999993969
 21
-77.000000000000213
 31
0.0
  0
LINE
  5
4039
  8
250
 10
-10.00000000000041
 20
-77.000000000000213
 30
0.0
 11
-4.0000000000005951
 21
-77.000000000000213
 31
0.0
  0
TEXT
  5
403A
  8
250
 10
-8.5000000000005098
 20
-76.000000000000199
 30
0.0
 40
3.0
  1
6
  0
LINE
  5
403B
  8
250
 10
-1.7700000000005911
 20
-77.371666666666911
 30
0.0
 11
-4.0000000000005951
 21
-77.000000000000213
 31
0.0
  0
LINE
  5
403C
  8
250
 10
-1.7700000000005911
 20
-76.628333333333558
 30
0.0
 11
-4.0000000000005951
 21
-77.000000000000213
 31
0.0
  0
LINE
  5
403D
  8
250
 10
-4.0000000000005951
 20
-77.000000000000213
 30
0.0
 11
-1.7700000000005911
 21
-77.000000000000213
 31
0.0
  0
LINE
  5
403E
  8
250
 10
-12.23000000000042
 20
-76.628333333333558
 30
0.0
 11
-10.00000000000041
 21
-77.000000000000213
 31
0.0
  0
LINE
  5
403F
  8
250
 10
-12.23000000000042
 20
-77.371666666666911
 30
0.0
 11
-10.00000000000041
 21
-77.000000000000213
 31
0.0
  0
LINE
  5
4040
  8
250
 10
-10.00000000000041
 20
-77.000000000000213
 30
0.0
 11
-12.23000000000042
 21
-77.000000000000213
 31
0.0
  0
LINE
  5
4041
  8
250
 10
-10.345362189456811
 20
-132.93123665043919
 30
0.0
 11
-24.055475241705821
 21
-156.6778490344476
 31
0.0
1001
ACAD
1000
DSTYLE
1002
{
1070
     5
1000
OPEN
1070
    78
1070
     8
1070
   140
1040
3.0
1002
}
  0
LINE
  5
4042
  8
250
 10
-10.667234964530021
 20
-132.745403317106
 30
0.0
 11
-9.2303621894568249
 21
-130.9999999999998
 31
0.0
  0
LINE
  5
4043
  8
250
 10
-10.023489414383601
 20
-133.1170699837725
 30
0.0
 11
-9.2303621894568249
 21
-130.9999999999998
 31
0.0
  0
LINE
  5
4044
  8
250
 10
-9.2303621894568249
 20
-130.9999999999998
 30
0.0
 11
-10.345362189456811
 21
-132.93123665043919
 31
0.0
  0
TEXT
  5
4045
  8
250
 10
-25.00000000000048
 20
-59.500000000000171
 30
0.0
 40
3.0
  1
110
 50
90.0
1001
ACAD
1000
MTEXTBEGIN
1070
    73
1070
     1
1070
    44
1040
1.0
1070
    74
1070
     0
1000
MTEXTEND
  0
LINE
  5
4046
  8
250
 10
-23.628333333333838
 20
-107.7700000000001
 30
0.0
 11
-24.000000000000512
 21
-109.9999999999999
 31
0.0
  0
LINE
  5
4047
  8
250
 10
-24.371666666667181
 20
-107.7700000000001
 30
0.0
 11
-24.000000000000512
 21
-109.9999999999999
 31
0.0
  0
LINE
  5
4048
  8
250
 10
-24.000000000000512
 20
-109.9999999999999
 30
0.0
 11
-24.000000000000512
 21
-107.7700000000001
 31
0.0
  0
LINE
  5
4049
  8
250
 10
-24.371666666667149
 20
-2.2300000000001869
 30
0.0
 11
-24.00000000000048
 21
-0.0000000000001705
 31
0.0
  0
LINE
  5
404A
  8
250
 10
-23.62833333333381
 20
-2.2300000000001869
 30
0.0
 11
-24.00000000000048
 21
-0.0000000000001705
 31
0.0
  0
LINE
  5
404B
  8
250
 10
-24.00000000000048
 20
-0.0000000000001705
 30
0.0
 11
-24.00000000000048
 21
-2.2300000000001869
 31
0.0
  0
TEXT
  5
404C
  8
250
 10
3.0714285714281271
 20
-69.000000000000227
 30
0.0
 40
3.0
  1
31
1001
ACAD
1000
MTEXTBEGIN
1070
    73
1070
     1
1070
    44
1040
1.0
1070
    74
1070
     0
1000
MTEXTEND
  0
LINE
  5
404D
  8
250
 10
18.769999999999548
 20
-69.628333333333558
 30
0.0
 11
20.99999999999957
 21
-70.000000000000227
 31
0.0
  0
LINE
  5
404E
  8
250
 10
18.769999999999548
 20
-70.371666666666911
 30
0.0
 11
20.99999999999957
 21
-70.000000000000227
 31
0.0
  0
LINE
  5
404F
  8
250
 10
20.99999999999957
 20
-70.000000000000227
 30
0.0
 11
18.769999999999548
 21
-70.000000000000227
 31
0.0
  0
LINE
  5
4050
  8
250
 10
-7.7700000000004339
 20
-70.371666666666911
 30
0.0
 11
-10.00000000000041
 21
-70.000000000000227
 31
0.0
  0
LINE
  5
4051
  8
250
 10
-7.7700000000004339
 20
-69.628333333333558
 30
0.0
 11
-10.00000000000041
 21
-70.000000000000227
 31
0.0
  0
LINE
  5
4052
  8
250
 10
-10.00000000000041
 20
-70.000000000000227
 30
0.0
 11
-7.7700000000004339
 21
-70.000000000000227
 31
0.0
  0
TEXT
  5
4053
  8
250
 10
0.4285714285708764
 20
-76.000000000000199
 30
0.0
 40
3.0
  1
15
1001
ACAD
1000
MTEXTBEGIN
1070
    73
1070
     1
1070
    44
1040
1.0
1070
    74
1070
     0
1000
MTEXTEND
  0
LINE
  5
4054
  8
250
 10
8.7699999999993281
 20
-76.628333333333558
 30
0.0
 11
10.99999999999933
 21
-77.000000000000213
 31
0.0
  0
LINE
  5
4055
  8
250
 10
8.7699999999993281
 20
-77.371666666666911
 30
0.0
 11
10.99999999999933
 21
-77.000000000000213
 31
0.0
  0
LINE
  5
4056
  8
250
 10
10.99999999999933
 20
-77.000000000000213
 30
0.0
 11
8.7699999999993281
 21
-77.000000000000213
 31
0.0
  0
LINE
  5
4057
  8
250
 10
-1.7700000000005911
 20
-77.371666666666911
 30
0.0
 11
-4.0000000000005951
 21
-77.000000000000213
 31
0.0
  0
LINE
  5
4058
  8
250
 10
-1.7700000000005911
 20
-76.628333333333558
 30
0.0
 11
-4.0000000000005951
 21
-77.000000000000213
 31
0.0
  0
LINE
  5
4059
  8
250
 10
-4.0000000000005951
 20
-77.000000000000213
 30
0.0
 11
-1.7700000000005911
 21
-77.000000000000213
 31
0.0
  0
TEXT
  5
405A
  8
250
 10
12.92857142857086
 20
-76.000000000000199
 30
0.0
 40
3.0
  1
10
  0
LINE
  5
405B
  8
250
 10
18.769999999999548
 20
-76.628333333333558
 30
0.0
 11
20.99999999999957
 21
-77.000000000000213
 31
0.0
  0
LINE
  5
405C
  8
250
 10
18.769999999999548
 20
-77.371666666666911
 30
0.0
 11
20.99999999999957
 21
-77.000000000000213
 31
0.0
  0
LINE
  5
405D
  8
250
 10
20.99999999999957
 20
-77.000000000000213
 30
0.0
 11
18.769999999999548
 21
-77.000000000000213
 31
0.0
  0
LINE
  5
405E
  8
250
 10
13.22999999999934
 20
-77.371666666666911
 30
0.0
 11
10.99999999999933
 21
-77.000000000000213
 31
0.0
  0
LINE
  5
405F
  8
250
 10
13.22999999999934
 20
-76.628333333333558
 30
0.0
 11
10.99999999999933
 21
-77.000000000000213
 31
0.0
  0
LINE
  5
4060
  8
250
 10
10.99999999999933
 20
-77.000000000000213
 30
0.0
 11
13.22999999999934
 21
-77.000000000000213
 31
0.0
  0
LINE
  5
4061
  8
250
 10
-42.24178141048256
 20
-49.204141969658963
 30
0.0
 11
-71.098924267625421
 21
-49.204141969658963
 31
0.0
1001
ITEMNAME
1000
LNSP2
  0
TEXT
  5
4062
  8
250
 10
-68.670352839053976
 20
-48.204141969658949
 30
0.0
 40
3.0
  1
HSK-A100
  7
YOKO
1001
ITEMNAME
1000
LNSP3
1001
ACAD
1000
MTEXTBEGIN
1070
    73
1070
     1
1070
    44
1040
1.0
1070
    74
1070
     0
1000
MTEXTEND
  0
LINE
  5
4063
  8
250
 10
-36.164937616944869
 20
-38.678739769592021
 30
0.0
 11
-42.24178141048256
 21
-49.204141969658963
 31
0.0
1001
ACAD
1000
DSTYLE
1002
{
1070
     5
1000
OPEN
1070
    78
1070
     8
1070
   140
1040
3.0
1002
}
  0
LINE
  5
4064
  8
250
 10
-36.4868103920181
 20
-38.492906436258693
 30
0.0
 11
-35.049937616944881
 21
-36.747503119152732
 31
0.0
  0
LINE
  5
4065
  8
250
 10
-35.843064841871659
 20
-38.864573102925362
 30
0.0
 11
-35.049937616944881
 21
-36.747503119152732
 31
0.0
  0
LINE
  5
4066
  8
250
 10
-35.049937616944881
 20
-36.747503119152732
 30
0.0
 11
-36.164937616944869
 21
-38.678739769592021
 31
0.0
  0
INSERT
  5
46F1
  8
250
  2
A$C21905ECA
 10
484.99999999990752
 20
-0.0000000000001563
 30
0.0
  0
INSERT
  5
4BF5
  8
250
  2
A$C403A7662
 10
-10.00000000000052
 20
-0.0000000000001705
 30
0.0
  0
VIEWPORT
  5
22
 67
     1
  8
0
 10
261.51769911504419
 20
148.5
 30
0.0
 40
523.0353982300885
 41
297.0
 68
     1
 69
     1
1001
ACAD
1000
MVIEW
1002
{
1070
    16
1010
0.0
1020
0.0
1030
0.0
1010
0.0
1020
0.0
1030
1.0
1040
0.0
1040
297.0
1040
261.51769911504419
1040
148.5
1040
50.0
1040
0.0
1040
0.0
1070
     0
1070
   100
1070
     1
1070
     1
1070
     0
1070
     0
1070
     0
1070
     0
1040
0.0
1040
0.0
1040
0.0
1040
1.0
1040
1.0
1040
10.0
1040
10.0
1070
     0
1002
{
1002
}
1002
}
1001
GENIUS_GENODEF_13
1002
{
1000
HIER
1070
     0
1002
}
1002
{
1000
MANEDIT
1070
     0
1002
}
1002
{
1000
NOSEL
1070
     0
1002
}
1002
{
1000
BEHIND
1070
     0
1002
}
1002
{
1000
OTHER
1070
     0
1002
}
1002
{
1000
REACTOR
1002
}
1001
GENIUS_GENOBJ-N-SDF_13
1002
{
1000
OWNER
1000
GEN
1002
}
1001
GENIUS_GENSCREG_15
1000
PF
1040
1.0
1000
DF
1040
1.0
1000
MIN
1011
0.0
1021
0.0
1031
0.0
1021
0.0
1031
0.0
1000
MAX
1011
523.0353982300885
1021
0.0
1031
0.0
1021
297.0
1031
0.0
1000
FLAGS
1070
     4
  0
ENDSEC
  0
EOF
