  0
SECTION
  2
HEADER
  9
$ACADVER
  1
AC1009
  9
$INSBASE
 10
0.0
 20
0.0
 30
0.0
  9
$EXTMIN
 10
-71.120708887909132
 20
-156.70218306222509
 30
-0.000000000000013
  9
$EXTMAX
 10
514.52019134782097
 20
139.34305093338889
 30
0.0000000000000023
  9
$LIMMIN
 10
0.0
 20
0.0
  9
$LIMMAX
 10
297.0
 20
210.0
  9
$ORTHOMODE
 70
     0
  9
$REGENMODE
 70
     1
  9
$FILLMODE
 70
     1
  9
$QTEXTMODE
 70
     0
  9
$MIRRTEXT
 70
     1
  9
$DRAGMODE
 70
     2
  9
$LTSCALE
 40
10.0
  9
$OSMODE
 70
  3071
  9
$ATTMODE
 70
     1
  9
$TEXTSIZE
 40
3.0
  9
$TRACEWID
 40
1.0
  9
$TEXTSTYLE
  7
YOKO
  9
$CLAYER
  8
241
  9
$CELTYPE
  6
BYLAYER
  9
$CECOLOR
 62
   256
  9
$DIMSCALE
 40
1.0
  9
$DIMASZ
 40
2.2299999999999991
  9
$DIMEXO
 40
0.5
  9
$DIMDLI
 40
7.0
  9
$DIMRND
 40
0.0
  9
$DIMDLE
 40
0.0
  9
$DIMEXE
 40
1.0
  9
$DIMTP
 40
0.0
  9
$DIMTM
 40
0.01
  9
$DIMTXT
 40
2.799999999999998
  9
$DIMCEN
 40
0.0
  9
$DIMTSZ
 40
0.0
  9
$DIMTOL
 70
     0
  9
$DIMLIM
 70
     0
  9
$DIMTIH
 70
     0
  9
$DIMTOH
 70
     0
  9
$DIMSE1
 70
     0
  9
$DIMSE2
 70
     0
  9
$DIMTAD
 70
     3
  9
$DIMZIN
 70
     9
  9
$DIMBLK
  1
OPEN
  9
$DIMASO
 70
     1
  9
$DIMSHO
 70
     1
  9
$DIMPOST
  1

  9
$DIMAPOST
  1

  9
$DIMALT
 70
     0
  9
$DIMALTD
 70
     2
  9
$DIMALTF
 40
25.399999999999999
  9
$DIMLFAC
 40
1.0
  9
$DIMTOFL
 70
     1
  9
$DIMTVP
 40
0.0
  9
$DIMTIX
 70
     1
  9
$DIMSOXD
 70
     0
  9
$DIMSAH
 70
     0
  9
$DIMBLK1
  1

  9
$DIMBLK2
  1

  9
$DIMSTYLE
  2
BIGT
  9
$DIMCLRD
 70
   256
  9
$DIMCLRE
 70
   256
  9
$DIMCLRT
 70
    40
  9
$DIMTFAC
 40
1.0
  9
$DIMGAP
 40
1.0
  9
$LUNITS
 70
     2
  9
$LUPREC
 70
     3
  9
$SKETCHINC
 40
1.0
  9
$FILLETRAD
 40
0.0
  9
$AUNITS
 70
     0
  9
$AUPREC
 70
     3
  9
$MENU
  1
.
  9
$ELEVATION
 40
0.0
  9
$PELEVATION
 40
0.0
  9
$THICKNESS
 40
0.0
  9
$LIMCHECK
 70
     0
  9
$BLIPMODE
 70
     0
  9
$CHAMFERA
 40
0.25
  9
$CHAMFERB
 40
0.25
  9
$SKPOLY
 70
     0
  9
$TDCREATE
 40
2453612.6927963542
  9
$TDUPDATE
 40
2456133.3985997569
  9
$TDINDWG
 40
0.069742338
  9
$TDUSRTIMER
 40
0.0697421528
  9
$USRTIMER
 70
     1
  9
$ANGBASE
 50
0.0
  9
$ANGDIR
 70
     0
  9
$PDMODE
 70
     1
  9
$PDSIZE
 40
0.0
  9
$PLINEWID
 40
0.0
  9
$COORDS
 70
     2
  9
$SPLFRAME
 70
     0
  9
$SPLINETYPE
 70
     6
  9
$SPLINESEGS
 70
     4
  9
$ATTDIA
 70
     1
  9
$ATTREQ
 70
     1
  9
$HANDLING
 70
     1
  9
$HANDSEED
  5
483E
  9
$SURFTAB1
 70
     6
  9
$SURFTAB2
 70
     6
  9
$SURFTYPE
 70
     6
  9
$SURFU
 70
     6
  9
$SURFV
 70
     6
  9
$UCSNAME
  2

  9
$UCSORG
 10
0.0
 20
0.0
 30
0.0
  9
$UCSXDIR
 10
1.0
 20
0.0
 30
0.0
  9
$UCSYDIR
 10
0.0
 20
1.0
 30
0.0
  9
$PUCSNAME
  2

  9
$PUCSORG
 10
0.0
 20
0.0
 30
0.0
  9
$PUCSXDIR
 10
1.0
 20
0.0
 30
0.0
  9
$PUCSYDIR
 10
0.0
 20
1.0
 30
0.0
  9
$USERI1
 70
     1
  9
$USERI2
 70
     0
  9
$USERI3
 70
     0
  9
$USERI4
 70
     0
  9
$USERI5
 70
     0
  9
$USERR1
 40
0.0
  9
$USERR2
 40
0.0
  9
$USERR3
 40
0.0
  9
$USERR4
 40
0.0
  9
$USERR5
 40
0.0
  9
$WORLDVIEW
 70
     1
  9
$SHADEDGE
 70
     3
  9
$SHADEDIF
 70
    70
  9
$TILEMODE
 70
     1
  9
$MAXACTVP
 70
    16
  9
$PLIMCHECK
 70
     0
  9
$PEXTMIN
 10
1.0000000000000000E+020
 20
1.0000000000000000E+020
 30
1.0000000000000000E+020
  9
$PEXTMAX
 10
-1.0000000000000000E+020
 20
-1.0000000000000000E+020
 30
-1.0000000000000000E+020
  9
$PLIMMIN
 10
0.0
 20
0.0
  9
$PLIMMAX
 10
420.0
 20
297.0
  9
$UNITMODE
 70
     0
  9
$VISRETAIN
 70
     1
  9
$PLINEGEN
 70
     0
  9
$PSLTSCALE
 70
     1
  0
ENDSEC
  0
SECTION
  2
TABLES
  0
TABLE
  2
VPORT
 70
     1
  0
VPORT
  2
*ACTIVE
 70
     0
 10
0.0
 20
0.0
 11
1.0
 21
1.0
 12
221.69974122995609
 22
-8.6795660644181112
 13
0.0
 23
0.0
 14
7.0
 24
7.0
 15
7.0
 25
7.0
 16
0.0
 26
0.0
 36
1.0
 17
0.0
 27
0.0
 37
0.0
 40
298.31377984998659
 41
2.0332480818414318
 42
50.0
 43
0.0
 44
0.0
 50
0.0
 51
0.0
 71
     0
 72
  2000
 73
     1
 74
     0
 75
     0
 76
     0
 77
     0
 78
     0
  0
ENDTAB
  0
TABLE
  2
LTYPE
 70
    16
  0
LTYPE
  2
CONTINUOUS
 70
     0
  3
Solid line
 72
    65
 73
     0
 40
0.0
  0
LTYPE
  2
CENTER2
 70
     0
  3
___ _ ___ _ ___ _ ___ _ ___ _ ___ _ ___ _ ___ _
 72
    65
 73
     4
 40
1.125
 49
0.75
 49
-0.125
 49
0.125
 49
-0.125
  0
LTYPE
  2
HIDDEN2
 70
     0
  3
_ _ _ _ _ _ _ _ _ _ _ _ _ _ _ _ _ _ _ _ _ _ _ _
 72
    65
 73
     2
 40
0.1875
 49
0.125
 49
-0.0625
  0
LTYPE
  2
PHANTOM2
 70
     0
  3
___ _ _ ___ _ _ ___ _ _ ___ _ _ ___ _ _ ___ _ _
 72
    65
 73
     6
 40
1.25
 49
0.625
 49
-0.125
 49
0.125
 49
-0.125
 49
0.125
 49
-0.125
  0
LTYPE
  2
CENTER
 70
     0
  3
____ _ ____ _ ____ _ ____ _ ____ _ ____ _ ____ 
 72
    65
 73
     4
 40
2.0
 49
1.25
 49
-0.25
 49
0.25
 49
-0.25
  0
LTYPE
  2
AMCONSTR
 70
     0
  3
_______________________
 72
    65
 73
     2
 40
9999.0
 49
9999.0
 49
0.0
  0
LTYPE
  2
HIDDEN
 70
     0
  3
Hidden __ __ __ __ __ __ __ __ __ __ __ __ __ _
 72
    65
 73
     2
 40
9.5249999999999986
 49
6.349999999999997
 49
-3.174999999999998
  0
LTYPE
  2
ACANSTGB
 70
     0
  3
__ . . __ . .
 72
    65
 73
     6
 40
0.35433070866
 49
0.15748031496
 49
-0.03937007874
 49
0.03937007874
 49
-0.03937007874
 49
0.03937007874
 49
-0.03937007874
  0
LTYPE
  2
ACANSTGL
 70
     0
  3
_ _ _ _ _
 72
    65
 73
     2
 40
0.11811023622
 49
0.07874015748
 49
-0.03937007874
  0
LTYPE
  2
AMZIGZAG2
 70
     0
  3
/\/-/\/-/\/-/\/-/\/-/\/
 72
    65
 73
     2
 40
0.4401
 49
0.0001
 49
-0.4400000000000003
  0
ENDTAB
  0
TABLE
  2
LAYER
 70
    11
  0
LAYER
  2
0
 70
     0
 62
     7
  6
CONTINUOUS
  0
LAYER
  2
250
 70
     0
 62
     3
  6
CONTINUOUS
  0
LAYER
  2
240
 70
     0
 62
     4
  6
CONTINUOUS
  0
LAYER
  2
DEFPOINTS
 70
     0
 62
     7
  6
CONTINUOUS
  0
LAYER
  2
245
 70
     0
 62
     2
  6
CENTER2
  0
LAYER
  2
241
 70
     0
 62
   211
  6
CONTINUOUS
  0
LAYER
  2
242
 70
     0
 62
     3
  6
CONTINUOUS
  0
LAYER
  2
243
 70
     0
 62
   211
  6
HIDDEN2
  0
LAYER
  2
244
 70
     0
 62
     3
  6
HIDDEN2
  0
LAYER
  2
247
 70
     0
 62
    60
  6
CONTINUOUS
  0
ENDTAB
  0
TABLE
  2
STYLE
 70
     6
  0
STYLE
  2
STANDARD
 70
     0
 40
0.0
 41
1.0
 50
0.0
 71
     0
 42
3.0
  3
romans.shx
  4
extfont.shx
  0
STYLE
  2
YOKO
 70
     0
 40
0.0
 41
1.0
 50
0.0
 71
     0
 42
3.0
  3
romans.shx
  4
extfont.shx
  0
STYLE
  2
ACANSGDT
 70
     0
 40
0.0
 41
1.0
 50
0.0
 71
     0
 42
3.0
  3
amgdt.shx
  4

  0
ENDTAB
  0
TABLE
  2
VIEW
 70
     0
  0
ENDTAB
  0
TABLE
  2
UCS
 70
     0
  0
ENDTAB
  0
TABLE
  2
APPID
 70
    39
  0
APPID
  2
ACAD
 70
     0
  0
APPID
  2
ACADANNOTATIVE
 70
     0
  0
APPID
  2
GLOBAL
 70
     0
  0
APPID
  2
DETAIL
 70
     0
  0
APPID
  2
GRPNAME
 70
     0
  0
APPID
  2
GPARA
 70
     0
  0
APPID
  2
MCAD_NO_VIS
 70
     0
  0
APPID
  2
ACAD_TEMP_GRAPHIC
 70
     0
  0
APPID
  2
ACATTRIBSERVICES
 70
     0
  0
APPID
  2
GENIUS_GENSCREG_15
 70
     0
  0
APPID
  2
GENIUS_GENODEF_13
 70
     0
  0
APPID
  2
GENIUS_GENOBJ-N-SDF_13
 70
     0
  0
APPID
  2
GENIUS_GENREC_14
 70
     0
  0
APPID
  2
GENIUS_GENOBJ-N-REC_13
 70
     0
  0
APPID
  2
GENIUS_GENDIMSH_14
 70
     0
  0
APPID
  2
GENIUS_GENOBJ-N-DIM_13
 70
     0
  0
APPID
  2
GENIUS_GENDIM_13
 70
     0
  0
APPID
  2
GENIUS_GENDTOL_13
 70
     0
  0
APPID
  2
GENIUS_GENOLIS_13
 70
     0
  0
APPID
  2
GENIUS_GENOENT_13
 70
     0
  0
APPID
  2
GENIUS_GENOBJ-F-FEM_13
 70
     0
  0
APPID
  2
GENIUS_GENOREF_13
 70
     0
  0
APPID
  2
GENIUS_GEFFEM_13
 70
     0
  0
APPID
  2
GENIUS_GEFFEMP_13
 70
     0
  0
APPID
  2
AD_DRAW
 70
     0
  0
APPID
  2
DESIGNERASSEMBLIES
 70
     0
  0
APPID
  2
ACADM_DIM_EDIT
 70
     0
  0
APPID
  2
AMDT_DM_ADJ
 70
     0
  0
APPID
  2
GENIUS_GENFIL_13
 70
     0
  0
APPID
  2
GENIUS_GENOBJ-N-CHA_13
 70
     0
  0
APPID
  2
HATCH_TYPE
 70
     0
  0
APPID
  2
HATCH_DISPLAY
 70
     0
  0
APPID
  2
HATCH_DISTANCE
 70
     0
  0
APPID
  2
ACAD_DSTYLE_DIMBREAK
 70
     0
  0
APPID
  2
ACAD_DSTYLE_DIMJAG
 70
     0
  0
APPID
  2
ITEMNAME
 70
     0
  0
APPID
  2
ACAECLAYERSTANDARD
 70
     0
  0
APPID
  2
ACAD_EXEMPT_FROM_CAD_STANDARDS
 70
     0
  0
APPID
  2
ACAD_MLEADERVER
 70
     0
  0
ENDTAB
  0
TABLE
  2
DIMSTYLE
 70
     9
  0
DIMSTYLE
  2
STANDARD
 70
     0
  3

  4

  5

  6

  7

 40
1.0
 41
0.18
 42
0.0625
 43
0.38
 44
0.18
 45
0.0
 46
0.0
 47
0.0
 48
0.0
140
0.18
141
0.09
142
0.0
143
25.399999999999999
144
1.0
145
0.0
146
1.0
147
0.09
 71
     0
 72
     0
 73
     1
 74
     1
 75
     0
 76
     0
 77
     0
 78
     0
170
     0
171
     2
172
     0
173
     0
174
     0
175
     0
176
     0
177
     0
178
     0
  0
DIMSTYLE
  2
BIGT
 70
     0
  3

  4

  5

  6

  7

 40
1.0
 41
2.2299999999999991
 42
0.5
 43
7.0
 44
1.0
 45
0.0
 46
0.0
 47
0.0
 48
0.01
140
2.799999999999998
141
0.0
142
0.0
143
25.399999999999999
144
1.0
145
0.0
146
1.0
147
1.0
 71
     0
 72
     0
 73
     0
 74
     0
 75
     0
 76
     0
 77
     3
 78
     9
170
     0
171
     2
172
     1
173
     0
174
     1
175
     0
176
   256
177
   256
178
    40
  0
DIMSTYLE
  2
AM_ANSI
 70
     0
  3

  4
mm
  5

  6

  7

 40
1.0
 41
0.1
 42
0.05
 43
0.5
 44
0.1
 45
0.0
 46
0.0
 47
0.1
 48
0.1
140
0.12
141
0.0
142
0.0
143
25.399999999999999
144
1.0
145
0.0
146
0.71
147
0.06
 71
     0
 72
     0
 73
     1
 74
     1
 75
     0
 76
     0
 77
     0
 78
     7
170
     0
171
     2
172
     0
173
     0
174
     0
175
     0
176
   256
177
   256
178
     2
  0
DIMSTYLE
  2
AM_ANSI$3
 70
     0
  3

  4
mm
  5

  6

  7

 40
1.0
 41
0.1
 42
0.05
 43
0.5
 44
0.1
 45
0.0
 46
0.0
 47
0.1
 48
0.1
140
0.12
141
0.0
142
0.0
143
25.399999999999999
144
1.0
145
0.0
146
0.71
147
0.06
 71
     0
 72
     0
 73
     1
 74
     1
 75
     0
 76
     0
 77
     0
 78
     7
170
     0
171
     2
172
     0
173
     0
174
     0
175
     0
176
   256
177
   256
178
     2
  0
DIMSTYLE
  2
AM_ANSI$4
 70
     0
  3

  4
mm
  5

  6

  7

 40
1.0
 41
0.1
 42
0.05
 43
0.5
 44
0.1
 45
0.0
 46
0.0
 47
0.1
 48
0.1
140
0.12
141
0.0
142
0.0
143
25.399999999999999
144
1.0
145
0.0
146
0.71
147
0.06
 71
     0
 72
     0
 73
     1
 74
     1
 75
     0
 76
     0
 77
     0
 78
     7
170
     0
171
     2
172
     0
173
     0
174
     0
175
     0
176
   256
177
   256
178
     2
  0
DIMSTYLE
  2
AM_ANSI$7
 70
     0
  3

  4
mm
  5

  6

  7

 40
1.0
 41
0.1
 42
0.05
 43
0.5
 44
0.1
 45
0.0
 46
0.0
 47
0.1
 48
0.1
140
0.24
141
0.0
142
0.0
143
25.399999999999999
144
1.0
145
0.0
146
0.71
147
0.06
 71
     0
 72
     0
 73
     1
 74
     1
 75
     0
 76
     0
 77
     0
 78
     7
170
     0
171
     2
172
     0
173
     0
174
     0
175
     0
176
   256
177
   256
178
     2
  0
DIMSTYLE
  2
AM_ANSI$SF
 70
     0
  3

  4
mm
  5

  6

  7

 40
1.0
 41
0.1
 42
0.05
 43
0.5
 44
0.1
 45
0.0
 46
0.0
 47
0.1
 48
0.1
140
0.12
141
0.0
142
0.0
143
25.399999999999999
144
1.0
145
0.0
146
0.71
147
0.06
 71
     0
 72
     0
 73
     1
 74
     1
 75
     1
 76
     1
 77
     0
 78
     7
170
     0
171
     2
172
     0
173
     0
174
     0
175
     0
176
   256
177
   256
178
     2
  0
DIMSTYLE
  2
AM_ANSI$SH
 70
     0
  3

  4
mm
  5

  6

  7

 40
1.0
 41
0.1
 42
0.05
 43
0.5
 44
0.1
 45
0.0
 46
0.0
 47
0.1
 48
0.1
140
0.12
141
0.0
142
0.0
143
25.399999999999999
144
1.0
145
0.0
146
0.71
147
0.06
 71
     0
 72
     0
 73
     1
 74
     1
 75
     1
 76
     1
 77
     0
 78
     7
170
     0
171
     2
172
     0
173
     1
174
     0
175
     0
176
   256
177
   256
178
     2
  0
ENDTAB
  0
ENDSEC
  0
SECTION
  2
BLOCKS
  0
BLOCK
  8
0
  2
$MODEL_SPACE
 70
     0
 10
0.0
 20
0.0
 30
0.0
  3
$MODEL_SPACE
  1

  0
ENDBLK
  5
43B4
  8
0
  0
BLOCK
 67
     1
  8
0
  2
$PAPER_SPACE
 70
     0
 10
0.0
 20
0.0
 30
0.0
  3
$PAPER_SPACE
  1

  0
ENDBLK
  5
43B0
 67
     1
  8
0
  0
BLOCK
  8
0
  2
_OPEN
 70
     0
 10
0.0
 20
0.0
 30
0.0
  3
_OPEN
  1

  0
LINE
  5
595
  8
0
  6
BYBLOCK
 62
     0
 10
-1.0
 20
0.1666666666666666
 30
0.0
 11
0.0
 21
0.0
 31
0.0
  0
LINE
  5
596
  8
0
  6
BYBLOCK
 62
     0
 10
-1.0
 20
-0.1666666666666666
 30
0.0
 11
0.0
 21
0.0
 31
0.0
  0
LINE
  5
597
  8
0
  6
BYBLOCK
 62
     0
 10
0.0
 20
0.0
 30
0.0
 11
-1.0
 21
0.0
 31
0.0
  0
ENDBLK
  5
599
  8
0
  0
BLOCK
  8
0
  2
*X7
 70
     1
 10
0.0
 20
0.0
 30
0.0
  3
*X7
  1

  0
LINE
  5
4485
  8
0
 62
     0
 10
8.238164574470316
 20
-24.068193743056661
 30
0.0
 11
8.2115209144739421
 21
-24.04155008306029
 31
0.0
  0
LINE
  5
4486
  8
0
 62
     0
 10
8.2381645744703071
 20
-24.427403987899421
 30
0.0
 11
7.7079002893291602
 21
-23.897139702758281
 31
0.0
  0
LINE
  5
4487
  8
0
 62
     0
 10
8.2182125041644127
 20
-24.76666216243628
 30
0.0
 11
7.204279664184396
 21
-23.752729322456268
 31
0.0
  0
LINE
  5
4488
  8
0
 62
     0
 10
7.7145899082592511
 20
-24.622249811373891
 30
0.0
 11
6.7006590390396212
 21
-23.608318942154241
 31
0.0
  0
LINE
  5
4489
  8
0
 62
     0
 10
7.2109673123541
 20
-24.477837460311491
 30
0.0
 11
6.1970384138948571
 21
-23.463908561852239
 31
0.0
  0
LINE
  5
448A
  8
0
 62
     0
 10
6.707344716448933
 20
-24.333425109249109
 30
0.0
 11
5.6934177887500752
 21
-23.319498181550241
 31
0.0
  0
LINE
  5
448B
  8
0
 62
     0
 10
6.2037221205437874
 20
-24.18901275818672
 30
0.0
 11
5.328130013313082
 21
-23.313420650956019
 31
0.0
  0
LINE
  5
448C
  8
0
 62
     0
 10
5.7000995246386221
 20
-24.044600407124321
 30
0.0
 11
5.3281300133130891
 21
-23.67263089579879
 31
0.0
  0
LINE
  5
448D
  8
0
 62
     0
 10
5.361541979063233
 20
-24.065253106391701
 30
0.0
 11
5.328130013313082
 21
-24.03184114064155
 31
0.0
  0
ENDBLK
  5
448E
  8
0
  0
BLOCK
  8
0
  2
*X8
 70
     1
 10
0.0
 20
0.0
 30
0.0
  3
*X8
  1

  0
LINE
  5
4491
  8
0
 62
     0
 10
8.0701477227327842
 20
-21.744915422262519
 30
0.0
 11
7.7670214995727589
 21
-21.441789199102509
 31
0.0
  0
LINE
  5
4492
  8
0
 62
     0
 10
8.2332612574242212
 20
-22.267239201796741
 30
0.0
 11
7.263399477793782
 21
-21.297377422166289
 31
0.0
  0
LINE
  5
4493
  8
0
 62
     0
 10
7.7215012285300899
 20
-22.114689417745371
 30
0.0
 11
6.7597774560147812
 21
-21.152965645230051
 31
0.0
  0
LINE
  5
4494
  8
0
 62
     0
 10
8.2113774928885928
 20
-22.604565682103871
 30
0.0
 11
7.8317712232036012
 21
-22.22495941241888
 31
0.0
  0
LINE
  5
4495
  8
0
 62
     0
 10
7.199351315087112
 20
-21.95174974914514
 30
0.0
 11
6.5891407555005852
 21
-21.34153918955862
 31
0.0
  0
LINE
  5
4496
  8
0
 62
     0
 10
8.1132683095342273
 20
-22.865666743592261
 30
0.0
 11
7.8309358563367821
 21
-22.583334290394809
 31
0.0
  0
LINE
  5
4497
  8
0
 62
     0
 10
6.9124805992505713
 20
-22.02408927815139
 30
0.0
 11
6.589140755500571
 21
-21.700749434401391
 31
0.0
  0
LINE
  5
4498
  8
0
 62
     0
 10
7.964481211056718
 20
-23.07608988995754
 30
0.0
 11
7.6220402496344803
 21
-22.733648928535299
 31
0.0
  0
LINE
  5
4499
  8
0
 62
     0
 10
5.7573384204049187
 20
-21.228157344148489
 30
0.0
 11
5.723673699784575
 21
-21.194492623528149
 31
0.0
  0
LINE
  5
449A
  8
0
 62
     0
 10
7.7714733185701572
 20
-23.242292242313731
 30
0.0
 11
7.1824663108924831
 21
-22.653285234636058
 31
0.0
  0
LINE
  5
449B
  8
0
 62
     0
 10
5.847336478339713
 20
-21.677365646926059
 30
0.0
 11
5.4505793449193121
 21
-21.280608513505651
 31
0.0
  0
LINE
  5
449C
  8
0
 62
     0
 10
7.531590408954151
 20
-23.361619577540498
 30
0.0
 11
6.6788437982373523
 21
-22.508872966823692
 31
0.0
  0
LINE
  5
449D
  8
0
 62
     0
 10
5.6943798848197673
 20
-21.883619298248881
 30
0.0
 11
5.4522652133160721
 21
-21.641504626745181
 31
0.0
  0
LINE
  5
449E
  8
0
 62
     0
 10
7.2295251507729619
 20
-23.418764564202078
 30
0.0
 11
6.1752212855822322
 21
-22.364460699011349
 31
0.0
  0
LINE
  5
449F
  8
0
 62
     0
 10
6.8194166742686031
 20
-23.367866332540469
 30
0.0
 11
5.3545145625143391
 21
-21.90296422078622
 31
0.0
  0
LINE
  5
44A0
  8
0
 62
     0
 10
6.3409512066324307
 20
-23.248611109747049
 30
0.0
 11
5.333284911077028
 21
-22.240944814191639
 31
0.0
  0
ENDBLK
  5
44A1
  8
0
  0
BLOCK
  8
0
  2
*X9
 70
     1
 10
0.0
 20
0.0
 30
0.0
  3
*X9
  1

  0
LINE
  5
44A4
  8
0
 62
     0
 10
8.6325802809247634
 20
-20.152086511397901
 30
0.0
 11
7.5727920983010542
 21
-19.092298328774199
 31
0.0
  0
LINE
  5
44A5
  8
0
 62
     0
 10
7.550509858052477
 20
-19.429226333368401
 30
0.0
 11
7.1259540584896071
 21
-19.00467053380553
 31
0.0
  0
LINE
  5
44A6
  8
0
 62
     0
 10
8.7202080758934244
 20
-20.59892455120934
 30
0.0
 11
8.2956522763305571
 21
-20.17436875164648
 31
0.0
  0
LINE
  5
44A7
  8
0
 62
     0
 10
7.0885583729535151
 20
-19.326485093112201
 30
0.0
 11
6.7814368665633884
 21
-19.019363586722051
 31
0.0
  0
LINE
  5
44A8
  8
0
 62
     0
 10
8.7231743317738051
 20
-20.96110105193247
 30
0.0
 11
8.3983935165867578
 21
-20.63632023674543
 31
0.0
  0
LINE
  5
44A9
  8
0
 62
     0
 10
6.7548536742801764
 20
-19.35199063928161
 30
0.0
 11
6.490972454379194
 21
-19.088109419380629
 31
0.0
  0
LINE
  5
44AA
  8
0
 62
     0
 10
8.7231743317737944
 20
-21.32031129677523
 30
0.0
 11
8.3998344963453064
 21
-20.996971461346732
 31
0.0
  0
LINE
  5
44AB
  8
0
 62
     0
 10
6.48116854797534
 20
-19.437515757819561
 30
0.0
 11
6.2387585511122241
 21
-19.195105760956441
 31
0.0
  0
LINE
  5
44AC
  8
0
 62
     0
 10
8.7231743317737944
 20
-21.679521541618008
 30
0.0
 11
8.3998344963452976
 21
-21.35618170618951
 31
0.0
  0
LINE
  5
44AD
  8
0
 62
     0
 10
6.2495981785713921
 20
-19.56515563325836
 30
0.0
 11
6.0177543689193751
 21
-19.333311823606351
 31
0.0
  0
LINE
  5
44AE
  8
0
 62
     0
 10
8.7231743317738051
 20
-22.038731786460769
 30
0.0
 11
8.3998344963452922
 21
-21.71539195103227
 31
0.0
  0
LINE
  5
44AF
  8
0
 62
     0
 10
6.0533621362573351
 20
-19.72812983578709
 30
0.0
 11
5.8247263052360001
 21
-19.49949400476574
 31
0.0
  0
LINE
  5
44B0
  8
0
 62
     0
 10
8.7231743317737944
 20
-22.39794203130355
 30
0.0
 11
8.3998344963453064
 21
-22.074602195875041
 31
0.0
  0
LINE
  5
44B1
  8
0
 62
     0
 10
5.8906123223973932
 20
-19.92459026676989
 30
0.0
 11
5.6587246744038451
 21
-19.692702618776359
 31
0.0
  0
LINE
  5
44B2
  8
0
 62
     0
 10
8.7231743317737944
 20
-22.757152276146311
 30
0.0
 11
8.3998344963452976
 21
-22.433812440717809
 31
0.0
  0
LINE
  5
44B3
  8
0
 62
     0
 10
5.7632227277812831
 20
-20.15641091699656
 30
0.0
 11
5.5207122450513424
 21
-19.913900434266608
 31
0.0
  0
LINE
  5
44B4
  8
0
 62
     0
 10
8.7231743317738051
 20
-23.116362520989071
 30
0.0
 11
8.3998344963452922
 21
-22.793022685560562
 31
0.0
  0
LINE
  5
44B5
  8
0
 62
     0
 10
5.6780179241562223
 20
-20.430416358214249
 30
0.0
 11
5.4139410493238147
 21
-20.166339483381851
 31
0.0
  0
LINE
  5
44B6
  8
0
 62
     0
 10
8.7231743317737944
 20
-23.475572765831831
 30
0.0
 11
8.3998344963453064
 21
-23.152232930403329
 31
0.0
  0
LINE
  5
44B7
  8
0
 62
     0
 10
5.6530274487402252
 20
-20.76463612764104
 30
0.0
 11
5.3454872410841912
 21
-20.457095919985001
 31
0.0
  0
LINE
  5
44B8
  8
0
 62
     0
 10
8.7231743317737944
 20
-23.834783010674599
 30
0.0
 11
8.3998344963452976
 21
-23.511443175246121
 31
0.0
  0
LINE
  5
44B9
  8
0
 62
     0
 10
5.5947948332439603
 20
-21.065613756987531
 30
0.0
 11
5.331248046283072
 21
-20.80206697002664
 31
0.0
  0
LINE
  5
44BA
  8
0
 62
     0
 10
8.7231743317738051
 20
-24.19399325551738
 30
0.0
 11
8.3998344963452976
 21
-23.87065342008886
 31
0.0
  0
LINE
  5
44BB
  8
0
 62
     0
 10
8.7231743317737944
 20
-24.553203500360141
 30
0.0
 11
8.3998344963453064
 21
-24.229863664931649
 31
0.0
  0
LINE
  5
44BC
  8
0
 62
     0
 10
8.7231743317737944
 20
-24.912413745202912
 30
0.0
 11
8.3998344963452976
 21
-24.58907390977441
 31
0.0
  0
LINE
  5
44BD
  8
0
 62
     0
 10
8.7231743317738051
 20
-25.27162399004569
 30
0.0
 11
8.3998344963452976
 21
-24.94828415461717
 31
0.0
  0
LINE
  5
44BE
  8
0
 62
     0
 10
8.7231743317738051
 20
-25.630834234888429
 30
0.0
 11
8.3998344963453064
 21
-25.30749439945993
 31
0.0
  0
LINE
  5
44BF
  8
0
 62
     0
 10
8.7231743317738086
 20
-25.990044479731189
 30
0.0
 11
8.3998344963453118
 21
-25.666704644302701
 31
0.0
  0
LINE
  5
44C0
  8
0
 62
     0
 10
8.7231743317737926
 20
-26.34925472457396
 30
0.0
 11
8.3998344963452976
 21
-26.025914889145461
 31
0.0
  0
LINE
  5
44C1
  8
0
 62
     0
 10
8.7231743317738051
 20
-26.708464969416749
 30
0.0
 11
8.3998344963453064
 21
-26.38512513398824
 31
0.0
  0
LINE
  5
44C2
  8
0
 62
     0
 10
8.7231743317738086
 20
-27.067675214259509
 30
0.0
 11
8.3998344963453118
 21
-26.744335378831011
 31
0.0
  0
LINE
  5
44C3
  8
0
 62
     0
 10
8.7159298947131205
 20
-27.419641022041588
 30
0.0
 11
8.3998344963452976
 21
-27.10354562367376
 31
0.0
  0
LINE
  5
44C4
  8
0
 62
     0
 10
8.6597480896313286
 20
-27.72266946180256
 30
0.0
 11
8.3870524780551001
 21
-27.449973850226321
 31
0.0
  0
LINE
  5
44C5
  8
0
 62
     0
 10
8.5622572617253336
 20
-27.98438887873932
 30
0.0
 11
8.3153237888168974
 21
-27.737455405830879
 31
0.0
  0
LINE
  5
44C6
  8
0
 62
     0
 10
8.4321243081799775
 20
-28.21346617003675
 30
0.0
 11
8.1982138779480973
 21
-27.979555739804859
 31
0.0
  0
LINE
  5
44C7
  8
0
 62
     0
 10
8.2733954222662973
 20
-28.413947528965831
 30
0.0
 11
8.0445297685591868
 21
-28.185081875258732
 31
0.0
  0
LINE
  5
44C8
  8
0
 62
     0
 10
8.0875725741075541
 20
-28.587334925649841
 30
0.0
 11
7.8572300370930961
 21
-28.356992388635391
 31
0.0
  0
LINE
  5
44C9
  8
0
 62
     0
 10
7.874219936017262
 20
-28.733192532402331
 30
0.0
 11
7.6354722023712753
 21
-28.494444798756341
 31
0.0
  0
LINE
  5
44CA
  8
0
 62
     0
 10
5.6514698570630912
 20
-26.86965269829091
 30
0.0
 11
5.3967359059298632
 21
-26.614918747157692
 31
0.0
  0
LINE
  5
44CB
  8
0
 62
     0
 10
7.6307964035400611
 20
-28.848979244767879
 30
0.0
 11
7.3740776355567421
 21
-28.592260476784581
 31
0.0
  0
LINE
  5
44CC
  8
0
 62
     0
 10
5.6514698570630912
 20
-27.22886294313367
 30
0.0
 11
5.3281300133130891
 21
-26.905523099383679
 31
0.0
  0
LINE
  5
44CD
  8
0
 62
     0
 10
7.3515378208916644
 20
-28.92893090696225
 30
0.0
 11
7.0593595198280212
 21
-28.6367526058986
 31
0.0
  0
LINE
  5
44CE
  8
0
 62
     0
 10
5.7045213753548323
 20
-27.641124706268201
 30
0.0
 11
5.3281309156713821
 21
-27.264734246584752
 31
0.0
  0
LINE
  5
44CF
  8
0
 62
     0
 10
7.0239016873329021
 20
-28.96050501824627
 30
0.0
 11
6.647511227649459
 21
-28.584114558562831
 31
0.0
  0
LINE
  5
44D0
  8
0
 62
     0
 10
6.6140306292770701
 20
-28.909844205033199
 30
0.0
 11
5.3787917288844627
 21
-27.6746053046406
 31
0.0
  0
ENDBLK
  5
44D1
  8
0
  0
BLOCK
  8
0
  2
A$C669D558D
 70
     0
 10
0.0
 20
0.0
 30
0.0
  3
A$C669D558D
  1

  0
LINE
  5
44D3
  8
244
  6
HIDDEN2
 10
66.000000000001307
 20
-50.999999999998863
 30
0.0
 11
65.000000000001549
 21
-49.999999999999197
 31
0.0
1001
GRPNAME
1000
PASTMD07
  0
LINE
  5
44D4
  8
244
  6
HIDDEN2
 10
65.000000000001549
 20
-44.999999999998643
 30
0.0
 11
65.000000000001549
 21
-49.999999999999439
 31
0.0
1001
GRPNAME
1000
PASTMD07
  0
LINE
  5
44D5
  8
244
  6
HIDDEN2
 10
58.000000000000519
 20
-52.999999999999091
 30
0.0
 11
60.000000000000519
 21
-50.999999999999197
 31
0.0
1001
GRPNAME
1000
PASTMD07
  0
LINE
  5
44D6
  8
244
  6
HIDDEN2
 10
60.000000000000519
 20
-50.999999999999197
 30
0.0
 11
60.000000000000519
 21
-48.999999999999538
 31
0.0
1001
GRPNAME
1000
PASTMD07
  0
LINE
  5
44D7
  8
244
  6
HIDDEN2
 10
65.000000000001407
 20
-49.999999999999083
 30
0.0
 11
60.000000000000519
 21
-49.999999999999083
 31
0.0
1001
GRPNAME
1000
PASTMD07
  0
LINE
  5
44D8
  8
244
  6
HIDDEN2
 10
65.000000000001549
 20
-44.999999999998643
 30
0.0
 11
60.000000000001549
 21
-44.999999999998643
 31
0.0
1001
GRPNAME
1000
PASTMD07
  0
LINE
  5
44D9
  8
244
  6
HIDDEN2
 10
58.000000000000412
 20
-129.49999999999949
 30
0.0
 11
58.500000000000398
 21
-129.99999999999949
 31
0.0
1001
GRPNAME
1000
PASTMD01
  0
LINE
  5
44DA
  8
244
  6
HIDDEN2
 10
58.500000000000398
 20
-129.99999999999949
 30
0.0
 11
65.500000000000412
 21
-129.99999999999949
 31
0.0
1001
GRPNAME
1000
PASTMD01
  0
LINE
  5
44DB
  8
244
  6
HIDDEN2
 10
58.000000000000519
 20
-129.49999999999929
 30
0.0
 11
58.000000000000519
 21
-52.999999999999091
 31
0.0
1001
GRPNAME
1000
PASTMD07
  0
ARC
  5
44DC
  8
241
 10
-242.90000056882641
 20
-14.10000001874432
 30
0.0
 40
1.8999999999999999
210
0.0
220
0.0
230
-1.0
 50
227.46310164112509
 51
270.0
  0
LINE
  5
44DD
  8
241
  6
CONTINUOUS
 10
239.10000056882649
 20
-16.000000018744291
 30
0.0
 11
242.90000056882641
 21
-16.000000018744291
 31
0.0
  0
ARC
  5
44DE
  8
241
  6
CONTINUOUS
 10
-239.10000056882649
 20
-14.10000001874432
 30
0.0
 40
1.8999999999999999
210
0.0
220
0.0
230
-1.0
 50
270.0
 51
312.5368983588566
  0
LINE
  5
44DF
  8
242
 10
244.31662651562769
 20
-12.300000018875149
 30
0.0
 11
237.68337348437669
 21
-15.50000001883688
 31
0.0
  0
LINE
  5
44E0
  8
242
 10
237.68337348437669
 20
-12.300000018875149
 30
0.0
 11
244.31662651562769
 21
-15.50000001883644
 31
0.0
  0
LINE
  5
44E1
  8
241
 10
244.31662651562769
 20
-12.300000018875149
 30
0.0
 11
237.68337348437669
 21
-12.300000018875149
 31
0.0
  0
LINE
  5
44E2
  8
241
 10
244.31662651562769
 20
-15.50000001883644
 30
0.0
 11
244.31662651562769
 21
-12.300000018875149
 31
0.0
  0
LINE
  5
44E3
  8
241
 10
237.68337348437669
 20
-15.50000001883688
 30
0.0
 11
237.68337348437669
 21
-12.300000018875149
 31
0.0
  0
LINE
  5
44E4
  8
241
 10
257.9999999999867
 20
7.9999999811621958
 30
0.0
 11
260.9999999999863
 21
11.416407847055879
 31
0.0
  0
LINE
  5
44E5
  8
241
 10
257.99999999998852
 20
-8.0000000188383709
 30
0.0
 11
260.99999999998869
 21
-11.416407883980471
 31
0.0
  0
LINE
  5
44E6
  8
241
 10
257.99999999998681
 20
7.9999999811621958
 30
0.0
 11
257.99999999998909
 21
-8.0000000188382554
 31
0.0
  0
LINE
  5
44E7
  8
240
 10
260.9999999999863
 20
11.99999998116219
 30
0.0
 11
260.99999999998897
 21
-12.00000001883849
 31
0.0
  0
ARC
  5
44E8
  8
240
 10
246.5000000000025
 20
11.99999998116219
 30
0.0
 40
0.5
 50
0.0
 51
90.0
  0
LINE
  5
44E9
  8
243
 10
244.00000000000321
 20
-3.5000000188358111
 30
0.0
 11
244.0000000000027
 21
12.49999998116219
 31
0.0
  0
LINE
  5
44EA
  8
243
 10
238.00000000000171
 20
-3.5000000188376879
 30
0.0
 11
238.0000000000027
 21
12.49999998116219
 31
0.0
  0
ARC
  5
44EB
  8
240
 10
235.5000000000023
 20
11.99999998116219
 30
0.0
 40
0.5
 50
90.0
 51
180.0
  0
LINE
  5
44EC
  8
240
 10
235.5000000000023
 20
12.49999998116219
 30
0.0
 11
246.5000000000023
 21
12.49999998116219
 31
0.0
  0
ARC
  5
44ED
  8
240
 10
207.00000000000179
 20
14.99999998116242
 30
0.0
 40
3.0
 50
180.0
 51
270.0
  0
ARC
  5
44EE
  8
241
 10
207.00000000000281
 20
10.999999981162651
 30
0.0
 40
3.0
 50
180.00000000000659
 51
270.0
  0
LINE
  5
44EF
  8
240
 10
247.00000095367551
 20
-13.500000018824389
 30
0.0
 11
247.00000095368159
 21
-12.000000018835751
 31
0.0
  0
ARC
  5
44F0
  8
240
 10
245.0000009536773
 20
-13.50000001883644
 30
0.0
 40
2.0
 50
270.0
 51
0.0000000003452301
  0
LINE
  5
44F1
  8
240
 10
237.0000009536771
 20
-15.50000001883688
 30
0.0
 11
245.0000009536773
 21
-15.50000001883644
 31
0.0
  0
LINE
  5
44F2
  8
240
 10
235.00000095366099
 20
-13.500000018857801
 30
0.0
 11
235.00000095366121
 21
-12.0000000188369
 31
0.0
  0
ARC
  5
44F3
  8
240
 10
237.0000009536769
 20
-13.50000001883688
 30
0.0
 40
2.0
 50
179.99998240050681
 51
270.0
  0
ARC
  5
44F4
  8
240
 10
207.00000000000171
 20
-15.000000018835991
 30
0.0
 40
3.0
 50
89.999999999996746
 51
180.0
  0
ARC
  5
44F5
  8
241
 10
207.00000000000051
 20
-11.000000018835969
 30
0.0
 40
3.0
 50
89.999999999996746
 51
180.00000000000659
  0
LINE
  5
44F6
  8
245
  6
CENTER2
 10
241.0000000000029
 20
13.706040087902339
 30
0.0
 11
241.0000005941354
 21
-16.799481067553529
 31
0.0
  0
LINE
  5
44F7
  8
240
 10
260.9999999999863
 20
11.99999998116219
 30
0.0
 11
207.00000000000179
 21
11.99999998116242
 31
0.0
  0
LINE
  5
44F8
  8
240
 10
260.99999999998897
 20
-12.00000001883849
 30
0.0
 11
207.00000000000179
 21
-12.000000018835969
 31
0.0
  0
LINE
  5
44F9
  8
241
 10
257.99999999998681
 20
7.9999999811621958
 30
0.0
 11
207.00000000000281
 21
7.9999999811626488
 31
0.0
  0
LINE
  5
44FA
  8
241
 10
257.99999999998909
 20
-8.0000000188382554
 30
0.0
 11
207.0000000000008
 21
-8.0000000188359834
 31
0.0
  0
LINE
  5
44FB
  8
241
 10
196.00000000000489
 20
27.500000000094019
 30
0.0
 11
196.00000000000591
 21
-27.500000000093799
 31
0.0
  0
LINE
  5
44FC
  8
240
 10
204.00000000000489
 20
27.20000000009394
 30
0.0
 11
204.00000000000489
 21
14.99999998116242
 31
0.0
  0
LINE
  5
44FD
  8
240
 10
204.00000000000489
 20
-27.20000000009362
 30
0.0
 11
204.00000000000509
 21
-15.000000018835991
 31
0.0
  0
LINE
  5
44FE
  8
242
 10
196.00000000001131
 20
7.348463262336046
 30
0.0
 11
204.00000000000489
 21
-7.3484632635483029
 31
0.0
  0
LINE
  5
44FF
  8
242
 10
204.00000000000489
 20
7.348463262336046
 30
0.0
 11
196.00000000001131
 21
-7.3484632635481884
 31
0.0
  0
LINE
  5
4500
  8
242
 10
207.00000000000591
 20
11.99999998116242
 30
0.0
 11
207.00000000000611
 21
-12.000000018835969
 31
0.0
  0
LINE
  5
4501
  8
240
  6
CONTINUOUS
 10
203.70000000000491
 20
-27.500000000093689
 30
0.0
 11
196.00000000000489
 21
-27.500000000093799
 31
0.0
  0
LINE
  5
4502
  8
240
  6
CONTINUOUS
 10
203.70000000000491
 20
-27.500000000093689
 30
0.0
 11
204.00000000000489
 21
-27.20000000009362
 31
0.0
1001
GENIUS_GENFIL_13
1070
     0
1040
0.3
1040
0.3
1040
0.0
1040
0.0
1002
{
1002
}
1001
GENIUS_GENOBJ-N-CHA_13
1002
{
1000
OWNER
1000
GEN
1002
}
1001
GENIUS_GENODEF_13
1002
{
1000
HIER
1070
     0
1002
}
1002
{
1000
MANEDIT
1070
     0
1002
}
1002
{
1000
NOSEL
1070
     0
1002
}
1002
{
1000
BEHIND
1070
     0
1002
}
1002
{
1000
OTHER
1070
     0
1002
}
1002
{
1000
REACTOR
1002
}
  0
LINE
  5
4503
  8
241
 10
196.00000000001131
 20
-7.3484632635481884
 30
0.0
 11
204.00000000000489
 21
-7.3484632635483029
 31
0.0
  0
LINE
  5
4504
  8
241
 10
196.00000000001131
 20
7.348463262336046
 30
0.0
 11
204.00000000000489
 21
7.348463262336046
 31
0.0
  0
LINE
  5
4505
  8
240
  6
CONTINUOUS
 10
203.70000000000491
 20
27.500000000093902
 30
0.0
 11
196.00000000000489
 21
27.500000000094019
 31
0.0
  0
LINE
  5
4506
  8
240
  6
CONTINUOUS
 10
203.70000000000491
 20
27.500000000093902
 30
0.0
 11
204.00000000000489
 21
27.20000000009394
 31
0.0
1001
GENIUS_GENFIL_13
1070
     0
1040
0.3
1040
0.3
1040
0.0
1040
0.0
1002
{
1002
}
1001
GENIUS_GENOBJ-N-CHA_13
1002
{
1000
OWNER
1000
GEN
1002
}
1001
GENIUS_GENODEF_13
1002
{
1000
HIER
1070
     0
1002
}
1002
{
1000
MANEDIT
1070
     0
1002
}
1002
{
1000
NOSEL
1070
     0
1002
}
1002
{
1000
BEHIND
1070
     0
1002
}
1002
{
1000
OTHER
1070
     0
1002
}
1002
{
1000
REACTOR
1002
}
  0
LINE
  5
4507
  8
241
 10
154.00000000000409
 20
62.500000000000099
 30
0.0
 11
154.0000000000002
 21
-62.499999999999773
 31
0.0
  0
LINE
  5
4508
  8
240
 10
134.00000000000051
 20
62.500000000000099
 30
0.0
 11
154.00000000000409
 21
62.500000000000099
 31
0.0
  0
LINE
  5
4509
  8
240
 10
155.00000000000409
 20
61.500000000000107
 30
0.0
 11
155.0000000000019
 21
33.999999962250158
 31
0.0
  0
LINE
  5
450A
  8
240
 10
155.49999999999861
 20
38.999999999997151
 30
0.0
 11
155.99999999999861
 21
39.499999999997151
 31
0.0
  0
LINE
  5
450B
  8
240
 10
155.49999999999861
 20
38.999999999997151
 30
0.0
 11
155.49999999999861
 21
33.999999962250413
 31
0.0
  0
LINE
  5
450C
  8
240
 10
155.99999999999861
 20
39.499999999997151
 30
0.0
 11
193.99999999999699
 21
39.500000000000327
 31
0.0
1001
GRPNAME
1000
PASTMD3N
  0
LINE
  5
450D
  8
240
 10
193.99999999999699
 20
39.500000000000327
 30
0.0
 11
194.49999999999699
 21
39.000000000000341
 31
0.0
  0
LINE
  5
450E
  8
240
 10
194.49999999999699
 20
39.000000000000341
 30
0.0
 11
194.4999999999979
 21
33.999999962249042
 31
0.0
1001
GRPNAME
1000
PASTMD3N
  0
LINE
  5
450F
  8
240
 10
195.50000000000219
 20
33.999999962250413
 30
0.0
 11
196.00000000000219
 21
33.499999962250413
 31
0.0
1001
GENIUS_GENFIL_13
1070
     0
1040
0.5
1040
0.5
1040
2.0000000000000271
1040
44.999999999999673
1002
{
1002
}
1001
GENIUS_GENOBJ-N-CHA_13
1002
{
1000
OWNER
1000
GEN
1002
}
1001
GENIUS_GENODEF_13
1002
{
1000
HIER
1070
     0
1002
}
1002
{
1000
MANEDIT
1070
     0
1002
}
1002
{
1000
NOSEL
1070
     0
1002
}
1002
{
1000
BEHIND
1070
     0
1002
}
1002
{
1000
OTHER
1070
     0
1002
}
1002
{
1000
REACTOR
1002
}
  0
LINE
  5
4510
  8
241
 10
194.00000000000119
 20
23.118400135244311
 30
0.0
 11
196.0000000000021
 21
22.627416997939111
 31
0.0
  0
LINE
  5
4511
  8
241
 10
191.00000000000111
 20
27.946377224963719
 30
0.0
 11
194.00000000000119
 21
23.118400135244311
 31
0.0
  0
LINE
  5
4512
  8
240
 10
155.00000000000409
 20
61.500000000000107
 30
0.0
 11
154.00000000000409
 21
62.500000000000099
 31
0.0
  0
LINE
  5
4513
  8
241
 10
191.00000000000091
 20
27.946377224963719
 30
0.0
 11
191.00000000000091
 21
33.999999962250413
 31
0.0
  0
ARC
  5
4514
  8
241
 10
158.00000000000139
 20
30.94637722496406
 30
0.0
 40
3.0
 50
179.99999999999341
 51
270.0
  0
LINE
  5
4515
  8
240
 10
155.00000000000301
 20
33.999999962250158
 30
0.0
 11
155.49999999999861
 21
33.999999962250193
 31
0.0
  0
LINE
  5
4516
  8
241
 10
158.00000000000139
 20
27.94637722496406
 30
0.0
 11
191.00000000000111
 21
27.946377224963719
 31
0.0
  0
LINE
  5
4517
  8
240
 10
155.99999999999841
 20
-39.500000450453179
 30
0.0
 11
155.49999999999841
 21
-39.000000450453179
 31
0.0
1001
GENIUS_GENFIL_13
1070
     0
1040
0.5
1040
0.5
1040
0.4999999999999716
1040
44.99999999999919
1000
~T
  0
LINE
  5
4518
  8
240
 10
155.49999999999841
 20
-39.000000450453179
 30
0.0
 11
155.49999999999841
 21
-34.000000450453058
 31
0.0
  0
LINE
  5
4519
  8
240
 10
155.99999999999841
 20
-39.500000450453179
 30
0.0
 11
193.9999999999981
 21
-39.500000450453179
 31
0.0
  0
LINE
  5
451A
  8
240
 10
194.4999999999979
 20
-39.000000450453179
 30
0.0
 11
194.4999999999979
 21
-34.000000450453058
 31
0.0
  0
LINE
  5
451B
  8
240
 10
194.4999999999979
 20
-39.000000450453179
 30
0.0
 11
193.9999999999981
 21
-39.500000450453179
 31
0.0
1001
GENIUS_GENFIL_13
1070
     0
1040
0.5000000000000285
1040
0.4999999999999858
1040
0.5000000000000285
1040
45.000000000000803
1002
{
1002
}
  0
LINE
  5
451C
  8
240
 10
195.50000000000139
 20
-33.999999999891891
 30
0.0
 11
196.00000000000139
 21
-33.499999999891898
 31
0.0
1001
GENIUS_GENFIL_13
1070
     0
1040
0.5
1040
0.5
1040
2.0000000000000271
1040
44.999999999999673
1002
{
1002
}
1001
GENIUS_GENODEF_13
1002
{
1000
HIER
1070
     0
1002
}
1002
{
1000
MANEDIT
1070
     0
1002
}
1002
{
1000
NOSEL
1070
     0
1002
}
1002
{
1000
BEHIND
1070
     0
1002
}
1002
{
1000
OTHER
1070
     0
1002
}
1002
{
1000
REACTOR
1002
}
1001
GENIUS_GENOBJ-N-CHA_13
1002
{
1000
OWNER
1000
GEN
1002
}
  0
LINE
  5
451D
  8
241
 10
194.00000000000119
 20
-23.118400135130969
 30
0.0
 11
196.00000000000159
 21
-22.627416997682769
 31
0.0
  0
LINE
  5
451E
  8
241
 10
191.00000000000119
 20
-27.946377224964071
 30
0.0
 11
194.00000000000119
 21
-23.118400135130969
 31
0.0
  0
LINE
  5
451F
  8
242
 10
158.00000000000139
 20
33.999999962250158
 30
0.0
 11
158.00000000000139
 21
-33.999999999892118
 31
0.0
  0
LINE
  5
4520
  8
241
 10
194.00000000000119
 20
23.118400135244311
 30
0.0
 11
194.00000000000119
 21
-23.118400135130969
 31
0.0
  0
LINE
  5
4521
  8
241
 10
191.00000000000091
 20
-27.946377224964071
 30
0.0
 11
191.00000000000171
 21
-33.999999999891891
 31
0.0
  0
LINE
  5
4522
  8
240
 10
196.00000000000219
 20
33.499999962250413
 30
0.0
 11
196.00000000000219
 21
27.500000000094019
 31
0.0
  0
ARC
  5
4523
  8
241
 10
158.00000000000091
 20
-30.946377224963971
 30
0.0
 40
3.0
 50
90.0
 51
180.0
  0
LINE
  5
4524
  8
240
 10
154.9999999999977
 20
-33.999999999892118
 30
0.0
 11
195.50000000000139
 21
-33.999999999891891
 31
0.0
  0
LINE
  5
4525
  8
241
 10
158.00000000000091
 20
-27.946377224963971
 30
0.0
 11
191.00000000000111
 21
-27.946377224964071
 31
0.0
  0
LINE
  5
4526
  8
240
 10
154.0000000000002
 20
-62.499999999999773
 30
0.0
 11
155.0000000000002
 21
-61.499999999999787
 31
0.0
  0
LINE
  5
4527
  8
240
 10
134.00000000000051
 20
-62.499999999999773
 30
0.0
 11
154.0000000000002
 21
-62.499999999999773
 31
0.0
  0
LINE
  5
4528
  8
240
 10
155.0000000000002
 20
-61.499999999999787
 30
0.0
 11
155.0000000000008
 21
-33.999999999892118
 31
0.0
  0
POLYLINE
  5
4529
  8
241
 66
     1
 10
0.0
 20
0.0
 30
0.0
1001
GRPNAME
1000
PASTMD01
  0
VERTEX
  5
452A
  8
241
  6
CONTINUOUS
 10
130.29999999999939
 20
44.132527686502257
 30
0.0
  0
VERTEX
  5
452B
  8
241
  6
CONTINUOUS
 10
130.28632758035349
 20
43.920335515811978
 30
0.0
  0
VERTEX
  5
452C
  8
241
  6
CONTINUOUS
 10
130.24542361539079
 20
43.709901636275163
 30
0.0
  0
VERTEX
  5
452D
  8
241
  6
CONTINUOUS
 10
130.17762704824719
 20
43.502969769290956
 30
0.0
  0
VERTEX
  5
452E
  8
241
  6
CONTINUOUS
 10
130.08349966262949
 20
43.301254617480012
 30
0.0
  0
VERTEX
  5
452F
  8
241
  6
CONTINUOUS
 10
129.9638214276996
 20
43.106427656117589
 30
0.0
  0
VERTEX
  5
4530
  8
241
  6
CONTINUOUS
 10
129.81958403500289
 20
42.920103282763613
 30
0.0
  0
VERTEX
  5
4531
  8
241
  6
CONTINUOUS
 10
129.6519826810009
 20
42.743825439856302
 30
0.0
  0
VERTEX
  5
4532
  8
241
  6
CONTINUOUS
 10
129.46240616329681
 20
42.579054821118334
 30
0.0
  0
VERTEX
  5
4533
  8
241
  6
CONTINUOUS
 10
129.25242537262099
 20
42.427156767788901
 30
0.0
  0
VERTEX
  5
4534
  8
241
  6
CONTINUOUS
 10
129.02378027593571
 20
42.289389954976251
 30
0.0
  0
VERTEX
  5
4535
  8
241
  6
CONTINUOUS
 10
128.77836549852091
 20
42.166895961879149
 30
0.0
  0
VERTEX
  5
4536
  8
241
  6
CONTINUOUS
 10
128.5182146245123
 20
42.060689812302343
 30
0.0
  0
VERTEX
  5
4537
  8
241
  6
CONTINUOUS
 10
128.2454833459831
 20
41.97165156384937
 30
0.0
  0
VERTEX
  5
4538
  8
241
  6
CONTINUOUS
 10
127.9624316002004
 20
41.900519015488491
 30
0.0
  0
VERTEX
  5
4539
  8
241
  6
CONTINUOUS
 10
127.6714048430732
 20
41.847881593917442
 30
0.0
  0
VERTEX
  5
453A
  8
241
  6
CONTINUOUS
 10
127.37481461396609
 20
41.814175469389163
 30
0.0
  0
VERTEX
  5
453B
  8
241
  6
CONTINUOUS
 10
127.07511855292471
 20
41.799679941466557
 30
0.0
  0
VERTEX
  5
453C
  8
241
  6
CONTINUOUS
 10
126.77480003589611
 20
41.804515124659197
 30
0.0
  0
VERTEX
  5
453D
  8
241
  6
CONTINUOUS
 10
126.4763475966939
 20
41.828640953116512
 30
0.0
  0
VERTEX
  5
453E
  8
241
  6
CONTINUOUS
 10
126.18223430622299
 20
41.871857512625738
 30
0.0
  0
VERTEX
  5
453F
  8
241
  6
CONTINUOUS
 10
125.89489727983531
 20
41.933806697164151
 30
0.0
  0
VERTEX
  5
4540
  8
241
  6
CONTINUOUS
 10
125.61671748262459
 20
42.01397517627877
 30
0.0
  0
VERTEX
  5
4541
  8
241
  6
CONTINUOUS
 10
125.3499999999996
 20
42.111698648703367
 30
0.0
  0
VERTEX
  5
4542
  8
241
  6
CONTINUOUS
 10
125.0969549370206
 20
42.226167346969071
 30
0.0
  0
VERTEX
  5
4543
  8
241
  6
CONTINUOUS
 10
124.8596791047725
 20
42.356432747391167
 30
0.0
  0
VERTEX
  5
4544
  8
241
  6
CONTINUOUS
 10
124.6401386455284
 20
42.501415429836896
 30
0.0
  0
VERTEX
  5
4545
  8
241
  6
CONTINUOUS
 10
124.440152740675
 20
42.65991402213875
 30
0.0
  0
VERTEX
  5
4546
  8
241
  6
CONTINUOUS
 10
124.2613785364029
 20
42.830615155043901
 30
0.0
  0
VERTEX
  5
4547
  8
241
  6
CONTINUOUS
 10
124.1052974120711
 20
43.012104345205209
 30
0.0
  0
VERTEX
  5
4548
  8
241
  6
CONTINUOUS
 10
123.9732027050316
 20
43.202877716035118
 30
0.0
  0
VERTEX
  5
4549
  8
241
  6
CONTINUOUS
 10
123.8661889936285
 20
43.40135445930138
 30
0.0
  0
VERTEX
  5
454A
  8
241
  6
CONTINUOUS
 10
123.7851430271772
 20
43.605889934201741
 30
0.0
  0
VERTEX
  5
454B
  8
241
  6
CONTINUOUS
 10
123.7307363780797
 20
43.814789295375341
 30
0.0
  0
VERTEX
  5
454C
  8
241
  6
CONTINUOUS
 10
123.7034198769654
 20
44.026321536925352
 30
0.0
  0
VERTEX
  5
454D
  8
241
  6
CONTINUOUS
 10
123.7034198769654
 20
44.238733836079049
 30
0.0
  0
VERTEX
  5
454E
  8
241
  6
CONTINUOUS
 10
123.7307363780797
 20
44.45026607762906
 30
0.0
  0
VERTEX
  5
454F
  8
241
  6
CONTINUOUS
 10
123.7851430271772
 20
44.659165438802667
 30
0.0
  0
VERTEX
  5
4550
  8
241
  6
CONTINUOUS
 10
123.8661889936285
 20
44.863700913703028
 30
0.0
  0
VERTEX
  5
4551
  8
241
  6
CONTINUOUS
 10
123.9732027050316
 20
45.062177656969297
 30
0.0
  0
VERTEX
  5
4552
  8
241
  6
CONTINUOUS
 10
124.1052974120711
 20
45.252951027799199
 30
0.0
  0
VERTEX
  5
4553
  8
241
  6
CONTINUOUS
 10
124.2613785364029
 20
45.434440217960372
 30
0.0
  0
VERTEX
  5
4554
  8
241
  6
CONTINUOUS
 10
124.440152740675
 20
45.605141350865637
 30
0.0
  0
VERTEX
  5
4555
  8
241
  6
CONTINUOUS
 10
124.6401386455284
 20
45.763639943167611
 30
0.0
  0
VERTEX
  5
4556
  8
241
  6
CONTINUOUS
 10
124.8596791047725
 20
45.90862262561312
 30
0.0
  0
VERTEX
  5
4557
  8
241
  6
CONTINUOUS
 10
125.0969549370206
 20
46.038888026035437
 30
0.0
  0
VERTEX
  5
4558
  8
241
  6
CONTINUOUS
 10
125.3499999999996
 20
46.15335672430102
 30
0.0
  0
VERTEX
  5
4559
  8
241
  6
CONTINUOUS
 10
125.61671748262459
 20
46.251080196725738
 30
0.0
  0
VERTEX
  5
455A
  8
241
  6
CONTINUOUS
 10
125.89489727983531
 20
46.331248675840229
 30
0.0
  0
VERTEX
  5
455B
  8
241
  6
CONTINUOUS
 10
126.18223430622299
 20
46.39319786037867
 30
0.0
  0
VERTEX
  5
455C
  8
241
  6
CONTINUOUS
 10
126.4763475966939
 20
46.436414419887768
 30
0.0
  0
VERTEX
  5
455D
  8
241
  6
CONTINUOUS
 10
126.77480003589611
 20
46.460540248345062
 30
0.0
  0
VERTEX
  5
455E
  8
241
  6
CONTINUOUS
 10
127.07511855292471
 20
46.465375431537801
 30
0.0
  0
VERTEX
  5
455F
  8
241
  6
CONTINUOUS
 10
127.37481461396609
 20
46.45087990361526
 30
0.0
  0
VERTEX
  5
4560
  8
241
  6
CONTINUOUS
 10
127.6714048430732
 20
46.417173779086824
 30
0.0
  0
VERTEX
  5
4561
  8
241
  6
CONTINUOUS
 10
127.9624316002004
 20
46.364536357516009
 30
0.0
  0
VERTEX
  5
4562
  8
241
  6
CONTINUOUS
 10
128.2454833459831
 20
46.293403809155038
 30
0.0
  0
VERTEX
  5
4563
  8
241
  6
CONTINUOUS
 10
128.5182146245123
 20
46.204365560702158
 30
0.0
  0
VERTEX
  5
4564
  8
241
  6
CONTINUOUS
 10
128.77836549852091
 20
46.098159411125252
 30
0.0
  0
VERTEX
  5
4565
  8
241
  6
CONTINUOUS
 10
129.02378027593571
 20
45.975665418028242
 30
0.0
  0
VERTEX
  5
4566
  8
241
  6
CONTINUOUS
 10
129.25242537262099
 20
45.837898605215493
 30
0.0
  0
VERTEX
  5
4567
  8
241
  6
CONTINUOUS
 10
129.46240616329681
 20
45.686000551886067
 30
0.0
  0
VERTEX
  5
4568
  8
241
  6
CONTINUOUS
 10
129.6519826810009
 20
45.521229933148092
 30
0.0
  0
VERTEX
  5
4569
  8
241
  6
CONTINUOUS
 10
129.81958403500289
 20
45.34495209024076
 30
0.0
  0
VERTEX
  5
456A
  8
241
  6
CONTINUOUS
 10
129.9638214276996
 20
45.158627716886897
 30
0.0
  0
VERTEX
  5
456B
  8
241
  6
CONTINUOUS
 10
130.08349966262949
 20
44.963800755524382
 30
0.0
  0
VERTEX
  5
456C
  8
241
  6
CONTINUOUS
 10
130.17762704824719
 20
44.762085603713317
 30
0.0
  0
VERTEX
  5
456D
  8
241
  6
CONTINUOUS
 10
130.24542361539079
 20
44.555153736729373
 30
0.0
  0
VERTEX
  5
456E
  8
241
  6
CONTINUOUS
 10
130.28632758035349
 20
44.344719857192537
 30
0.0
  0
VERTEX
  5
456F
  8
241
  6
CONTINUOUS
 10
130.29999999999939
 20
44.132527686502257
 30
0.0
  0
SEQEND
  5
4570
  8
241
  6
CONTINUOUS
  0
LINE
  5
4571
  8
241
 10
104.2500000000003
 20
62.500000000000327
 30
0.0
 11
104.2500000000003
 21
56.000000000000327
 31
0.0
  0
LINE
  5
4572
  8
241
 10
101.5000000000003
 20
57.443375672974398
 30
0.0
 11
99.000000000000327
 21
58.886751345948483
 31
0.0
  0
LINE
  5
4573
  8
241
 10
101.5000000000003
 20
57.443375672974398
 30
0.0
 11
101.5000000000003
 21
54.556624327026249
 31
0.0
  0
LINE
  5
4574
  8
241
 10
99.000000000000185
 20
53.113248654052178
 30
0.0
 11
101.5000000000003
 21
54.556624327026249
 31
0.0
  0
LINE
  5
4575
  8
240
  6
CONTINUOUS
 10
108.00000000000151
 20
62.499999999999858
 30
0.0
 11
120.0000000000005
 21
62.499999999999858
 31
0.0
1001
GRPNAME
1000
PASTMD01
  0
LINE
  5
4576
  8
240
  6
CONTINUOUS
 10
134.00000000000051
 20
62.499999999999858
 30
0.0
 11
120.0000000000005
 21
62.499999999999858
 31
0.0
1001
GRPNAME
1000
PASTMD01
  0
LINE
  5
4577
  8
241
 10
108.0000000000018
 20
-4.0000000000000027
 30
0.0
 11
106.20000000000179
 21
-4.0000000000000027
 31
0.0
1001
GRPNAME
1000
PASTMD01
  0
LINE
  5
4578
  8
241
 10
106.20000000000179
 20
-4.0000000000000027
 30
0.0
 11
106.20000000000159
 21
50.249999999999659
 31
0.0
1001
GRPNAME
1000
PASTMD01
  0
LINE
  5
4579
  8
241
 10
108.0000000000018
 20
-4.0000000000000027
 30
0.0
 11
108.00000000000161
 21
50.249999999999623
 31
0.0
1001
GRPNAME
1000
PASTMD01
  0
LINE
  5
457A
  8
241
 10
120.0000000000005
 20
62.499999999999858
 30
0.0
 11
120.0000000000006
 21
-62.5
 31
0.0
1001
GRPNAME
1000
PASTMD01
  0
LINE
  5
457B
  8
241
 10
134.00000000000051
 20
62.499999999999858
 30
0.0
 11
134.0
 21
-62.5
 31
0.0
1001
GRPNAME
1000
PASTMD01
  0
LINE
  5
457C
  8
245
 10
265.92539327350721
 20
0.0000000000003339
 30
0.0
 11
155.0000000000002
 21
0.0000000000003339
 31
0.0
1001
GRPNAME
1000
00000002
  0
LINE
  5
457D
  8
241
 10
93.750000000000256
 20
62.500000000000327
 30
0.0
 11
93.750000000000256
 21
56.000000000000327
 31
0.0
  0
LINE
  5
457E
  8
241
 10
96.500000000000185
 20
57.443375672974398
 30
0.0
 11
96.500000000000185
 21
54.556624327026249
 31
0.0
  0
LINE
  5
457F
  8
241
 10
86.750000000000298
 20
62.500000000000327
 30
0.0
 11
86.750000000000298
 21
56.000000000000327
 31
0.0
  0
LINE
  5
4580
  8
241
 10
84.000000000000327
 20
57.443375672974398
 30
0.0
 11
84.000000000000327
 21
54.556624327026249
 31
0.0
  0
LINE
  5
4581
  8
240
  6
CONTINUOUS
 10
75.000000000000298
 20
62.499999999999858
 30
0.0
 11
74.000000000000298
 21
61.499999999999872
 31
0.0
1001
GRPNAME
1000
PASTMD01
  0
LINE
  5
4582
  8
241
 10
76.250000000000298
 20
62.500000000000327
 30
0.0
 11
76.250000000000298
 21
56.000000000000327
 31
0.0
  0
LINE
  5
4583
  8
241
 10
81.500000000000185
 20
53.113248654052178
 30
0.0
 11
79.000000000000298
 21
54.556624327026249
 31
0.0
  0
LINE
  5
4584
  8
241
 10
79.000000000000298
 20
57.443375672974398
 30
0.0
 11
79.000000000000298
 21
54.556624327026249
 31
0.0
  0
LINE
  5
4585
  8
241
 10
79.000000000000298
 20
57.443375672974398
 30
0.0
 11
81.500000000000284
 21
58.886751345948483
 31
0.0
  0
LINE
  5
4586
  8
240
  6
CONTINUOUS
 10
64.999999999999844
 20
43.500000000000661
 30
0.0
 11
65.499999999999858
 21
44.000000000000661
 31
0.0
1001
GRPNAME
1000
PASTMD07
  0
LINE
  5
4587
  8
240
  6
CONTINUOUS
 10
71.500000000001322
 20
44.000000000000661
 30
0.0
 11
65.499999999999858
 21
44.000000000000661
 31
0.0
1001
GRPNAME
1000
PASTMD07
  0
ARC
  5
4588
  8
240
  6
CONTINUOUS
 10
71.500000000001322
 20
45.000000000000661
 30
0.0
 40
1.0
 50
269.99999999228288
 51
359.99999999228118
1001
GRPNAME
1000
PASTMD07
  0
LINE
  5
4589
  8
240
  6
CONTINUOUS
 10
72.500000000001307
 20
49.750000000000917
 30
0.0
 11
72.500000000001307
 21
45.000000000000661
 31
0.0
1001
GRPNAME
1000
PASTMD07
  0
LINE
  5
458A
  8
240
  6
CONTINUOUS
 10
72.500000000001307
 20
49.750000000000917
 30
0.0
 11
73.000000000001307
 21
50.250000000000902
 31
0.0
1001
GRPNAME
1000
PASTMD07
  0
LINE
  5
458B
  8
240
  6
CONTINUOUS
 10
73.000000000001307
 20
50.250000000000902
 30
0.0
 11
74.000000000001322
 21
50.250000000000902
 31
0.0
1001
GRPNAME
1000
PASTMD07
  0
CIRCLE
  5
458C
  8
241
 10
81.500000000000284
 20
56.000000000000327
 30
0.0
 40
5.0
  0
ARC
  5
458D
  8
241
 10
81.500000000000284
 20
56.000000000000327
 30
0.0
 40
5.25
 50
179.99999999485411
 51
359.99999999485402
  0
LINE
  5
458E
  8
241
 10
84.000000000000327
 20
57.443375672974398
 30
0.0
 11
81.500000000000284
 21
58.886751345948483
 31
0.0
  0
LINE
  5
458F
  8
241
 10
81.500000000000185
 20
53.113248654052178
 30
0.0
 11
84.000000000000327
 21
54.556624327026249
 31
0.0
  0
LINE
  5
4590
  8
240
 10
48.000000000000753
 20
43.999999999945757
 30
0.0
 11
64.499999999999829
 21
44.000000000002011
 31
0.0
1001
GRPNAME
1000
PASTMD07
  0
LINE
  5
4591
  8
240
 10
64.999999999999844
 20
42.500000000000547
 30
0.0
 11
64.499999999999829
 21
42.500000000000547
 31
0.0
1001
GRPNAME
1000
PASTMD07
  0
LINE
  5
4592
  8
240
 10
74.000000000000298
 20
61.499999999999872
 30
0.0
 11
74.000000000000298
 21
50.250000000000902
 31
0.0
1001
GRPNAME
1000
PASTMD01
  0
LINE
  5
4593
  8
240
 10
64.499999999999829
 20
44.000000000002011
 30
0.0
 11
64.499999999999829
 21
42.500000000000547
 31
0.0
1001
GRPNAME
1000
PASTMD07
  0
LINE
  5
4594
  8
240
 10
64.999999999999844
 20
43.500000000000661
 30
0.0
 11
64.999999999999844
 21
42.500000000000547
 31
0.0
1001
GRPNAME
1000
PASTMD07
  0
LINE
  5
4595
  8
241
 10
72.500000000001307
 20
45.000000000000661
 30
0.0
 11
72.500000000001307
 21
-44.999999999999197
 31
0.0
1001
GRPNAME
1000
PASTMD07
  0
LINE
  5
4596
  8
240
 10
75.000000000000298
 20
62.499999999999858
 30
0.0
 11
106.20000000000159
 21
62.499999999999858
 31
0.0
1001
GRPNAME
1000
PASTMD01
  0
ARC
  5
4597
  8
241
 10
99.000000000000327
 20
56.000000000000327
 30
0.0
 40
5.25
 50
179.99999999485411
 51
359.99999999485402
  0
CIRCLE
  5
4598
  8
241
 10
99.000000000000327
 20
56.000000000000327
 30
0.0
 40
5.0
  0
LINE
  5
4599
  8
241
 10
99.000000000000185
 20
53.113248654052178
 30
0.0
 11
96.500000000000185
 21
54.556624327026249
 31
0.0
  0
LINE
  5
459A
  8
241
 10
96.500000000000185
 20
57.443375672974398
 30
0.0
 11
99.000000000000327
 21
58.886751345948483
 31
0.0
  0
LINE
  5
459B
  8
240
 10
106.20000000000159
 20
50.249999999999623
 30
0.0
 11
108.00000000000161
 21
50.249999999999623
 31
0.0
1001
GRPNAME
1000
PASTMD01
  0
LINE
  5
459C
  8
245
 10
-50.000000000000007
 20
-0.0000000000000071
 30
0.0
 11
155.0000000000002
 21
-0.0000000000000071
 31
0.0
1001
GRPNAME
1000
PASTMD01
  0
POLYLINE
  5
459D
  8
241
 66
     1
 10
0.0
 20
0.0
 30
0.0
1001
GRPNAME
1000
PASTMD01
  0
VERTEX
  5
459E
  8
241
  6
CONTINUOUS
 10
130.29999999999939
 20
-44.132527686502009
 30
0.0
  0
VERTEX
  5
459F
  8
241
  6
CONTINUOUS
 10
130.28632758035349
 20
-43.92033551581175
 30
0.0
  0
VERTEX
  5
45A0
  8
241
  6
CONTINUOUS
 10
130.24542361539079
 20
-43.709901636274921
 30
0.0
  0
VERTEX
  5
45A1
  8
241
  6
CONTINUOUS
 10
130.17762704824719
 20
-43.502969769290992
 30
0.0
  0
VERTEX
  5
45A2
  8
241
  6
CONTINUOUS
 10
130.08349966262949
 20
-43.301254617480041
 30
0.0
  0
VERTEX
  5
45A3
  8
241
  6
CONTINUOUS
 10
129.9638214276996
 20
-43.106427656117368
 30
0.0
  0
VERTEX
  5
45A4
  8
241
  6
CONTINUOUS
 10
129.81958403500289
 20
-42.92010328276352
 30
0.0
  0
VERTEX
  5
45A5
  8
241
  6
CONTINUOUS
 10
129.6519826810009
 20
-42.743825439856202
 30
0.0
  0
VERTEX
  5
45A6
  8
241
  6
CONTINUOUS
 10
129.46240616329681
 20
-42.579054821118227
 30
0.0
  0
VERTEX
  5
45A7
  8
241
  6
CONTINUOUS
 10
129.25242537262099
 20
-42.427156767788802
 30
0.0
  0
VERTEX
  5
45A8
  8
241
  6
CONTINUOUS
 10
129.02378027593571
 20
-42.289389954976059
 30
0.0
  0
VERTEX
  5
45A9
  8
241
  6
CONTINUOUS
 10
128.77836549852091
 20
-42.166895961879042
 30
0.0
  0
VERTEX
  5
45AA
  8
241
  6
CONTINUOUS
 10
128.5182146245123
 20
-42.060689812302151
 30
0.0
  0
VERTEX
  5
45AB
  8
241
  6
CONTINUOUS
 10
128.2454833459831
 20
-41.971651563849257
 30
0.0
  0
VERTEX
  5
45AC
  8
241
  6
CONTINUOUS
 10
127.9624316002004
 20
-41.900519015488257
 30
0.0
  0
VERTEX
  5
45AD
  8
241
  6
CONTINUOUS
 10
127.6714048430732
 20
-41.847881593917457
 30
0.0
  0
VERTEX
  5
45AE
  8
241
  6
CONTINUOUS
 10
127.37481461396609
 20
-41.814175469389063
 30
0.0
  0
VERTEX
  5
45AF
  8
241
  6
CONTINUOUS
 10
127.07511855292471
 20
-41.799679941466479
 30
0.0
  0
VERTEX
  5
45B0
  8
241
  6
CONTINUOUS
 10
126.77480003589611
 20
-41.804515124659247
 30
0.0
  0
VERTEX
  5
45B1
  8
241
  6
CONTINUOUS
 10
126.4763475966939
 20
-41.828640953116533
 30
0.0
  0
VERTEX
  5
45B2
  8
241
  6
CONTINUOUS
 10
126.18223430622299
 20
-41.871857512625652
 30
0.0
  0
VERTEX
  5
45B3
  8
241
  6
CONTINUOUS
 10
125.89489727983531
 20
-41.933806697164073
 30
0.0
  0
VERTEX
  5
45B4
  8
241
  6
CONTINUOUS
 10
125.61671748262459
 20
-42.013975176278556
 30
0.0
  0
VERTEX
  5
45B5
  8
241
  6
CONTINUOUS
 10
125.3499999999996
 20
-42.111698648703289
 30
0.0
  0
VERTEX
  5
45B6
  8
241
  6
CONTINUOUS
 10
125.0969549370206
 20
-42.226167346968843
 30
0.0
  0
VERTEX
  5
45B7
  8
241
  6
CONTINUOUS
 10
124.8596791047725
 20
-42.356432747391189
 30
0.0
  0
VERTEX
  5
45B8
  8
241
  6
CONTINUOUS
 10
124.6401386455284
 20
-42.501415429836698
 30
0.0
  0
VERTEX
  5
45B9
  8
241
  6
CONTINUOUS
 10
124.440152740675
 20
-42.659914022138622
 30
0.0
  0
VERTEX
  5
45BA
  8
241
  6
CONTINUOUS
 10
124.2613785364029
 20
-42.830615155043922
 30
0.0
  0
VERTEX
  5
45BB
  8
241
  6
CONTINUOUS
 10
124.1052974120711
 20
-43.012104345204982
 30
0.0
  0
VERTEX
  5
45BC
  8
241
  6
CONTINUOUS
 10
123.9732027050316
 20
-43.202877716035012
 30
0.0
  0
VERTEX
  5
45BD
  8
241
  6
CONTINUOUS
 10
123.8661889936285
 20
-43.40135445930126
 30
0.0
  0
VERTEX
  5
45BE
  8
241
  6
CONTINUOUS
 10
123.7851430271772
 20
-43.605889934201613
 30
0.0
  0
VERTEX
  5
45BF
  8
241
  6
CONTINUOUS
 10
123.7307363780797
 20
-43.814789295375228
 30
0.0
  0
VERTEX
  5
45C0
  8
241
  6
CONTINUOUS
 10
123.7034198769654
 20
-44.026321536925252
 30
0.0
  0
VERTEX
  5
45C1
  8
241
  6
CONTINUOUS
 10
123.7034198769654
 20
-44.238733836078957
 30
0.0
  0
VERTEX
  5
45C2
  8
241
  6
CONTINUOUS
 10
123.7307363780797
 20
-44.450266077628939
 30
0.0
  0
VERTEX
  5
45C3
  8
241
  6
CONTINUOUS
 10
123.7851430271772
 20
-44.659165438802582
 30
0.0
  0
VERTEX
  5
45C4
  8
241
  6
CONTINUOUS
 10
123.8661889936285
 20
-44.863700913702928
 30
0.0
  0
VERTEX
  5
45C5
  8
241
  6
CONTINUOUS
 10
123.9732027050316
 20
-45.062177656969197
 30
0.0
  0
VERTEX
  5
45C6
  8
241
  6
CONTINUOUS
 10
124.1052974120711
 20
-45.252951027799099
 30
0.0
  0
VERTEX
  5
45C7
  8
241
  6
CONTINUOUS
 10
124.2613785364029
 20
-45.4344402179604
 30
0.0
  0
VERTEX
  5
45C8
  8
241
  6
CONTINUOUS
 10
124.440152740675
 20
-45.605141350865537
 30
0.0
  0
VERTEX
  5
45C9
  8
241
  6
CONTINUOUS
 10
124.6401386455284
 20
-45.763639943167391
 30
0.0
  0
VERTEX
  5
45CA
  8
241
  6
CONTINUOUS
 10
124.8596791047725
 20
-45.90862262561312
 30
0.0
  0
VERTEX
  5
45CB
  8
241
  6
CONTINUOUS
 10
125.0969549370206
 20
-46.038888026035217
 30
0.0
  0
VERTEX
  5
45CC
  8
241
  6
CONTINUOUS
 10
125.3499999999996
 20
-46.15335672430092
 30
0.0
  0
VERTEX
  5
45CD
  8
241
  6
CONTINUOUS
 10
125.61671748262459
 20
-46.251080196725511
 30
0.0
  0
VERTEX
  5
45CE
  8
241
  6
CONTINUOUS
 10
125.89489727983531
 20
-46.331248675840129
 30
0.0
  0
VERTEX
  5
45CF
  8
241
  6
CONTINUOUS
 10
126.18223430622299
 20
-46.39319786037855
 30
0.0
  0
VERTEX
  5
45D0
  8
241
  6
CONTINUOUS
 10
126.4763475966939
 20
-46.436414419887811
 30
0.0
  0
VERTEX
  5
45D1
  8
241
  6
CONTINUOUS
 10
126.77480003589611
 20
-46.460540248345083
 30
0.0
  0
VERTEX
  5
45D2
  8
241
  6
CONTINUOUS
 10
127.07511855292471
 20
-46.465375431537723
 30
0.0
  0
VERTEX
  5
45D3
  8
241
  6
CONTINUOUS
 10
127.37481461396609
 20
-46.450879903615117
 30
0.0
  0
VERTEX
  5
45D4
  8
241
  6
CONTINUOUS
 10
127.6714048430732
 20
-46.417173779086859
 30
0.0
  0
VERTEX
  5
45D5
  8
241
  6
CONTINUOUS
 10
127.9624316002004
 20
-46.364536357515831
 30
0.0
  0
VERTEX
  5
45D6
  8
241
  6
CONTINUOUS
 10
128.2454833459831
 20
-46.293403809154931
 30
0.0
  0
VERTEX
  5
45D7
  8
241
  6
CONTINUOUS
 10
128.5182146245123
 20
-46.204365560701937
 30
0.0
  0
VERTEX
  5
45D8
  8
241
  6
CONTINUOUS
 10
128.77836549852091
 20
-46.098159411125152
 30
0.0
  0
VERTEX
  5
45D9
  8
241
  6
CONTINUOUS
 10
129.02378027593571
 20
-45.975665418028022
 30
0.0
  0
VERTEX
  5
45DA
  8
241
  6
CONTINUOUS
 10
129.25242537262099
 20
-45.8378986052154
 30
0.0
  0
VERTEX
  5
45DB
  8
241
  6
CONTINUOUS
 10
129.46240616329681
 20
-45.686000551885961
 30
0.0
  0
VERTEX
  5
45DC
  8
241
  6
CONTINUOUS
 10
129.6519826810009
 20
-45.521229933147993
 30
0.0
  0
VERTEX
  5
45DD
  8
241
  6
CONTINUOUS
 10
129.81958403500289
 20
-45.344952090240668
 30
0.0
  0
VERTEX
  5
45DE
  8
241
  6
CONTINUOUS
 10
129.9638214276996
 20
-45.15862771688672
 30
0.0
  0
VERTEX
  5
45DF
  8
241
  6
CONTINUOUS
 10
130.08349966262949
 20
-44.963800755524311
 30
0.0
  0
VERTEX
  5
45E0
  8
241
  6
CONTINUOUS
 10
130.17762704824719
 20
-44.762085603713331
 30
0.0
  0
VERTEX
  5
45E1
  8
241
  6
CONTINUOUS
 10
130.24542361539079
 20
-44.555153736729132
 30
0.0
  0
VERTEX
  5
45E2
  8
241
  6
CONTINUOUS
 10
130.28632758035349
 20
-44.344719857192288
 30
0.0
  0
VERTEX
  5
45E3
  8
241
  6
CONTINUOUS
 10
130.29999999999939
 20
-44.132527686502009
 30
0.0
  0
SEQEND
  5
45E4
  8
241
  6
CONTINUOUS
  0
LINE
  5
45E5
  8
240
  6
CONTINUOUS
 10
120.0000000000006
 20
-62.499999999999083
 30
0.0
 11
119.5000000000002
 21
-62.499999999999083
 31
0.0
1001
GRPNAME
1000
PASTMD01
  0
LINE
  5
45E6
  8
240
  6
CONTINUOUS
 10
134.0000000000002
 20
-62.5
 30
0.0
 11
120.0000000000004
 21
-62.5
 31
0.0
1001
GRPNAME
1000
PASTMD01
  0
LINE
  5
45E7
  8
240
  6
CONTINUOUS
 10
142.49999999999969
 20
-88.999999999999773
 30
0.0
 11
142.99999999999969
 21
-89.499999999999773
 31
0.0
1001
GRPNAME
1000
PASTMD01
  0
LINE
  5
45E8
  8
240
  6
CONTINUOUS
 10
142.99999999999969
 20
-89.499999999999773
 30
0.0
 11
142.99999999999969
 21
-109.9999999999997
 31
0.0
1001
GRPNAME
1000
PASTMD01
  0
LINE
  5
45E9
  8
240
  6
CONTINUOUS
 10
142.49999999999969
 20
-88.999999999999773
 30
0.0
 11
119.5000000000001
 21
-88.999999999999659
 31
0.0
1001
GRPNAME
1000
PASTMD01
  0
LINE
  5
45EA
  8
240
  6
CONTINUOUS
 10
119.5000000000002
 20
-62.499999999999083
 30
0.0
 11
119.5000000000001
 21
-88.999999999999659
 31
0.0
1001
GRPNAME
1000
PASTMD01
  0
LINE
  5
45EB
  8
240
  6
CONTINUOUS
 10
142.99999999999969
 20
-130.4999999999996
 30
0.0
 11
142.49999999999969
 21
-130.9999999999996
 31
0.0
1001
GRPNAME
1000
PASTMD01
  0
LINE
  5
45EC
  8
241
 10
135.99999999999969
 20
-130.9999999999996
 30
0.0
 11
135.99999999999969
 21
-88.999999999999773
 31
0.0
1001
GRPNAME
1000
PASTMD01
  0
LINE
  5
45ED
  8
240
  6
CONTINUOUS
 10
142.99999999999969
 20
-130.4999999999996
 30
0.0
 11
142.99999999999969
 21
-109.9999999999997
 31
0.0
1001
GRPNAME
1000
PASTMD01
  0
LINE
  5
45EE
  8
240
  6
CONTINUOUS
 10
64.999999999999716
 20
-43.49999999999919
 30
0.0
 11
65.499999999999702
 21
-43.999999999999197
 31
0.0
1001
GRPNAME
1000
PASTMD07
  0
LINE
  5
45EF
  8
240
  6
CONTINUOUS
 10
71.50000000000118
 20
-43.999999999999197
 30
0.0
 11
65.499999999999702
 21
-43.999999999999197
 31
0.0
1001
GRPNAME
1000
PASTMD07
  0
ARC
  5
45F0
  8
240
  6
CONTINUOUS
 10
71.50000000000118
 20
-44.999999999999197
 30
0.0
 40
1.0
 50
359.99999998713531
 51
89.999999987138551
1001
GRPNAME
1000
PASTMD07
  0
LINE
  5
45F1
  8
240
  6
CONTINUOUS
 10
71.000000000001549
 20
-44.999999999998643
 30
0.0
 11
66.000000000001549
 21
-44.999999999998643
 31
0.0
1001
GRPNAME
1000
PASTMD07
  0
LINE
  5
45F2
  8
241
 10
66.000000000426496
 20
-50.0
 30
0.0
 11
71.000000000001549
 21
-50.0
 31
0.0
1001
GRPNAME
1000
PASTMD07
  0
LINE
  5
45F3
  8
240
  6
CONTINUOUS
 10
72.50000000000118
 20
-49.749999999999439
 30
0.0
 11
73.000000000001194
 21
-50.249999999999439
 31
0.0
1001
GRPNAME
1000
PASTMD07
  0
LINE
  5
45F4
  8
240
  6
CONTINUOUS
 10
72.000000000001336
 20
-50.999999999998863
 30
0.0
 11
71.000000000001549
 21
-49.999999999999197
 31
0.0
1001
GRPNAME
1000
PASTMD07
  0
LINE
  5
45F5
  8
240
  6
CONTINUOUS
 10
73.000000000001194
 20
-50.249999999999439
 30
0.0
 11
74.000000000001208
 21
-50.249999999999439
 31
0.0
1001
GRPNAME
1000
PASTMD07
  0
LINE
  5
45F6
  8
240
  6
CONTINUOUS
 10
72.50000000000118
 20
-49.749999999999439
 30
0.0
 11
72.50000000000118
 21
-44.999999999999197
 31
0.0
1001
GRPNAME
1000
PASTMD07
  0
LINE
  5
45F7
  8
240
  6
CONTINUOUS
 10
71.000000000001549
 20
-44.999999999998643
 30
0.0
 11
71.000000000001549
 21
-49.999999999999439
 31
0.0
1001
GRPNAME
1000
PASTMD07
  0
LINE
  5
45F8
  8
240
  6
CONTINUOUS
 10
66.000000000001549
 20
-44.999999999998643
 30
0.0
 11
66.000000000001549
 21
-50.999999999999091
 31
0.0
1001
GRPNAME
1000
PASTMD07
  0
LINE
  5
45F9
  8
240
  6
CONTINUOUS
 10
72.000000000000412
 20
-61.999999999999439
 30
0.0
 11
74.000000000000625
 21
-61.999999999999439
 31
0.0
1001
GRPNAME
1000
PASTMD01
  0
LINE
  5
45FA
  8
240
  6
CONTINUOUS
 10
72.000000000000412
 20
-79.999999999999318
 30
0.0
 11
74.000000000000625
 21
-79.999999999999318
 31
0.0
1001
GRPNAME
1000
PASTMD01
  0
LINE
  5
45FB
  8
240
  6
CONTINUOUS
 10
72.000000000000412
 20
-71.999999999999432
 30
0.0
 11
74.000000000000625
 21
-71.999999999999432
 31
0.0
1001
GRPNAME
1000
PASTMD01
  0
LINE
  5
45FC
  8
240
 10
64.000000000001108
 20
-44.499999999999197
 30
0.0
 11
64.49999999999973
 21
-44.000000000000547
 31
0.0
1001
GRPNAME
1000
PASTMD07
  0
LINE
  5
45FD
  8
243
  6
HIDDEN2
 10
61.393670461135173
 20
-44.000000000000007
 30
0.0
 11
60.000000000000412
 21
-44.000000000000007
 31
0.0
1001
GRPNAME
1000
PASTMD01
  0
LINE
  5
45FE
  8
243
  6
HIDDEN2
 10
64.000000000000412
 20
-44.000000000000007
 30
0.0
 11
62.854950102237517
 21
-44.000000000000007
 31
0.0
1001
GRPNAME
1000
PASTMD01
  0
LINE
  5
45FF
  8
243
  6
HIDDEN2
 10
60.000000000000412
 20
-44.000000000000007
 30
0.0
 11
60.000000000000412
 21
-45.600604266487487
 31
0.0
1001
GRPNAME
1000
PASTMD01
  0
LINE
  5
4600
  8
243
  6
HIDDEN2
 10
61.393670461135287
 20
-43.999999999999773
 30
0.0
 11
60.000000000000519
 21
-43.999999999999773
 31
0.0
1001
GRPNAME
1000
PASTMD07
  0
LINE
  5
4601
  8
243
  6
HIDDEN2
 10
64.000000000000526
 20
-43.999999999999773
 30
0.0
 11
62.854950102237638
 21
-43.999999999999773
 31
0.0
1001
GRPNAME
1000
PASTMD07
  0
LINE
  5
4602
  8
243
  6
HIDDEN2
 10
60.000000000000519
 20
-43.999999999999773
 30
0.0
 11
60.000000000000519
 21
-45.600604266487267
 31
0.0
1001
GRPNAME
1000
PASTMD07
  0
LINE
  5
4603
  8
243
  6
HIDDEN2
 10
61.393670461135287
 20
-43.999999999999773
 30
0.0
 11
60.000000000000519
 21
-43.999999999999773
 31
0.0
1001
GRPNAME
1000
PASTMD07
  0
LINE
  5
4604
  8
243
  6
HIDDEN2
 10
64.000000000000526
 20
-43.999999999999773
 30
0.0
 11
62.854950102237638
 21
-43.999999999999773
 31
0.0
1001
GRPNAME
1000
PASTMD07
  0
LINE
  5
4605
  8
243
  6
HIDDEN2
 10
60.000000000000519
 20
-43.999999999999773
 30
0.0
 11
60.000000000000519
 21
-45.600604266487267
 31
0.0
1001
GRPNAME
1000
PASTMD07
  0
LINE
  5
4606
  8
243
  6
HIDDEN2
 10
60.000000000000519
 20
-43.999999999999773
 30
0.0
 11
60.000000000000519
 21
-45.600604266487267
 31
0.0
1001
GRPNAME
1000
PASTMD07
  0
LINE
  5
4607
  8
243
  6
HIDDEN2
 10
64.000000000000526
 20
-43.999999999999773
 30
0.0
 11
62.854950102237638
 21
-43.999999999999773
 31
0.0
1001
GRPNAME
1000
PASTMD07
  0
LINE
  5
4608
  8
243
  6
HIDDEN2
 10
61.393670461135287
 20
-43.999999999999773
 30
0.0
 11
60.000000000000519
 21
-43.999999999999773
 31
0.0
1001
GRPNAME
1000
PASTMD07
  0
LINE
  5
4609
  8
240
  6
CONTINUOUS
 10
64.000000000000412
 20
-48.499999999999773
 30
0.0
 11
63.500000000000398
 21
-48.999999999999787
 31
0.0
1001
GRPNAME
1000
PASTMD01
  0
LINE
  5
460A
  8
240
  6
CONTINUOUS
 10
64.000000000000526
 20
-48.499999999999559
 30
0.0
 11
63.500000000000519
 21
-48.999999999999538
 31
0.0
1001
GRPNAME
1000
PASTMD07
  0
LINE
  5
460B
  8
240
  6
CONTINUOUS
 10
64.00000000000118
 20
-48.499999999999559
 30
0.0
 11
63.500000000001187
 21
-48.999999999999538
 31
0.0
1001
GRPNAME
1000
PASTMD07
  0
LINE
  5
460C
  8
240
  6
CONTINUOUS
 10
64.00000000000118
 20
-48.499999999999559
 30
0.0
 11
63.500000000001187
 21
-48.999999999999538
 31
0.0
1001
GRPNAME
1000
PASTMD07
  0
LINE
  5
460D
  8
243
  6
HIDDEN2
 10
60.000000000000412
 20
-47.215643787957333
 30
0.0
 11
60.000000000000412
 21
-48.999999999999787
 31
0.0
1001
GRPNAME
1000
PASTMD01
  0
LINE
  5
460E
  8
243
  6
HIDDEN2
 10
60.000000000000519
 20
-47.215643787957113
 30
0.0
 11
60.000000000000519
 21
-48.999999999999538
 31
0.0
1001
GRPNAME
1000
PASTMD07
  0
LINE
  5
460F
  8
243
  6
HIDDEN2
 10
60.000000000000519
 20
-47.215643787957113
 30
0.0
 11
60.000000000000519
 21
-48.999999999999538
 31
0.0
1001
GRPNAME
1000
PASTMD07
  0
LINE
  5
4610
  8
243
  6
HIDDEN2
 10
60.000000000000519
 20
-47.215643787957113
 30
0.0
 11
60.000000000000519
 21
-48.999999999999538
 31
0.0
1001
GRPNAME
1000
PASTMD07
  0
LINE
  5
4611
  8
240
  6
CONTINUOUS
 10
63.500000000000398
 20
-48.999999999999787
 30
0.0
 11
48.000000000000519
 21
-48.999999999999787
 31
0.0
1001
GRPNAME
1000
PASTMD01
  0
LINE
  5
4612
  8
240
  6
CONTINUOUS
 10
63.500000000000519
 20
-48.999999999999538
 30
0.0
 11
48.000000000000611
 21
-48.999999999999538
 31
0.0
1001
GRPNAME
1000
PASTMD07
  0
LINE
  5
4613
  8
240
  6
CONTINUOUS
 10
58.000000000000412
 20
-61.999999999999439
 30
0.0
 11
64.000000000000412
 21
-61.999999999999439
 31
0.0
1001
GRPNAME
1000
PASTMD01
  0
LINE
  5
4614
  8
240
  6
CONTINUOUS
 10
58.000000000000412
 20
-71.999999999999432
 30
0.0
 11
64.000000000000412
 21
-71.999999999999432
 31
0.0
1001
GRPNAME
1000
PASTMD01
  0
LINE
  5
4615
  8
240
  6
CONTINUOUS
 10
58.000000000000412
 20
-61.999999999999439
 30
0.0
 11
58.000000000000412
 21
-71.999999999999432
 31
0.0
1001
GRPNAME
1000
PASTMD01
  0
LINE
  5
4616
  8
240
  6
CONTINUOUS
 10
64.000000000000526
 20
-52.999999999999091
 30
0.0
 11
66.000000000000526
 21
-50.999999999999197
 31
0.0
1001
GRPNAME
1000
PASTMD07
  0
LINE
  5
4617
  8
240
  6
CONTINUOUS
 10
64.000000000000526
 20
-52.999999999999091
 30
0.0
 11
66.000000000000526
 21
-50.999999999999197
 31
0.0
1001
GRPNAME
1000
PASTMD07
  0
LINE
  5
4618
  8
240
  6
CONTINUOUS
 10
64.000000000443919
 20
-52.999999999555719
 30
0.0
 11
66.000000000443919
 21
-50.999999999555953
 31
0.0
1001
GRPNAME
1000
PASTMD07
  0
LINE
  5
4619
  8
241
  6
CONTINUOUS
 10
64.999999999999716
 20
-42.499999999999119
 30
0.0
 11
64.49999999999973
 21
-42.499999999999119
 31
0.0
1001
GRPNAME
1000
PASTMD07
  0
LINE
  5
461A
  8
240
  6
CONTINUOUS
 10
72.000000000000412
 20
-89.999999999999432
 30
0.0
 11
74.000000000000625
 21
-89.999999999999432
 31
0.0
1001
GRPNAME
1000
PASTMD01
  0
LINE
  5
461B
  8
240
  6
CONTINUOUS
 10
74.000000000000625
 20
-97.499999999999545
 30
0.0
 11
72.000000000000412
 21
-97.499999999999545
 31
0.0
1001
GRPNAME
1000
PASTMD01
  0
LINE
  5
461C
  8
240
  6
CONTINUOUS
 10
71.500000000000412
 20
-129.99999999999949
 30
0.0
 11
72.000000000000412
 21
-129.49999999999949
 31
0.0
1001
GRPNAME
1000
PASTMD01
  0
LINE
  5
461D
  8
240
  6
CONTINUOUS
 10
74.000000000000625
 20
-122.4999999999995
 30
0.0
 11
72.000000000000412
 21
-122.4999999999995
 31
0.0
1001
GRPNAME
1000
PASTMD01
  0
LINE
  5
461E
  8
240
  6
CONTINUOUS
 10
31.000000000000519
 20
-90.999999999999545
 30
0.0
 11
64.000000000000412
 21
-90.999999999999545
 31
0.0
1001
GRPNAME
1000
PASTMD01
  0
LINE
  5
461F
  8
240
  6
CONTINUOUS
 10
64.000000000000412
 20
-129.49999999999949
 30
0.0
 11
64.500000000000412
 21
-129.99999999999949
 31
0.0
1001
GRPNAME
1000
PASTMD01
  0
LINE
  5
4620
  8
240
  6
CONTINUOUS
 10
31.000000000000519
 20
-128.99999999999949
 30
0.0
 11
64.000000000000412
 21
-128.99999999999949
 31
0.0
1001
GRPNAME
1000
PASTMD01
  0
LINE
  5
4621
  8
240
  6
CONTINUOUS
 10
64.500000000000412
 20
-129.99999999999949
 30
0.0
 11
71.500000000000412
 21
-129.99999999999949
 31
0.0
1001
GRPNAME
1000
PASTMD01
  0
LINE
  5
4622
  8
240
  6
CONTINUOUS
 10
64.000000000000526
 20
-129.49999999999929
 30
0.0
 11
64.000000000000526
 21
-128.99999999999949
 31
0.0
1001
GRPNAME
1000
PASTMD07
  0
LINE
  5
4623
  8
240
  6
CONTINUOUS
 10
64.000000000443919
 20
-52.999999999555719
 30
0.0
 11
64.000000000443919
 21
-61.999999999999439
 31
0.0
1001
GRPNAME
1000
PASTMD07
  0
LINE
  5
4624
  8
240
  6
CONTINUOUS
 10
72.000000000001336
 20
-50.999999999998863
 30
0.0
 11
72.000000000001336
 21
-61.999999999999453
 31
0.0
1001
GRPNAME
1000
PASTMD07
  0
LINE
  5
4625
  8
240
  6
CONTINUOUS
 10
74.000000000000625
 20
-129.99999999999949
 30
0.0
 11
75.000000000000625
 21
-130.99999999999949
 31
0.0
1001
GRPNAME
1000
PASTMD01
  0
CIRCLE
  5
4626
  8
241
 10
97.000000000001521
 20
-53.749999999999531
 30
0.0
 40
5.0
1001
GRPNAME
1000
PASTMD01
  0
LINE
  5
4627
  8
240
  6
CONTINUOUS
 10
75.000000000000625
 20
-130.99999999999949
 30
0.0
 11
142.49999999999969
 21
-130.9999999999996
 31
0.0
1001
GRPNAME
1000
PASTMD01
  0
LINE
  5
4628
  8
245
 10
1.0512487026672459
 20
-109.9999999999995
 30
0.0
 11
148.00913724173759
 21
-109.9999999999997
 31
0.0
1001
GRPNAME
1000
PASTMD01
  0
LINE
  5
4629
  8
240
  6
CONTINUOUS
 10
74.000000000000625
 20
-129.99999999999949
 30
0.0
 11
74.000000000000625
 21
-122.4999999999995
 31
0.0
1001
GRPNAME
1000
PASTMD01
  0
LINE
  5
462A
  8
240
  6
CONTINUOUS
 10
64.000000000000526
 20
-48.499999999999559
 30
0.0
 11
64.00000000000054
 21
-44.499999999999773
 31
0.0
1001
GRPNAME
1000
PASTMD07
  0
LINE
  5
462B
  8
240
 10
64.49999999999973
 20
-44.000000000000547
 30
0.0
 11
64.49999999999973
 21
-42.499999999999119
 31
0.0
1001
GRPNAME
1000
PASTMD07
  0
LINE
  5
462C
  8
240
 10
64.999999999999716
 20
-43.49999999999919
 30
0.0
 11
64.99999999999973
 21
-42.499999999999119
 31
0.0
1001
GRPNAME
1000
PASTMD07
  0
LINE
  5
462D
  8
241
 10
64.000000000443919
 20
-61.999999999999439
 30
0.0
 11
64.000000000443919
 21
-71.999999999999432
 31
0.0
1001
GRPNAME
1000
PASTMD07
  0
LINE
  5
462E
  8
240
  6
CONTINUOUS
 10
64.000000000443919
 20
-71.999999999999432
 30
0.0
 11
64.000000000443919
 21
-90.999999999999545
 31
0.0
1001
GRPNAME
1000
PASTMD07
  0
LINE
  5
462F
  8
241
 10
64.000000000443919
 20
-90.999999999999545
 30
0.0
 11
64.000000000000526
 21
-128.99999999999949
 31
0.0
1001
GRPNAME
1000
PASTMD07
  0
LINE
  5
4630
  8
240
  6
CONTINUOUS
 10
72.000000000001336
 20
-122.4999999999995
 30
0.0
 11
72.000000000001336
 21
-129.49999999999861
 31
0.0
1001
GRPNAME
1000
PASTMD07
  0
LINE
  5
4631
  8
241
 10
72.000000000001336
 20
-97.499999999999545
 30
0.0
 11
72.000000000001336
 21
-122.4999999999995
 31
0.0
1001
GRPNAME
1000
PASTMD07
  0
LINE
  5
4632
  8
240
 10
72.000000000001336
 20
-89.999999999999432
 30
0.0
 11
72.000000000001336
 21
-97.499999999999545
 31
0.0
1001
GRPNAME
1000
PASTMD07
  0
LINE
  5
4633
  8
241
 10
72.000000000001336
 20
-79.999999999999318
 30
0.0
 11
72.000000000001336
 21
-89.999999999999432
 31
0.0
1001
GRPNAME
1000
PASTMD07
  0
LINE
  5
4634
  8
240
 10
72.000000000001336
 20
-71.999999999999432
 30
0.0
 11
72.000000000001336
 21
-79.999999999999318
 31
0.0
1001
GRPNAME
1000
PASTMD07
  0
LINE
  5
4635
  8
241
 10
72.000000000001336
 20
-61.999999999999453
 30
0.0
 11
72.000000000001336
 21
-71.999999999999432
 31
0.0
1001
GRPNAME
1000
PASTMD07
  0
LINE
  5
4636
  8
240
  6
CONTINUOUS
 10
74.000000000000625
 20
-61.999999999999439
 30
0.0
 11
74.000000000000625
 21
-50.249999999999453
 31
0.0
1001
GRPNAME
1000
PASTMD01
  0
LINE
  5
4637
  8
241
 10
74.000000000000625
 20
-71.999999999999432
 30
0.0
 11
74.000000000000625
 21
-61.999999999999439
 31
0.0
1001
GRPNAME
1000
PASTMD01
  0
LINE
  5
4638
  8
240
 10
74.000000000000625
 20
-79.999999999999346
 30
0.0
 11
74.000000000000625
 21
-71.999999999999432
 31
0.0
1001
GRPNAME
1000
PASTMD01
  0
LINE
  5
4639
  8
241
 10
74.000000000000625
 20
-89.999999999999432
 30
0.0
 11
74.000000000000625
 21
-79.999999999999346
 31
0.0
1001
GRPNAME
1000
PASTMD01
  0
LINE
  5
463A
  8
240
 10
74.000000000000625
 20
-97.499999999999545
 30
0.0
 11
74.000000000000625
 21
-89.999999999999432
 31
0.0
1001
GRPNAME
1000
PASTMD01
  0
LINE
  5
463B
  8
241
 10
74.000000000000625
 20
-122.4999999999995
 30
0.0
 11
74.000000000000625
 21
-97.499999999999545
 31
0.0
1001
GRPNAME
1000
PASTMD01
  0
LINE
  5
463C
  8
241
 10
64.499999999999829
 20
42.500000000000547
 30
0.0
 11
64.499999999999829
 21
-42.499999999999119
 31
0.0
1001
GRPNAME
1000
PASTMD07
  0
LINE
  5
463D
  8
241
 10
64.00000000000054
 20
-44.499999999999773
 30
0.0
 11
64.000000000000739
 21
44.000000000000327
 31
0.0
1001
GRPNAME
1000
PASTMD07
  0
LINE
  5
463E
  8
241
  6
CONTINUOUS
 10
64.99999999999973
 20
-42.499999999999119
 30
0.0
 11
64.999999999999716
 21
42.500000000000547
 31
0.0
1001
GRPNAME
1000
PASTMD07
  0
LINE
  5
463F
  8
240
 10
106.20000000000159
 20
50.249999999999659
 30
0.0
 11
106.20000000000159
 21
62.499999999999858
 31
0.0
1001
GRPNAME
1000
PASTMD01
  0
LINE
  5
4640
  8
240
 10
108.00000000000161
 20
50.249999999999623
 30
0.0
 11
108.00000000000151
 21
62.499999999999858
 31
0.0
1001
GRPNAME
1000
PASTMD01
  0
LINE
  5
4641
  8
241
 10
74.000000000000298
 20
50.250000000000902
 30
0.0
 11
74.000000000000298
 21
-50.249999999999439
 31
0.0
1001
GRPNAME
1000
PASTMD01
  0
LINE
  5
4642
  8
241
 10
204.00000000000489
 20
14.99999998116242
 30
0.0
 11
204.00000000000489
 21
-0.0000000006824692
 31
0.0
  0
LINE
  5
4643
  8
241
 10
204.00000000000509
 20
-15.000000018835991
 30
0.0
 11
204.00000000000489
 21
-0.0000000006824692
 31
0.0
  0
LINE
  5
4644
  8
241
 10
196.00000000000219
 20
27.500000000094019
 30
0.0
 11
196.00000000000159
 21
-27.500000000093799
 31
0.0
  0
LINE
  5
4645
  8
240
 10
196.00000000000159
 20
-27.500000000093799
 30
0.0
 11
196.00000000000139
 21
-33.499999999891898
 31
0.0
  0
LINE
  5
4646
  8
241
 10
155.0000000000008
 20
-33.999999999892118
 30
0.0
 11
155.00000000000199
 21
33.999999962250151
 31
0.0
  0
LINE
  5
4647
  8
241
 10
155.49999999999861
 20
33.999999962250193
 30
0.0
 11
194.4999999999979
 21
33.999999962250413
 31
0.0
  0
LINE
  5
4648
  8
240
 10
194.4999999999979
 20
33.999999962250413
 30
0.0
 11
195.50000000000219
 21
33.999999962250413
 31
0.0
  0
LINE
  5
4649
  8
244
  6
HIDDEN2
 10
-29.99999999999962
 20
-54.999999999999773
 30
0.0
 11
-29.99999999999962
 21
-140.5649281289098
 31
0.0
1001
GRPNAME
1000
PASTMD01
  0
LINE
  5
464A
  8
244
  6
HIDDEN2
 10
30.000000000000401
 20
-88.999999999999545
 30
0.0
 11
-29.99999999999962
 21
-88.999999999999474
 31
0.0
1001
GRPNAME
1000
PASTMD01
  0
LINE
  5
464B
  8
244
  6
HIDDEN2
 10
30.000000000000401
 20
-130.99999999999929
 30
0.0
 11
-29.99999999999962
 21
-130.99999999999929
 31
0.0
1001
GRPNAME
1000
PASTMD01
  0
LINE
  5
464C
  8
244
  6
HIDDEN2
 10
3.0000000000004068
 20
-121.3550952893724
 30
0.0
 11
3.0000000000004068
 21
-98.644904710626591
 31
0.0
1001
GRPNAME
1000
PASTMD01
  0
LINE
  5
464D
  8
244
  6
HIDDEN2
 10
25.000000000000401
 20
-90.999999999999545
 30
0.0
 11
25.000000000000352
 21
-128.99999999999929
 31
0.0
1001
GRPNAME
1000
PASTMD01
  0
LINE
  5
464E
  8
244
  6
HIDDEN2
 10
18.000000000000181
 20
-95.99999999999946
 30
0.0
 11
18.000000000000181
 21
-123.9999999999994
 31
0.0
1001
GRPNAME
1000
PASTMD01
  0
LINE
  5
464F
  8
244
  6
HIDDEN2
 10
3.0000000000004068
 20
-121.3550952893724
 30
0.0
 11
18.000000000000181
 21
-123.9999999999994
 31
0.0
1001
GRPNAME
1000
PASTMD01
  0
LINE
  5
4650
  8
244
  6
HIDDEN2
 10
18.000000000000181
 20
-123.9999999999994
 30
0.0
 11
21.000000000000181
 21
-123.9999999999994
 31
0.0
1001
GRPNAME
1000
PASTMD01
  0
LINE
  5
4651
  8
244
  6
HIDDEN2
 10
31.000000000000391
 20
-128.99999999999929
 30
0.0
 11
31.000000000000391
 21
-129.99999999999929
 31
0.0
1001
GRPNAME
1000
PASTMD01
  0
LINE
  5
4652
  8
244
  6
HIDDEN2
 10
31.000000000000391
 20
-129.99999999999929
 30
0.0
 11
30.000000000000401
 21
-130.99999999999929
 31
0.0
1001
GRPNAME
1000
PASTMD01
  0
LINE
  5
4653
  8
244
  6
HIDDEN2
 10
25.000000000000352
 20
-128.99999999999929
 30
0.0
 11
31.000000000000391
 21
-128.99999999999929
 31
0.0
1001
GRPNAME
1000
PASTMD01
  0
LINE
  5
4654
  8
244
  6
HIDDEN2
 10
3.0000000000004068
 20
-98.644904710626591
 30
0.0
 11
18.000000000000181
 21
-95.99999999999946
 31
0.0
1001
GRPNAME
1000
PASTMD01
  0
LINE
  5
4655
  8
244
  6
HIDDEN2
 10
31.000000000000391
 20
-89.999999999999545
 30
0.0
 11
30.000000000000401
 21
-88.999999999999545
 31
0.0
1001
GRPNAME
1000
PASTMD01
  0
LINE
  5
4656
  8
244
  6
HIDDEN2
 10
18.000000000000181
 20
-95.99999999999946
 30
0.0
 11
21.000000000000181
 21
-95.99999999999946
 31
0.0
1001
GRPNAME
1000
PASTMD01
  0
LINE
  5
4657
  8
244
  6
HIDDEN2
 10
25.000000000000401
 20
-90.999999999999545
 30
0.0
 11
31.000000000000391
 21
-90.999999999999545
 31
0.0
1001
GRPNAME
1000
PASTMD01
  0
LINE
  5
4658
  8
240
  6
CONTINUOUS
 10
48.000000000000611
 20
48.500000000000611
 30
0.0
 11
48.000000000000611
 21
44.00000000000027
 31
0.0
1001
GRPNAME
1000
PASTMD01
  0
LINE
  5
4659
  8
240
  6
CONTINUOUS
 10
31.000000000000519
 20
-95.99999999999946
 30
0.0
 11
31.000000000000519
 21
-90.999999999999545
 31
0.0
1001
GRPNAME
1000
PASTMD01
  0
LINE
  5
465A
  8
240
  6
CONTINUOUS
 10
21.000000000000291
 20
-95.99999999999946
 30
0.0
 11
31.000000000000519
 21
-95.99999999999946
 31
0.0
1001
GRPNAME
1000
PASTMD01
  0
LINE
  5
465B
  8
240
  6
CONTINUOUS
 10
6.0000000000005196
 20
-121.3550952893724
 30
0.0
 11
6.0000000000005196
 21
-98.644904710626633
 31
0.0
1001
GRPNAME
1000
PASTMD01
  0
LINE
  5
465C
  8
240
  6
CONTINUOUS
 10
6.0000000000005196
 20
-98.644904710626633
 30
0.0
 11
21.000000000000291
 21
-95.99999999999946
 31
0.0
1001
GRPNAME
1000
PASTMD01
  0
LINE
  5
465D
  8
240
  6
CONTINUOUS
 10
31.000000000000519
 20
-128.99999999999929
 30
0.0
 11
31.000000000000519
 21
-123.9999999999994
 31
0.0
1001
GRPNAME
1000
PASTMD01
  0
LINE
  5
465E
  8
240
  6
CONTINUOUS
 10
21.000000000000291
 20
-123.9999999999994
 30
0.0
 11
31.000000000000519
 21
-123.9999999999994
 31
0.0
1001
GRPNAME
1000
PASTMD01
  0
LINE
  5
465F
  8
240
  6
CONTINUOUS
 10
6.0000000000005196
 20
-121.3550952893724
 30
0.0
 11
21.000000000000291
 21
-123.9999999999994
 31
0.0
1001
GRPNAME
1000
PASTMD01
  0
LINE
  5
4660
  8
241
  6
CONTINUOUS
 10
21.000000000000291
 20
-95.99999999999946
 30
0.0
 11
21.000000000000291
 21
-123.9999999999994
 31
0.0
1001
GRPNAME
1000
PASTMD01
  0
LINE
  5
4661
  8
241
  6
CONTINUOUS
 10
31.000000000000519
 20
-95.99999999999946
 30
0.0
 11
31.000000000000519
 21
-123.9999999999994
 31
0.0
1001
GRPNAME
1000
PASTMD01
  0
LINE
  5
4662
  8
241
  6
CONTINUOUS
 10
48.000000000000611
 20
44.00000000000027
 30
0.0
 11
47.999999999999893
 21
-48.499999999999382
 31
0.0
1001
GRPNAME
1000
PASTMD01
  0
LINE
  5
4663
  8
247
 10
6.618049105061595
 20
-35.904822089183099
 30
0.0
 11
6.618049105061595
 21
-29.341064764964369
 31
0.0
  0
LINE
  5
4664
  8
247
 10
6.9413889404900964
 20
-35.904822089183099
 30
0.0
 11
6.9413889404900964
 21
-29.341064764964369
 31
0.0
  0
LINE
  5
4665
  8
247
 10
6.4563791831866224
 20
-35.224503598190608
 30
0.0
 11
6.040492083056856
 21
-34.808616498060928
 31
0.0
  0
LINE
  5
4666
  8
247
 10
6.4563791831866224
 20
-35.735156561839297
 30
0.0
 11
6.4563791831866224
 21
-34.393359686839297
 31
0.0
  0
LINE
  5
4667
  8
247
 10
6.2667185386553346
 20
-30.40839874933932
 30
0.0
 11
6.4563791831866224
 21
-30.218725897776729
 31
0.0
  0
LINE
  5
4668
  8
247
 10
6.4563791831866224
 20
-33.414221503245599
 30
0.0
 11
6.4563791831866224
 21
-32.691028143870547
 31
0.0
  0
LINE
  5
4669
  8
247
 10
6.395773788506939
 20
-34.086267468982683
 30
0.0
 11
5.9551336172297713
 21
-33.64562729770558
 31
0.0
  0
ARC
  5
466A
  8
247
 10
4.3223578056231222
 20
-34.383227850901797
 30
0.0
 40
0.4849962234497072
 50
351.6626016879294
 51
156.33815509518979
  0
LINE
  5
466B
  8
247
 10
3.5463446220293888
 20
-35.068909003245388
 30
0.0
 11
3.546344622029503
 21
-34.025829667581789
 31
0.0
  0
LINE
  5
466C
  8
247
 10
3.8781357518150599
 20
-34.188579183629152
 30
0.0
 11
4.8022283854421719
 21
-34.453552550578493
 31
0.0
  0
LINE
  5
466D
  8
247
 10
4.6542192912885501
 20
-35.21839493050642
 30
0.0
 11
3.546344622029503
 21
-34.110520261247324
 31
0.0
  0
LINE
  5
466E
  8
247
 10
5.5121411057927032
 20
-34.280265520796782
 30
0.0
 11
4.4518961181325194
 21
-33.220020533136569
 31
0.0
  0
LINE
  5
466F
  8
247
 10
5.2783205674230471
 20
-34.405655227269797
 30
0.0
 11
4.1212558126500003
 21
-33.248590472496872
 31
0.0
  0
LINE
  5
4670
  8
247
 10
5.157840865920102
 20
-35.362806260295201
 30
0.0
 11
4.0260171479971891
 21
-34.23098254237221
 31
0.0
  0
LINE
  5
4671
  8
247
 10
3.5463446220293888
 20
-35.237085272776781
 30
0.0
 11
3.869684465779395
 21
-35.329797675120531
 31
0.0
  0
LINE
  5
4672
  8
247
 10
3.5463446220293888
 20
-35.068909003245388
 30
0.0
 11
3.869684465779395
 21
-35.161621405589607
 31
0.0
  0
LINE
  5
4673
  8
247
 10
3.8696844657794229
 20
-35.152280594682921
 30
0.0
 11
3.5463446220294181
 21
-34.82894075093283
 31
0.0
  0
LINE
  5
4674
  8
247
 10
4.1505977166569981
 20
-35.073983600717618
 30
0.0
 11
3.546344622029475
 21
-34.469730506090073
 31
0.0
  0
LINE
  5
4675
  8
247
 10
3.5463446220293888
 20
-35.904822089183099
 30
0.0
 11
3.5463446220293888
 21
-35.237085272776781
 31
0.0
  0
LINE
  5
4676
  8
247
 10
3.869684465779395
 20
-35.904822089183099
 30
0.0
 11
3.869684465779395
 21
-35.329797675120531
 31
0.0
  0
LINE
  5
4677
  8
247
 10
3.869684465779395
 20
-35.161621405589607
 30
0.0
 11
3.8696844657803329
 21
-34.993432929027229
 31
0.0
  0
ARC
  5
4678
  8
247
 10
4.3546820243731279
 20
-34.022497870433099
 30
0.0
 40
0.8083442687988282
 50
17.669577547397999
 51
180.2361598426682
  0
LINE
  5
4679
  8
247
 10
3.9150195094160081
 20
-34.119984903791078
 30
0.0
 11
3.5815501978060609
 21
-33.786515592181111
 31
0.0
  0
LINE
  5
467A
  8
247
 10
3.9020086845293722
 20
-32.799499823558001
 30
0.0
 11
3.5463446220293888
 21
-32.697510077464273
 31
0.0
  0
ARC
  5
467B
  8
247
 10
4.5971869071856393
 20
-30.778808905589251
 30
0.0
 40
1.050843811035155
 50
143.44401219705341
 51
254.00018438768541
  0
LINE
  5
467C
  8
247
 10
3.5463446220293888
 20
-32.697510077464273
 30
0.0
 11
3.5463446220293888
 21
-31.856592108714281
 31
0.0
  0
LINE
  5
467D
  8
247
 10
3.9112372001543831
 20
-29.676477362620531
 30
0.0
 11
3.6024359306231388
 21
-29.7738528509018
 31
0.0
  0
LINE
  5
467E
  8
247
 10
3.9598578056231388
 20
-29.830664374339349
 30
0.0
 11
3.651056536091895
 21
-29.928039862620508
 31
0.0
  0
POLYLINE
  5
467F
  8
247
 66
     1
 10
0.0
 20
0.0
 30
0.0
 70
     1
  0
VERTEX
  5
4680
  8
247
 10
3.9112372001543831
 20
-29.676477362620531
 30
0.0
  0
VERTEX
  5
4681
  8
247
 10
3.6024359306231388
 20
-29.7738528509018
 30
0.0
  0
VERTEX
  5
4682
  8
247
 10
3.6024359306231388
 20
-29.7738528509018
 30
0.0
  0
VERTEX
  5
4683
  8
247
 10
3.9112372001543831
 20
-29.676477362620531
 30
0.0
  0
SEQEND
  5
4684
  8
247
  0
POLYLINE
  5
4685
  8
247
 66
     1
 10
0.0
 20
0.0
 30
0.0
 70
     1
1001
HATCH_DISTANCE
1040
1.0
1001
HATCH_DISPLAY
1070
     0
1001
HATCH_TYPE
1070
     7
  0
VERTEX
  5
4686
  8
247
 10
3.9112372001543831
 20
-29.676477362620531
 30
0.0
  0
VERTEX
  5
4687
  8
247
 10
3.6024359306231388
 20
-29.7738528509018
 30
0.0
  0
VERTEX
  5
4688
  8
247
 10
3.6024359306231388
 20
-29.7738528509018
 30
0.0
  0
VERTEX
  5
4689
  8
247
 10
3.9112372001543831
 20
-29.676477362620531
 30
0.0
  0
SEQEND
  5
468A
  8
247
  0
POLYLINE
  5
468B
  8
247
 66
     1
 10
0.0
 20
0.0
 30
0.0
 70
     1
  0
VERTEX
  5
468C
  8
247
 10
3.9112372001543831
 20
-29.676477362620531
 30
0.0
  0
VERTEX
  5
468D
  8
247
 10
3.6024359306231388
 20
-29.7738528509018
 30
0.0
  0
VERTEX
  5
468E
  8
247
 10
3.6024359306231388
 20
-29.7738528509018
 30
0.0
  0
VERTEX
  5
468F
  8
247
 10
3.9112372001543831
 20
-29.676477362620531
 30
0.0
  0
SEQEND
  5
4690
  8
247
  0
POLYLINE
  5
4691
  8
247
 66
     1
 10
0.0
 20
0.0
 30
0.0
 70
     1
1001
HATCH_DISTANCE
1040
1.0
1001
HATCH_DISPLAY
1070
     0
1001
HATCH_TYPE
1070
     7
  0
VERTEX
  5
4692
  8
247
 10
3.9112372001543831
 20
-29.676477362620531
 30
0.0
  0
VERTEX
  5
4693
  8
247
 10
3.6024359306231388
 20
-29.7738528509018
 30
0.0
  0
VERTEX
  5
4694
  8
247
 10
3.6024359306231388
 20
-29.7738528509018
 30
0.0
  0
VERTEX
  5
4695
  8
247
 10
3.9112372001543831
 20
-29.676477362620531
 30
0.0
  0
SEQEND
  5
4696
  8
247
  0
ARC
  5
4697
  8
247
 10
5.2438665946856231
 20
-29.341064764964369
 30
0.0
 40
1.697522735595703
 50
200.22964506331999
 51
208.57168892371681
  0
ARC
  5
4698
  8
247
 10
5.2438665946856231
 20
-29.341064764964369
 30
0.0
 40
1.3741859436035151
 50
200.87218340207721
 51
222.54194893738349
  0
LINE
  5
4699
  8
247
 10
4.1042742490339581
 20
-33.950029398566258
 30
0.0
 11
3.7010933599213822
 21
-33.546848509453767
 31
0.0
  0
LINE
  5
469A
  8
247
 10
4.4220415061694869
 20
-33.90858641085903
 30
0.0
 11
3.8809634927657521
 21
-33.367508397455367
 31
0.0
  0
LINE
  5
469B
  8
247
 10
3.9020086845293722
 20
-32.799499823558001
 30
0.0
 11
3.9020086845293722
 21
-32.681763007151872
 31
0.0
  0
LINE
  5
469C
  8
247
 10
5.1306952079668893
 20
-30.780420233714281
 30
0.0
 11
4.8073553642168827
 21
-30.687707831370531
 31
0.0
  0
ARC
  5
469D
  8
247
 10
5.4607855399981222
 20
-29.292505194651781
 30
0.0
 40
2.749951171874998
 50
245.20517736984161
 51
262.79482596205048
  0
LINE
  5
469E
  8
247
 10
5.1306952079668893
 20
-30.780420233714281
 30
0.0
 11
5.1306952079668893
 21
-30.511328436839349
 31
0.0
  0
LINE
  5
469F
  8
247
 10
4.8073553642168827
 20
-30.687707831370531
 30
0.0
 11
4.8073553642168827
 21
-29.745874335276781
 31
0.0
  0
ARC
  5
46A0
  8
247
 10
4.2415228446856137
 20
-30.6095462102768
 30
0.0
 40
0.3395066738128662
 50
91.710121382064258
 51
253.99839835444789
  0
LINE
  5
46A1
  8
247
 10
6.4563791831866491
 20
-34.506083108505088
 30
0.0
 11
5.5422685513370116
 21
-33.591972476655563
 31
0.0
  0
LINE
  5
46A2
  8
247
 10
6.4563791831866224
 20
-34.86529335334798
 30
0.0
 11
5.2699717806717192
 21
-33.678885950832992
 31
0.0
  0
ARC
  5
46A3
  8
247
 10
5.6480413993731222
 20
-34.393359686839297
 30
0.0
 40
0.80833740234375
 50
0.0
 51
130.3298406541671
  0
ARC
  5
46A4
  8
247
 10
5.6157049735918836
 20
-34.754089667308008
 30
0.0
 40
0.485010099411011
 50
351.6628542111489
 51
156.33819215911001
  0
ARC
  5
46A5
  8
247
 10
5.2438665946856231
 20
-35.904822089183099
 30
0.0
 40
1.374182128906249
 50
180.0
 51
0.0
  0
LINE
  5
46A6
  8
247
 10
6.4563791831866224
 20
-35.583713843033493
 30
0.0
 11
5.536877949390723
 21
-34.664212609237453
 31
0.0
  0
LINE
  5
46A7
  8
247
 10
6.4563791831866224
 20
-35.735156561839297
 30
0.0
 11
3.8696844657803329
 21
-34.993432929027229
 31
0.0
  0
LINE
  5
46A8
  8
247
 10
5.1714694611668586
 20
-34.5594371409153
 30
0.0
 11
6.0955895043046358
 21
-34.824414867011349
 31
0.0
  0
LINE
  5
46A9
  8
247
 10
6.1650840151831909
 20
-35.651628919872799
 30
0.0
 11
4.7969992456658961
 21
-34.283544150355411
 31
0.0
  0
LINE
  5
46AA
  8
247
 10
5.661462440551654
 20
-35.507217590084011
 30
0.0
 11
4.5296339560078227
 21
-34.375389105540208
 31
0.0
  0
INSERT
  5
46AB
  8
247
  6
CONTINUOUS
  2
*X7
 10
-1.7817853912836901
 20
-8.6418381412346488
 30
0.0
1001
ACAD
1000
HATCH
1002
{
1070
    19
1000
ANSI31
1040
0.08
1040
1.570796326794893
1002
}
  0
INSERT
  5
46AC
  8
247
  6
CONTINUOUS
  2
*X8
 10
-1.7817853912836901
 20
-8.6418381412346488
 30
0.0
1001
ACAD
1000
HATCH
1002
{
1070
    19
1000
ANSI31
1040
0.08
1040
1.570796326794893
1002
}
  0
POLYLINE
  5
46AD
  8
247
 66
     1
 10
0.0
 20
0.0
 30
0.0
 70
     1
  0
VERTEX
  5
46AE
  8
247
 10
3.5463446220293888
 20
-32.697510077464273
 30
0.0
  0
VERTEX
  5
46AF
  8
247
 10
3.9020086845293722
 20
-32.799499823558001
 30
0.0
  0
VERTEX
  5
46B0
  8
247
 10
3.9020086845293722
 20
-32.681763007151872
 30
0.0
  0
VERTEX
  5
46B1
  8
247
 10
6.4563791831866224
 20
-33.414221503245599
 30
0.0
  0
VERTEX
  5
46B2
  8
247
 10
6.4563791831866224
 20
-32.691028143870547
 30
0.0
  0
VERTEX
  5
46B3
  8
247
 10
3.5463446220293888
 20
-31.856592108714281
 30
0.0
  0
SEQEND
  5
46B4
  8
247
  0
POLYLINE
  5
46B5
  8
247
 66
     1
 10
0.0
 20
0.0
 30
0.0
 70
     1
1001
HATCH_DISTANCE
1040
1.0
1001
HATCH_DISPLAY
1070
     0
1001
HATCH_TYPE
1070
     7
  0
VERTEX
  5
46B6
  8
247
 10
3.5463446220293888
 20
-32.697510077464273
 30
0.0
  0
VERTEX
  5
46B7
  8
247
 10
3.9020086845293722
 20
-32.799499823558001
 30
0.0
  0
VERTEX
  5
46B8
  8
247
 10
3.9020086845293722
 20
-32.681763007151872
 30
0.0
  0
VERTEX
  5
46B9
  8
247
 10
6.4563791831866224
 20
-33.414221503245599
 30
0.0
  0
VERTEX
  5
46BA
  8
247
 10
6.4563791831866224
 20
-32.691028143870547
 30
0.0
  0
VERTEX
  5
46BB
  8
247
 10
3.5463446220293888
 20
-31.856592108714281
 30
0.0
  0
SEQEND
  5
46BC
  8
247
  0
LINE
  5
46BD
  8
247
 10
6.4563791831866224
 20
-32.691028143870547
 30
0.0
 11
3.5463446220293888
 21
-31.856592108714281
 31
0.0
  0
ARC
  5
46BE
  8
247
 10
5.2438665946856231
 20
-29.341064764964369
 30
0.0
 40
1.69752197265625
 50
0.0
 51
194.7707939660942
  0
LINE
  5
46BF
  8
247
 10
6.4563791831866224
 20
-30.218725897776729
 30
0.0
 11
4.8073553642168827
 21
-29.745874335276781
 31
0.0
  0
LINE
  5
46C0
  8
247
 10
6.4563791831866224
 20
-33.414221503245599
 30
0.0
 11
3.9020086845293722
 21
-32.681763007151872
 31
0.0
  0
ARC
  5
46C1
  8
247
 10
5.7612005790606231
 20
-31.045312811839281
 30
0.0
 40
0.3395064353942871
 50
254.00027305718521
 51
74.000273057185225
  0
LINE
  5
46C2
  8
247
 10
5.6676214774981393
 20
-31.371667792308031
 30
0.0
 11
4.1479315360918827
 21
-30.93590119074555
 31
0.0
  0
ARC
  5
46C3
  8
247
 10
5.2438665946856231
 20
-29.341064764964369
 30
0.0
 40
1.374182128906249
 50
0.0
 51
194.1274364964118
  0
ARC
  5
46C4
  8
247
 10
5.4055365165606393
 20
-31.010596014964349
 30
0.0
 40
1.0508544921875
 50
253.99975070172849
 51
34.963873291630833
  0
LINE
  5
46C5
  8
247
 10
5.8547796806231336
 20
-30.718957831370531
 30
0.0
 11
5.1306952079668893
 21
-30.511328436839349
 31
0.0
  0
INSERT
  5
46C6
  8
247
  6
CONTINUOUS
  2
*X9
 10
-1.7817853912836901
 20
-8.6418381412346488
 30
0.0
1001
ACAD
1000
HATCH
1002
{
1070
    19
1000
ANSI31
1040
0.08
1040
1.570796326794893
1002
}
  0
ARC
  5
46C7
  8
247
 10
5.2438665946856231
 20
-35.904822089183099
 30
0.0
 40
1.69752197265625
 50
180.0
 51
0.0
  0
TEXT
  5
46C8
  8
247
 10
6.5318044328566414
 20
-26.98055804997308
 30
0.0
 40
2.399999999999999
  1
HSK-A100-AG90-CA6SGM-241
 50
90.0
  7
YOKO
 11
6.5318044328566414
 21
-26.98055804997308
 31
0.0
 73
     1
  0
LINE
  5
46C9
  8
241
 10
28.999999999999861
 20
-42.699999999999591
 30
0.0
 11
28.999999999999861
 21
0.0000000000003339
 31
0.0
1001
GRPNAME
1000
PASTMD2V
  0
LINE
  5
46CA
  8
241
 10
23.247595264191521
 20
-49.999999999999673
 30
0.0
 11
23.247595264191521
 21
31.500000000000458
 31
0.0
1001
GRPNAME
1000
PASTMD19
  0
LINE
  5
46CB
  8
240
 10
-50.000000000000007
 20
-33.597501560549532
 30
0.0
 11
-50.000000000000007
 21
0.0000000000003339
 31
0.0
1001
GRPNAME
1000
PASTMD19
  0
LINE
  5
46CC
  8
241
 10
16.75240473580833
 20
-49.999999999999673
 30
0.0
 11
16.75240473580833
 21
31.500000000000458
 31
0.0
1001
GRPNAME
1000
PASTMD19
  0
LINE
  5
46CD
  8
241
 10
21.875
 20
-46.999999999999659
 30
0.0
 11
21.875
 21
31.500000000000458
 31
0.0
1001
GRPNAME
1000
PASTMD19
  0
LINE
  5
46CE
  8
241
 10
18.124999999999989
 20
-46.999999999999659
 30
0.0
 11
18.124999999999989
 21
31.500000000000458
 31
0.0
1001
GRPNAME
1000
PASTMD19
  0
LINE
  5
46CF
  8
241
 10
-2.0
 20
-37.89999999999965
 30
0.0
 11
-2.0
 21
37.900000000000418
 31
0.0
1001
GRPNAME
1000
PASTMD19
  0
LINE
  5
46D0
  8
240
 10
-2.0000000000003868
 20
-37.89999999999965
 30
0.0
 11
-48.099875233887708
 21
-35.59500623830526
 31
0.0
1001
GRPNAME
1000
PASTMD19
  0
LINE
  5
46D1
  8
243
 10
-30.003375672974251
 20
-26.49999999999967
 30
0.0
 11
-50.000000000000007
 21
-26.49999999999967
 31
0.0
1001
GRPNAME
1000
PASTMD19
  0
ARC
  5
46D2
  8
240
 10
-48.000000000000007
 20
-33.597501560549532
 30
0.0
 40
2.0
 50
180.00000008102811
 51
267.1375948549188
1001
GRPNAME
1000
PASTMD19
  0
LINE
  5
46D3
  8
240
 10
16.75240473580833
 20
-49.999999999999673
 30
0.0
 11
0.4999999999999965
 21
-49.999999999999673
 31
0.0
1001
GRPNAME
1000
PASTMD19
  0
LINE
  5
46D4
  8
243
 10
-9.4966925428956284
 20
-31.49999999999967
 30
0.0
 11
-26.539274057836231
 21
-31.49999999999967
 31
0.0
1001
GRPNAME
1000
PASTMD19
  0
LINE
  5
46D5
  8
243
 10
-35.000000000000007
 20
-36.249999999999673
 30
0.0
 11
-35.000000000000007
 21
-26.49999999999967
 31
0.0
1001
GRPNAME
1000
PASTMD19
  0
LINE
  5
46D6
  8
243
 10
-30.003375672974251
 20
-26.49999999999967
 30
0.0
 11
-27.405299461620672
 21
-30.99999999999967
 31
0.0
1001
GRPNAME
1000
PASTMD19
  0
ARC
  5
46D7
  8
243
 10
-26.539274057836231
 20
-30.49999999999967
 30
0.0
 40
1.0
 50
209.99999985859279
 51
269.99999985859569
1001
GRPNAME
1000
PASTMD19
  0
LINE
  5
46D8
  8
243
 10
-21.000000000000011
 20
-31.499999998054481
 30
0.0
 11
-21.000000000000011
 21
-36.949999999999591
 31
0.0
1001
GRPNAME
1000
PASTMD1F
  0
LINE
  5
46D9
  8
240
 10
0.0
 20
-49.499999999999673
 30
0.0
 11
0.0
 21
-37.89999999999965
 31
0.0
1001
GRPNAME
1000
PASTMD19
  0
ARC
  5
46DA
  8
240
 10
0.4999999999999965
 20
-49.499999999999673
 30
0.0
 40
0.5
 50
179.99999989458101
 51
269.99999989459332
1001
GRPNAME
1000
PASTMD19
  0
ARC
  5
46DB
  8
243
 10
-9.4966925428956284
 20
-19.499999999999659
 30
0.0
 40
11.999999998054699
 50
270.00000006042342
 51
316.28721582905848
1001
GRPNAME
1000
PASTMD19
  0
LINE
  5
46DC
  8
245
 10
-15.000000000000011
 20
-30.51032519832826
 30
0.0
 11
-15.000000000000011
 21
-38.75111949497159
 31
0.0
1001
GRPNAME
1000
PASTMD1F
  0
LINE
  5
46DD
  8
243
 10
-8.9999999999999982
 20
-31.489716279843279
 30
0.0
 11
-8.9999999999999982
 21
-37.549999999999628
 31
0.0
1001
GRPNAME
1000
PASTMD1F
  0
LINE
  5
46DE
  8
240
 10
-2.0000000000003868
 20
-37.89999999999965
 30
0.0
 11
0.0
 21
-37.89999999999965
 31
0.0
  0
LINE
  5
46DF
  8
240
 10
28.499999999999861
 20
-49.999999999999673
 30
0.0
 11
23.247595264191641
 21
-49.999999999999673
 31
0.0
1001
GRPNAME
1000
PASTMD19
  0
LINE
  5
46E0
  8
243
 10
28.999999999999861
 20
-43.999999999999659
 30
0.0
 11
4.9999999999994262
 21
-43.999999999999659
 31
0.0
1001
GRPNAME
1000
PASTMD19
  0
LINE
  5
46E1
  8
243
 10
4.9999999999994262
 20
-49.999999999999673
 30
0.0
 11
4.9999999999994262
 21
-43.999999999999659
 31
0.0
1001
GRPNAME
1000
PASTMD19
  0
LINE
  5
46E2
  8
240
 10
21.875
 20
-46.999999999999659
 30
0.0
 11
21.875
 21
-47.622595264191439
 31
0.0
1001
GRPNAME
1000
PASTMD19
  0
LINE
  5
46E3
  8
240
 10
18.124999999999989
 20
-46.999999999999659
 30
0.0
 11
18.124999999999989
 21
-47.622595264191439
 31
0.0
1001
GRPNAME
1000
PASTMD19
  0
LINE
  5
46E4
  8
240
 10
18.124999999999989
 20
-47.622595264191439
 30
0.0
 11
16.75240473580833
 21
-49.999999999999673
 31
0.0
1001
GRPNAME
1000
PASTMD19
  0
LINE
  5
46E5
  8
240
 10
21.875
 20
-47.622595264191439
 30
0.0
 11
23.247595264191641
 21
-49.999999999999673
 31
0.0
1001
GRPNAME
1000
PASTMD19
  0
ARC
  5
46E6
  8
240
 10
20.874999999999979
 20
-46.999999999999659
 30
0.0
 40
1.0
 50
359.9999998997335
 51
89.999999899733439
1001
GRPNAME
1000
PASTMD19
  0
ARC
  5
46E7
  8
240
 10
19.124999999999989
 20
-46.999999999999659
 30
0.0
 40
1.0
 50
89.999999902299876
 51
179.99999990229981
1001
GRPNAME
1000
PASTMD19
  0
LINE
  5
46E8
  8
240
 10
20.874999999999979
 20
-45.999999999999652
 30
0.0
 11
19.124999999999989
 21
-45.999999999999652
 31
0.0
1001
GRPNAME
1000
PASTMD19
  0
LINE
  5
46E9
  8
240
 10
28.999999999999861
 20
-49.499999999999673
 30
0.0
 11
28.999999999999861
 21
-42.699999999999591
 31
0.0
1001
GRPNAME
1000
PASTMD2V
  0
ARC
  5
46EA
  8
240
 10
28.499999999999861
 20
-49.499999999999673
 30
0.0
 40
0.5
 50
269.99999988687432
 51
359.99999988687517
1001
GRPNAME
1000
PASTMD2V
  0
LINE
  5
46EB
  8
240
 10
-1.9999999999997919
 20
37.900000000000418
 30
0.0
 11
-48.099875233887708
 21
35.59500623830592
 31
0.0
1001
GRPNAME
1000
PASTMD19
  0
LINE
  5
46EC
  8
243
 10
-30.003375672974251
 20
26.500000000000341
 30
0.0
 11
-50.000000000000007
 21
26.500000000000341
 31
0.0
1001
GRPNAME
1000
PASTMD19
  0
LINE
  5
46ED
  8
240
 10
-50.000000000000007
 20
0.0000000000003339
 30
0.0
 11
-50.000000000000007
 21
33.597501560550313
 31
0.0
1001
GRPNAME
1000
PASTMD19
  0
ARC
  5
46EE
  8
240
 10
-48.000000000000007
 20
33.597501560550313
 30
0.0
 40
1.999999999999952
 50
92.862405134789526
 51
179.99999990868341
1001
GRPNAME
1000
PASTMD19
  0
LINE
  5
46EF
  8
241
 10
21.875
 20
33.500000000000448
 30
0.0
 11
21.875
 21
47.000000000000327
 31
0.0
1001
GRPNAME
1000
PASTMD19
  0
LINE
  5
46F0
  8
241
 10
23.247595264191521
 20
38.829756626071791
 30
0.0
 11
23.247595264191521
 21
50.000000000000327
 31
0.0
1001
GRPNAME
1000
PASTMD19
  0
LINE
  5
46F1
  8
240
 10
28.999999999999861
 20
42.700000000000259
 30
0.0
 11
29.0
 21
49.500000000000327
 31
0.0
1001
GRPNAME
1000
PASTMD2V
  0
LINE
  5
46F2
  8
241
 10
18.124999999999989
 20
33.500000000000448
 30
0.0
 11
18.124999999999989
 21
47.000000000000327
 31
0.0
1001
GRPNAME
1000
PASTMD19
  0
LINE
  5
46F3
  8
241
 10
16.75240473580833
 20
38.829756626071791
 30
0.0
 11
16.75240473580833
 21
50.000000000000327
 31
0.0
1001
GRPNAME
1000
PASTMD19
  0
LINE
  5
46F4
  8
240
 10
0.0
 20
37.900000000000418
 30
0.0
 11
0.0
 21
49.500000000000327
 31
0.0
1001
GRPNAME
1000
PASTMD19
  0
ARC
  5
46F5
  8
241
 10
14.63689785791971
 20
28.829756626071791
 30
0.0
 40
9.9999999999997158
 50
90.000000080441055
 51
164.5127260540782
1001
GRPNAME
1000
PASTMD1F
  0
LINE
  5
46F6
  8
243
 10
-9.4966925428956284
 20
31.499999998055149
 30
0.0
 11
-26.539274057836231
 21
31.500000000000341
 31
0.0
1001
GRPNAME
1000
PASTMD19
  0
LINE
  5
46F7
  8
243
 10
-40.000000000000007
 20
26.500000000000341
 30
0.0
 11
-40.000000000000007
 21
36.250000000000341
 31
0.0
1001
GRPNAME
1000
PASTMD19
  0
LINE
  5
46F8
  8
243
 10
-21.000000000000011
 20
31.499999998055149
 30
0.0
 11
-21.000000000000011
 21
36.950000000000387
 31
0.0
1001
GRPNAME
1000
PASTMD1J
  0
LINE
  5
46F9
  8
243
 10
-30.003375672974251
 20
26.500000000000341
 30
0.0
 11
-27.405299461620672
 21
31.00000000000033
 31
0.0
1001
GRPNAME
1000
PASTMD19
  0
ARC
  5
46FA
  8
243
 10
-26.539274057836231
 20
30.500000000000341
 30
0.0
 40
1.0
 50
90.000000074556681
 51
150.00000007456001
1001
GRPNAME
1000
PASTMD19
  0
ARC
  5
46FB
  8
243
 10
-9.4966925428956284
 20
19.50000000000033
 30
0.0
 40
11.99999999805488
 50
43.712766570848963
 51
89.999999939576583
1001
GRPNAME
1000
PASTMD19
  0
LINE
  5
46FC
  8
243
 10
-8.9999999999999982
 20
31.48971627984395
 30
0.0
 11
-8.9999999999999982
 21
37.550000000000409
 31
0.0
1001
GRPNAME
1000
PASTMD1J
  0
LINE
  5
46FD
  8
245
 10
-15.000000000000011
 20
30.510325198328921
 30
0.0
 11
-15.000000000000011
 21
38.751119494972379
 31
0.0
1001
GRPNAME
1000
PASTMD1J
  0
LINE
  5
46FE
  8
240
 10
-1.9999999999997919
 20
37.900000000000418
 30
0.0
 11
0.0
 21
37.900000000000418
 31
0.0
  0
LINE
  5
46FF
  8
241
 10
28.999999999999861
 20
0.0000000000003339
 30
0.0
 11
28.999999999999861
 21
42.700000000000259
 31
0.0
1001
GRPNAME
1000
PASTMD2V
  0
LINE
  5
4700
  8
241
 10
23.247595264191521
 20
38.829756626071791
 30
0.0
 11
28.999999999999861
 21
38.829756626071791
 31
0.0
1001
GRPNAME
1000
PASTMD1F
  0
LINE
  5
4701
  8
241
 10
4.9999999999996536
 20
31.500000000000458
 30
0.0
 11
28.999999999999861
 21
31.500000000000458
 31
0.0
1001
GRPNAME
1000
PASTMD1F
  0
LINE
  5
4702
  8
241
 10
14.63689785791971
 20
38.829756626071791
 30
0.0
 11
16.75240473580833
 21
38.829756626071791
 31
0.0
1001
GRPNAME
1000
PASTMD1F
  0
LINE
  5
4703
  8
241
 10
18.124999999999989
 20
33.500000000000448
 30
0.0
 11
21.875
 21
33.500000000000448
 31
0.0
1001
GRPNAME
1000
PASTMD1F
  0
LINE
  5
4704
  8
241
 10
18.124999999999989
 20
36.452351890263671
 30
0.0
 11
16.752404735808451
 21
38.829756626071791
 31
0.0
1001
GRPNAME
1000
PASTMD1F
  0
LINE
  5
4705
  8
241
 10
21.875
 20
36.452351890263913
 30
0.0
 11
23.247595264191521
 21
38.829756626071791
 31
0.0
1001
GRPNAME
1000
PASTMD1F
  0
LINE
  5
4706
  8
240
 10
16.75240473580833
 20
50.000000000000327
 30
0.0
 11
0.4999999999999965
 21
50.000000000000327
 31
0.0
1001
GRPNAME
1000
PASTMD19
  0
ARC
  5
4707
  8
240
 10
0.4999999999999965
 20
49.500000000000327
 30
0.0
 40
0.5
 50
89.999999902299876
 51
179.99999990229981
1001
GRPNAME
1000
PASTMD19
  0
LINE
  5
4708
  8
240
 10
28.5
 20
50.000000000000327
 30
0.0
 11
23.247595264191521
 21
50.000000000000327
 31
0.0
1001
GRPNAME
1000
PASTMD19
  0
LINE
  5
4709
  8
243
 10
28.999999999999861
 20
44.000000000000327
 30
0.0
 11
4.9999999999994262
 21
44.000000000000327
 31
0.0
1001
GRPNAME
1000
PASTMD19
  0
LINE
  5
470A
  8
243
 10
4.9999999999994262
 20
44.000000000000327
 30
0.0
 11
4.9999999999994262
 21
50.000000000000327
 31
0.0
1001
GRPNAME
1000
PASTMD19
  0
ARC
  5
470B
  8
240
 10
20.874999999999979
 20
47.000000000000327
 30
0.0
 40
1.0
 50
269.99999988430562
 51
359.99999988429568
1001
GRPNAME
1000
PASTMD19
  0
ARC
  5
470C
  8
240
 10
19.124999999999989
 20
47.000000000000327
 30
0.0
 40
1.0
 50
179.99999989458101
 51
269.99999989458757
1001
GRPNAME
1000
PASTMD19
  0
LINE
  5
470D
  8
240
 10
20.874999999999979
 20
46.000000000000327
 30
0.0
 11
19.124999999999989
 21
46.000000000000327
 31
0.0
1001
GRPNAME
1000
PASTMD19
  0
LINE
  5
470E
  8
240
 10
18.124999999999989
 20
47.6225952641921
 30
0.0
 11
16.75240473580833
 21
50.000000000000327
 31
0.0
1001
GRPNAME
1000
PASTMD19
  0
LINE
  5
470F
  8
240
 10
18.124999999999989
 20
47.000000000000327
 30
0.0
 11
18.124999999999989
 21
47.6225952641921
 31
0.0
1001
GRPNAME
1000
PASTMD19
  0
LINE
  5
4710
  8
240
 10
21.875
 20
47.6225952641921
 30
0.0
 11
23.247595264191641
 21
50.000000000000327
 31
0.0
1001
GRPNAME
1000
PASTMD19
  0
LINE
  5
4711
  8
240
 10
21.875
 20
47.000000000000327
 30
0.0
 11
21.875
 21
47.6225952641921
 31
0.0
1001
GRPNAME
1000
PASTMD19
  0
ARC
  5
4712
  8
240
 10
28.5
 20
49.500000000000327
 30
0.0
 40
0.5
 50
359.99999989972707
 51
89.99999989972693
1001
GRPNAME
1000
PASTMD2V
  0
LINE
  5
4713
  8
241
 10
0.0
 20
37.900000000000418
 30
0.0
 11
0.0
 21
-37.89999999999965
 31
0.0
  0
LINE
  5
4714
  8
240
  6
CONTINUOUS
 10
29.199999999999541
 20
-42.499999999999673
 30
0.0
 11
44.999999999999559
 21
-42.499999999999673
 31
0.0
  0
ARC
  5
4715
  8
240
  6
CONTINUOUS
 10
29.199999999999541
 20
-42.699999999999719
 30
0.0
 40
0.1999999999999886
 50
90.0
 51
180.0
  0
ARC
  5
4716
  8
240
  6
CONTINUOUS
 10
29.199999999999541
 20
42.700000000000429
 30
0.0
 40
0.1999999999999886
 50
180.0
 51
270.0
  0
LINE
  5
4717
  8
242
  6
CONTINUOUS
 10
29.49999999999962
 20
41.030820341967733
 30
0.0
 11
44.499999999999559
 21
38.853046166453566
 31
0.0
  0
LINE
  5
4718
  8
242
  6
CONTINUOUS
 10
29.49999999999962
 20
38.853046166453566
 30
0.0
 11
44.499999999999559
 21
41.030820341967733
 31
0.0
  0
LINE
  5
4719
  8
241
  6
CONTINUOUS
 10
29.49999999999962
 20
38.853046166453566
 30
0.0
 11
44.499999999999559
 21
38.853046166453566
 31
0.0
  0
LINE
  5
471A
  8
240
  6
CONTINUOUS
 10
29.49999999999962
 20
41.030820341967733
 30
0.0
 11
44.499999999999559
 21
41.030820341967733
 31
0.0
  0
LINE
  5
471B
  8
241
  6
CONTINUOUS
 10
29.49999999999962
 20
38.853046166453566
 30
0.0
 11
29.49999999999962
 21
41.030820341967733
 31
0.0
  0
LINE
  5
471C
  8
240
  6
CONTINUOUS
 10
29.49999999999962
 20
41.030820341967733
 30
0.0
 11
29.49999999999962
 21
42.500000000000391
 31
0.0
  0
LINE
  5
471D
  8
240
  6
CONTINUOUS
 10
29.199999999999541
 20
42.500000000000391
 30
0.0
 11
29.49999999999962
 21
42.500000000000391
 31
0.0
  0
LINE
  5
471E
  8
240
  6
CONTINUOUS
 10
44.999999999999559
 20
30.000000000000391
 30
0.0
 11
44.999999999999559
 21
42.500000000000391
 31
0.0
  0
LINE
  5
471F
  8
241
  6
CONTINUOUS
 10
44.499999999999559
 20
38.853046166453566
 30
0.0
 11
44.499999999999559
 21
41.030820341967733
 31
0.0
  0
LINE
  5
4720
  8
240
  6
CONTINUOUS
 10
44.499999999999559
 20
42.500000000000391
 30
0.0
 11
44.999999999999559
 21
42.500000000000391
 31
0.0
  0
LINE
  5
4721
  8
240
  6
CONTINUOUS
 10
44.499999999999559
 20
41.030820341967733
 30
0.0
 11
44.499999999999559
 21
42.500000000000391
 31
0.0
  0
LINE
  5
4722
  8
240
  6
CONTINUOUS
 10
44.999999999999559
 20
-47.999999999999432
 30
0.0
 11
44.999999999999559
 21
48.000000000000611
 31
0.0
  0
LINE
  5
4723
  8
240
  6
CONTINUOUS
 10
44.999999999999552
 20
-47.999999999999382
 30
0.0
 11
45.499999999999567
 21
-48.499999999999382
 31
0.0
  0
LINE
  5
4724
  8
240
  6
CONTINUOUS
 10
45.499999999999567
 20
-48.499999999999382
 30
0.0
 11
47.999999999999893
 21
-48.499999999999382
 31
0.0
  0
LINE
  5
4725
  8
240
  6
CONTINUOUS
 10
45.499999999999567
 20
48.500000000000611
 30
0.0
 11
44.999999999999559
 21
48.000000000000611
 31
0.0
  0
LINE
  5
4726
  8
240
  6
CONTINUOUS
 10
45.499999999999567
 20
48.500000000000611
 30
0.0
 11
48.000000000000611
 21
48.500000000000611
 31
0.0
  0
LINE
  5
4727
  8
240
 10
48.000000000000519
 20
-48.999999999999787
 30
0.0
 11
48.000000000000611
 21
-48.499999999999382
 31
0.0
  0
ENDBLK
  5
4729
  8
0
  0
BLOCK
  8
0
  2
A$C49316937
 70
     0
 10
0.0
 20
0.0
 30
0.0
  3
A$C49316937
  1

  0
LINE
  5
4733
  8
241
 10
11.99999999999949
 20
-11.41640786510486
 30
0.0
 11
12.00000000000011
 21
11.416407866186081
 31
0.0
  0
LINE
  5
4734
  8
241
 10
-11.99999999999824
 20
-11.41640786510594
 30
0.0
 11
-12.000000000000339
 21
11.41640786593041
 31
0.0
  0
LINE
  5
4735
  8
241
 10
-14.99999999999863
 20
-7.949874371173725
 30
0.0
 11
-14.99999999999932
 21
0.0000000000002914
 31
0.0
  0
LINE
  5
4736
  8
241
 10
-14.99999999999892
 20
7.9498743719123626
 30
0.0
 11
-14.99999999999932
 21
0.0000000000002914
 31
0.0
  0
ARC
  5
4737
  8
241
 10
0.0000000001427338
 20
-1.9999999989402579
 30
0.0
 40
18.0
 50
128.94244127442161
 51
146.44269023889601
  0
ARC
  5
4738
  8
241
 10
5.5000000000001696
 20
11.999999999997669
 30
0.0
 40
0.5
 50
0.0
 51
90.0
  0
ARC
  5
4739
  8
241
 10
-5.5
 20
11.999999999997669
 30
0.0
 40
0.5
 50
90.0
 51
180.0
  0
LINE
  5
473A
  8
241
 10
-5.5
 20
12.499999999997669
 30
0.0
 11
5.5000000000001128
 21
12.499999999997669
 31
0.0
  0
LINE
  5
473B
  8
241
 10
-11.313708500171289
 20
11.999999999985491
 30
0.0
 11
0.0
 21
11.999999999998019
 31
0.0
  0
LINE
  5
473C
  8
241
 10
11.31370850045562
 20
11.99999999998642
 30
0.0
 11
0.0
 21
11.999999999998019
 31
0.0
  0
ARC
  5
473D
  8
241
 10
0.0000000001427338
 20
-1.9999999989402579
 30
0.0
 40
18.0
 50
33.557309762752297
 51
51.057558725578353
  0
LINE
  5
473E
  8
241
 10
14.999999999999259
 20
7.9498743723425527
 30
0.0
 11
14.99999999999971
 21
0.0000000000001777
 31
0.0
  0
LINE
  5
473F
  8
241
 10
14.999999999999661
 20
-7.949874371172589
 30
0.0
 11
14.99999999999971
 21
0.0000000000001777
 31
0.0
  0
ARC
  5
4740
  8
241
 10
0.0
 20
1.999999999894333
 30
0.0
 40
18.0
 50
308.94244126948053
 51
326.44269023807271
  0
LINE
  5
4741
  8
241
 10
11.31370849910644
 20
-12.000000000007439
 30
0.0
 11
-0.0000000000002842
 21
-11.99999999999833
 31
0.0
  0
LINE
  5
4742
  8
241
 10
5.9999999999997149
 20
-12.00000000000038
 30
0.0
 11
5.9999999999997149
 21
-12.30000000000136
 31
0.0
  0
LINE
  5
4743
  8
241
 10
5.9999999999997149
 20
-12.30000000000136
 30
0.0
 11
5.0000009536739753
 21
-12.299999999999081
 31
0.0
  0
ARC
  5
4744
  8
241
 10
3.9999990463253989
 20
-13.50000000000141
 30
0.0
 40
2.0
 50
270.0
 51
300.00006309460503
  0
LINE
  5
4745
  8
241
 10
5.0000009536756229
 20
-15.232049706359749
 30
0.0
 11
5.0000009536739753
 21
-12.299999999999081
 31
0.0
  0
LINE
  5
4746
  8
241
 10
-5.9999999999998286
 20
-12.00000000000038
 30
0.0
 11
-5.9999999999998286
 21
-12.30000000000136
 31
0.0
  0
LINE
  5
4747
  8
241
 10
-5.9999999999998286
 20
-12.30000000000136
 30
0.0
 11
-5.0000009536739176
 21
-12.299999999999081
 31
0.0
  0
ARC
  5
4748
  8
241
 10
-3.9999990463254562
 20
-13.50000000000141
 30
0.0
 40
2.0
 50
239.99993690539509
 51
270.00000000000648
  0
LINE
  5
4749
  8
241
 10
-3.9999990463253421
 20
-15.50000000000141
 30
0.0
 11
0.0
 21
-15.50000000000345
 31
0.0
  0
LINE
  5
474A
  8
241
 10
-5.0000009536755101
 20
-15.232049706359749
 30
0.0
 11
-5.0000009536739176
 21
-12.299999999999081
 31
0.0
  0
LINE
  5
474B
  8
241
 10
3.9999990463253989
 20
-15.50000000000141
 30
0.0
 11
0.0
 21
-15.50000000000345
 31
0.0
  0
LINE
  5
474C
  8
241
 10
-11.313708499102169
 20
-12.00000000001085
 30
0.0
 11
-0.0000000000002842
 21
-11.99999999999833
 31
0.0
  0
ARC
  5
474D
  8
241
 10
0.0
 20
1.999999999894333
 30
0.0
 40
18.0
 50
213.55730976192839
 51
231.05755873053619
  0
LINE
  5
474E
  8
241
 10
21.49999999999886
 20
39.500000000091127
 30
0.0
 11
21.999999999999321
 21
39.000000000091127
 31
0.0
  0
ARC
  5
474F
  8
241
 10
0.0
 20
0.0000000000934009
 30
0.0
 40
41.0
 50
42.970283931741747
 51
56.02364708610461
  0
LINE
  5
4750
  8
241
 10
28.000000000007621
 20
22.627416998032182
 30
0.0
 11
29.999999999999041
 21
23.118400135337371
 31
0.0
  0
LINE
  5
4751
  8
241
 10
13.18142615892304
 20
33.500000066016881
 30
0.0
 11
14.04830317452854
 21
34.000000056781758
 31
0.0
  0
LINE
  5
4752
  8
241
 10
9.9999999999998863
 20
18.845299461561069
 30
0.0
 11
9.9999999999998863
 21
21.154700538319549
 31
0.0
1001
GRPNAME
1000
00000001
  0
LINE
  5
4753
  8
241
 10
5.9999999999998863
 20
18.845299461561069
 30
0.0
 11
7.9999999999998863
 21
17.690598923181831
 31
0.0
1001
GRPNAME
1000
00000001
  0
LINE
  5
4754
  8
241
 10
7.9999999999998863
 20
22.309401076698869
 30
0.0
 11
5.9999999999998863
 21
21.15470053831962
 31
0.0
1001
GRPNAME
1000
00000001
  0
LINE
  5
4755
  8
241
 10
5.9999999999998863
 20
18.845299461561069
 30
0.0
 11
5.9999999999998863
 21
21.15470053831962
 31
0.0
1001
GRPNAME
1000
00000001
  0
CIRCLE
  5
4756
  8
241
 10
7.9999999999998863
 20
19.999999999940378
 30
0.0
 40
4.25
1001
GRPNAME
1000
00000001
  0
LINE
  5
4757
  8
241
 10
7.9999999999998863
 20
22.309401076698869
 30
0.0
 11
9.9999999999998863
 21
21.154700538319549
 31
0.0
1001
GRPNAME
1000
00000001
  0
LINE
  5
4758
  8
241
 10
9.9999999999998863
 20
18.845299461561069
 30
0.0
 11
7.9999999999998863
 21
17.690598923181831
 31
0.0
1001
GRPNAME
1000
00000001
  0
ARC
  5
4759
  8
241
 10
0.0
 20
0.0000000000935146
 30
0.0
 40
36.000000000000121
 50
38.942441268987118
 51
68.52158199482929
  0
LINE
  5
475A
  8
241
 10
21.999999999999321
 20
39.000000000091127
 30
0.0
 11
22.00000000000011
 21
33.999999962342912
 31
0.0
  0
LINE
  5
475B
  8
241
 10
11.90600000000012
 20
39.500000000091241
 30
0.0
 11
11.90599999999972
 21
33.999999962343118
 31
0.0
  0
LINE
  5
475C
  8
241
 10
-22.0
 20
39.000000000091127
 30
0.0
 11
-21.5
 21
39.500000000091127
 31
0.0
  0
LINE
  5
475D
  8
241
 10
-9.9999999999996021
 20
18.845299461561069
 30
0.0
 11
-7.9999999999996021
 21
17.690598923181831
 31
0.0
1001
GRPNAME
1000
00000001
  0
LINE
  5
475E
  8
241
 10
-7.9999999999996021
 20
22.309401076698869
 30
0.0
 11
-9.9999999999996021
 21
21.15470053831962
 31
0.0
1001
GRPNAME
1000
00000001
  0
LINE
  5
475F
  8
241
 10
-9.9999999999996021
 20
18.845299461561069
 30
0.0
 11
-9.9999999999996021
 21
21.15470053831962
 31
0.0
1001
GRPNAME
1000
00000001
  0
LINE
  5
4760
  8
241
 10
-7.9999999999996021
 20
22.309401076698869
 30
0.0
 11
-5.9999999999996021
 21
21.154700538319549
 31
0.0
1001
GRPNAME
1000
00000001
  0
LINE
  5
4761
  8
241
 10
-5.9999999999996021
 20
18.845299461561069
 30
0.0
 11
-5.9999999999996021
 21
21.154700538319549
 31
0.0
1001
GRPNAME
1000
00000001
  0
LINE
  5
4762
  8
241
 10
-5.9999999999996021
 20
18.845299461561069
 30
0.0
 11
-7.9999999999996021
 21
17.690598923181831
 31
0.0
1001
GRPNAME
1000
00000001
  0
CIRCLE
  5
4763
  8
241
 10
-7.9999999999996021
 20
19.999999999940378
 30
0.0
 40
4.25
1001
GRPNAME
1000
00000001
  0
LINE
  5
4764
  8
241
 10
-13.181426158923159
 20
33.500000066016881
 30
0.0
 11
-14.04830317452854
 21
34.000000056781758
 31
0.0
  0
LINE
  5
4765
  8
241
 10
-11.906000000000001
 20
39.500000000091241
 30
0.0
 11
-11.90600000000034
 21
33.999999962343352
 31
0.0
  0
LINE
  5
4766
  8
241
 10
-22.0
 20
39.000000000091127
 30
0.0
 11
-22.0
 21
33.999999962343239
 31
0.0
  0
LINE
  5
4767
  8
242
 10
-11.906000000000001
 20
39.500000000091241
 30
0.0
 11
11.90599999999972
 21
33.999999962343118
 31
0.0
  0
LINE
  5
4768
  8
242
 10
11.90600000000012
 20
39.500000000091241
 30
0.0
 11
-11.90600000000034
 21
33.999999962343239
 31
0.0
  0
LINE
  5
4769
  8
241
 10
-22.912878530795869
 20
33.999999962343239
 30
0.0
 11
22.912878530796551
 21
33.999999962342912
 31
0.0
  0
LINE
  5
476A
  8
241
 10
-13.181426422405019
 20
33.499999962343253
 30
0.0
 11
13.18142642240548
 21
33.499999962342997
 31
0.0
  0
LINE
  5
476B
  8
241
 10
-21.5
 20
39.500000000091127
 30
0.0
 11
21.49999999999886
 21
39.500000000091127
 31
0.0
  0
LINE
  5
476C
  8
241
 10
20.5000016542125
 20
8.5594010766985242
 30
0.0
 11
22.5000016542125
 21
7.404700538319223
 31
0.0
1001
GRPNAME
1000
00000001
  0
LINE
  5
476D
  8
241
 10
18.50000165421249
 20
5.0952994615607317
 30
0.0
 11
18.50000165421249
 21
7.4047005383192808
 31
0.0
1001
GRPNAME
1000
00000001
  0
LINE
  5
476E
  8
241
 10
20.5000016542125
 20
8.5594010766985242
 30
0.0
 11
18.50000165421249
 21
7.4047005383192808
 31
0.0
1001
GRPNAME
1000
00000001
  0
LINE
  5
476F
  8
241
 10
22.5000016542125
 20
5.0952994615607317
 30
0.0
 11
22.5000016542125
 21
7.404700538319223
 31
0.0
1001
GRPNAME
1000
00000001
  0
LINE
  5
4770
  8
241
 10
18.50000165421249
 20
-5.0952994615606038
 30
0.0
 11
20.5000016542125
 21
-3.9405989231813581
 31
0.0
1001
GRPNAME
1000
00000001
  0
LINE
  5
4771
  8
241
 10
22.5000016542125
 20
-5.0952994615606038
 30
0.0
 11
20.5000016542125
 21
-3.9405989231813581
 31
0.0
1001
GRPNAME
1000
00000001
  0
LINE
  5
4772
  8
241
 10
26.500001654213069
 20
-0.0000000000922497
 30
0.0
 11
26.50000165421142
 21
7.3484632629409301
 31
0.0
  0
LINE
  5
4773
  8
241
 10
22.5000016542125
 20
5.0952994615607317
 30
0.0
 11
20.5000016542125
 21
3.9405989231814891
 31
0.0
1001
GRPNAME
1000
00000001
  0
CIRCLE
  5
4774
  8
241
 10
20.5000016542125
 20
6.2499999999400364
 30
0.0
 40
4.25
1001
GRPNAME
1000
00000001
  0
LINE
  5
4775
  8
241
 10
20.5000016542125
 20
-8.5594010766983981
 30
0.0
 11
18.50000165421249
 21
-7.4047005383191511
 31
0.0
1001
GRPNAME
1000
00000001
  0
LINE
  5
4776
  8
241
 10
20.5000016542125
 20
-8.5594010766983981
 30
0.0
 11
22.5000016542125
 21
-7.4047005383190978
 31
0.0
1001
GRPNAME
1000
00000001
  0
LINE
  5
4777
  8
241
 10
28.00000000006213
 20
-22.627416997589808
 30
0.0
 11
29.99999999999892
 21
-23.11840013503792
 31
0.0
  0
LINE
  5
4778
  8
241
 10
9.9999999999998863
 20
-18.845299461560931
 30
0.0
 11
9.9999999999998863
 21
-21.154700538319439
 31
0.0
1001
GRPNAME
1000
00000001
  0
LINE
  5
4779
  8
241
 10
5.9999999999998863
 20
-18.845299461560931
 30
0.0
 11
5.9999999999998863
 21
-21.154700538319481
 31
0.0
1001
GRPNAME
1000
00000001
  0
LINE
  5
477A
  8
241
 10
7.9999999999998863
 20
-22.30940107669873
 30
0.0
 11
5.9999999999998863
 21
-21.154700538319481
 31
0.0
1001
GRPNAME
1000
00000001
  0
LINE
  5
477B
  8
241
 10
7.9999999999998863
 20
-22.30940107669873
 30
0.0
 11
9.9999999999998863
 21
-21.154700538319439
 31
0.0
1001
GRPNAME
1000
00000001
  0
LINE
  5
477C
  8
241
 10
9.9999999999998863
 20
-18.845299461560931
 30
0.0
 11
7.9999999999998863
 21
-17.69059892318171
 31
0.0
1001
GRPNAME
1000
00000001
  0
LINE
  5
477D
  8
241
 10
5.9999999999998863
 20
-18.845299461560931
 30
0.0
 11
7.9999999999998863
 21
-17.69059892318171
 31
0.0
1001
GRPNAME
1000
00000001
  0
CIRCLE
  5
477E
  8
241
 10
7.9999999999998863
 20
-19.99999999994024
 30
0.0
 40
4.25
1001
GRPNAME
1000
00000001
  0
LINE
  5
477F
  8
241
 10
26.500001654213069
 20
0.0000000000939693
 30
0.0
 11
26.500001654210511
 21
-7.3484632629437563
 31
0.0
  0
LINE
  5
4780
  8
241
 10
22.5000016542125
 20
-5.0952994615606038
 30
0.0
 11
22.5000016542125
 21
-7.4047005383190978
 31
0.0
1001
GRPNAME
1000
00000001
  0
LINE
  5
4781
  8
241
 10
18.50000165421249
 20
-5.0952994615606038
 30
0.0
 11
18.50000165421249
 21
-7.4047005383191511
 31
0.0
1001
GRPNAME
1000
00000001
  0
CIRCLE
  5
4782
  8
241
 10
20.5000016542125
 20
-6.2499999999399058
 30
0.0
 40
4.25
1001
GRPNAME
1000
00000001
  0
LINE
  5
4783
  8
241
 10
-18.500001654212099
 20
5.0952994615607317
 30
0.0
 11
-18.500001654212099
 21
7.404700538319223
 31
0.0
1001
GRPNAME
1000
00000001
  0
LINE
  5
4784
  8
241
 10
-22.500001654212099
 20
5.0952994615607317
 30
0.0
 11
-22.500001654212099
 21
7.4047005383192808
 31
0.0
1001
GRPNAME
1000
00000001
  0
LINE
  5
4785
  8
241
 10
-20.500001654212099
 20
8.5594010766985242
 30
0.0
 11
-22.500001654212099
 21
7.4047005383192808
 31
0.0
1001
GRPNAME
1000
00000001
  0
LINE
  5
4786
  8
241
 10
-20.500001654212099
 20
8.5594010766985242
 30
0.0
 11
-18.500001654212099
 21
7.404700538319223
 31
0.0
1001
GRPNAME
1000
00000001
  0
LINE
  5
4787
  8
241
 10
-22.500001654212099
 20
-5.0952994615606038
 30
0.0
 11
-20.500001654212099
 21
-3.9405989231813581
 31
0.0
1001
GRPNAME
1000
00000001
  0
LINE
  5
4788
  8
241
 10
-18.500001654212099
 20
-5.0952994615606038
 30
0.0
 11
-20.500001654212099
 21
-3.9405989231813581
 31
0.0
1001
GRPNAME
1000
00000001
  0
LINE
  5
4789
  8
241
 10
-26.500001654213008
 20
-0.0000000000938413
 30
0.0
 11
-26.500001654210571
 21
7.3484632629438869
 31
0.0
  0
LINE
  5
478A
  8
241
 10
-18.500001654212099
 20
5.0952994615607317
 30
0.0
 11
-20.500001654212099
 21
3.9405989231814891
 31
0.0
1001
GRPNAME
1000
00000001
  0
LINE
  5
478B
  8
241
 10
-22.500001654212099
 20
5.0952994615607317
 30
0.0
 11
-20.500001654212099
 21
3.9405989231814891
 31
0.0
1001
GRPNAME
1000
00000001
  0
CIRCLE
  5
478C
  8
241
 10
-20.500001654212099
 20
6.2499999999400364
 30
0.0
 40
4.25
1001
GRPNAME
1000
00000001
  0
LINE
  5
478D
  8
241
 10
-5.9999999999996021
 20
-18.845299461560931
 30
0.0
 11
-5.9999999999996021
 21
-21.154700538319439
 31
0.0
1001
GRPNAME
1000
00000001
  0
LINE
  5
478E
  8
241
 10
-9.9999999999996021
 20
-18.845299461560931
 30
0.0
 11
-9.9999999999996021
 21
-21.154700538319481
 31
0.0
1001
GRPNAME
1000
00000001
  0
LINE
  5
478F
  8
241
 10
-7.9999999999996021
 20
-22.30940107669873
 30
0.0
 11
-9.9999999999996021
 21
-21.154700538319481
 31
0.0
1001
GRPNAME
1000
00000001
  0
LINE
  5
4790
  8
241
 10
-5.9999999999996021
 20
-18.845299461560931
 30
0.0
 11
-7.9999999999996021
 21
-17.69059892318171
 31
0.0
1001
GRPNAME
1000
00000001
  0
LINE
  5
4791
  8
241
 10
-9.9999999999996021
 20
-18.845299461560931
 30
0.0
 11
-7.9999999999996021
 21
-17.69059892318171
 31
0.0
1001
GRPNAME
1000
00000001
  0
CIRCLE
  5
4792
  8
241
 10
-7.9999999999996021
 20
-19.99999999994024
 30
0.0
 40
4.25
1001
GRPNAME
1000
00000001
  0
LINE
  5
4793
  8
241
 10
-20.500001654212099
 20
-8.5594010766983981
 30
0.0
 11
-22.500001654212099
 21
-7.4047005383191511
 31
0.0
1001
GRPNAME
1000
00000001
  0
LINE
  5
4794
  8
241
 10
-20.500001654212099
 20
-8.5594010766983981
 30
0.0
 11
-18.500001654212099
 21
-7.4047005383190978
 31
0.0
1001
GRPNAME
1000
00000001
  0
LINE
  5
4795
  8
241
 10
-26.500001654212841
 20
0.0000000000923777
 30
0.0
 11
-26.50000165421147
 21
-7.3484632629407987
 31
0.0
  0
LINE
  5
4796
  8
241
 10
-22.500001654212099
 20
-5.0952994615606038
 30
0.0
 11
-22.500001654212099
 21
-7.4047005383191511
 31
0.0
1001
GRPNAME
1000
00000001
  0
LINE
  5
4797
  8
241
 10
-18.500001654212099
 20
-5.0952994615606038
 30
0.0
 11
-18.500001654212099
 21
-7.4047005383190978
 31
0.0
1001
GRPNAME
1000
00000001
  0
CIRCLE
  5
4798
  8
241
 10
-20.500001654212099
 20
-6.2499999999399058
 30
0.0
 40
4.25
1001
GRPNAME
1000
00000001
  0
ARC
  5
4799
  8
241
 10
0.0
 20
0.000000000000064
 30
0.0
 40
27.5
 50
195.49871985875961
 51
344.50128014123408
  0
ARC
  5
479A
  8
241
 10
0.0
 20
0.000000000000064
 30
0.0
 40
27.5
 50
15.49871985875966
 51
164.50128014123399
  0
LINE
  5
479B
  8
241
 10
27.99999999999903
 20
-22.62741699787755
 30
0.0
 11
27.999999999999261
 21
22.62741699806412
 31
0.0
  0
LINE
  5
479C
  8
241
 10
29.999999999999321
 20
-27.946377224871469
 30
0.0
 11
29.999999999999321
 21
27.946377225058502
 31
0.0
  0
LINE
  5
479D
  8
241
 10
-28.00000000000756
 20
22.627416998032182
 30
0.0
 11
-29.999999999999151
 21
23.118400135337371
 31
0.0
  0
LINE
  5
479E
  8
241
 10
-28.00000000006202
 20
-22.627416997589808
 30
0.0
 11
-29.999999999999151
 21
-23.11840013503792
 31
0.0
  0
LINE
  5
479F
  8
241
 10
-28.00000000006202
 20
-22.62741699779933
 30
0.0
 11
-28.00000000000756
 21
22.62741699805391
 31
0.0
  0
LINE
  5
47A0
  8
241
 10
-29.999999999999151
 20
-27.946377224871689
 30
0.0
 11
-29.999999999999151
 21
27.946377225058612
 31
0.0
  0
ARC
  5
47A1
  8
241
 10
0.0
 20
0.0000000000934009
 30
0.0
 40
41.0
 50
123.9763529138875
 51
137.02971606825821
  0
ARC
  5
47A2
  8
241
 10
0.0
 20
0.0000000000935146
 30
0.0
 40
36.000000000000121
 50
111.4784180051707
 51
141.05755873103359
  0
LINE
  5
47A3
  8
241
 10
22.000000000000171
 20
-39.000000450359778
 30
0.0
 11
22.000000000000171
 21
-34.000000450359543
 31
0.0
  0
LINE
  5
47A4
  8
241
 10
22.000000000000171
 20
-39.000000450359778
 30
0.0
 11
21.500000000000171
 21
-39.500000450359757
 31
0.0
  0
LINE
  5
47A5
  8
241
 10
11.90600000000012
 20
-39.500000450359757
 30
0.0
 11
11.90600000000012
 21
-34.000000450359543
 31
0.0
  0
LINE
  5
47A6
  8
241
 10
13.18142615892304
 20
-33.500000065829859
 30
0.0
 11
14.04830317452854
 21
-34.000000056594722
 31
0.0
  0
LINE
  5
47A7
  8
241
 10
-11.906000000000001
 20
-39.500000450359757
 30
0.0
 11
-11.906000000000001
 21
-34.000000450359657
 31
0.0
  0
LINE
  5
47A8
  8
241
 10
-13.181426158923159
 20
-33.500000065829859
 30
0.0
 11
-14.04830317452854
 21
-34.000000056594722
 31
0.0
  0
LINE
  5
47A9
  8
241
 10
-21.999999999998639
 20
-39.000000450359778
 30
0.0
 11
-22.0
 21
-34.000000450359657
 31
0.0
  0
LINE
  5
47AA
  8
241
 10
-21.499999999996529
 20
-39.500000450359757
 30
0.0
 11
-21.999999999998639
 21
-39.000000450359778
 31
0.0
  0
LINE
  5
47AB
  8
241
 10
-21.499999999996529
 20
-39.500000450359757
 30
0.0
 11
21.500000000000171
 21
-39.500000450359757
 31
0.0
  0
LINE
  5
47AC
  8
241
 10
-22.912878530795869
 20
-33.999999962156203
 30
0.0
 11
22.912878530796551
 21
-34.000000450359543
 31
0.0
  0
LINE
  5
47AD
  8
241
 10
-13.181426158923159
 20
-33.500000065829859
 30
0.0
 11
13.181425445140571
 21
-33.500000346685773
 31
0.0
  0
LINE
  5
47AE
  8
242
 10
-11.906000000000001
 20
-34.000000450359657
 30
0.0
 11
11.90600000000012
 21
-39.500000450359757
 31
0.0
  0
LINE
  5
47AF
  8
242
 10
11.90600000000012
 20
-34.000000450359543
 30
0.0
 11
-11.906000000000001
 21
-39.500000450359757
 31
0.0
  0
ARC
  5
47B0
  8
241
 10
0.0
 20
0.0000000000936283
 30
0.0
 40
41.0
 50
222.9702839317417
 51
236.0236470861125
  0
ARC
  5
47B1
  8
241
 10
0.0
 20
0.0000000000935146
 30
0.0
 40
36.000000000000121
 50
218.9424412688214
 51
248.52158244546749
  0
ARC
  5
47B2
  8
241
 10
0.0
 20
0.0000000000936283
 30
0.0
 40
41.0
 50
303.97635291389543
 51
317.02971606825821
  0
ARC
  5
47B3
  8
241
 10
0.0
 20
0.0000000000935146
 30
0.0
 40
36.000000000000121
 50
291.4784163337327
 51
321.05755873101288
  0
LINE
  5
47B4
  8
245
  6
CENTER2
 10
-75.704761275630673
 20
0.0000000000005188
 30
0.0
 11
73.500000000000398
 21
0.0000000000005188
 31
0.0
1001
GRPNAME
1000
00000001
  0
LINE
  5
47B5
  8
245
  6
CENTER2
 10
-75.704761275630631
 20
0.0000000000005188
 30
0.0
 11
73.500000000000398
 21
0.0000000000005188
 31
0.0
1001
GRPNAME
1000
00000003
  0
ARC
  5
47B6
  8
240
  6
CONTINUOUS
 10
-36.949063049876088
 20
-96.346032669542197
 30
0.0
 40
21.000000000000021
 50
105.0000000475568
 51
135.00000004756129
1001
GRPNAME
1000
PASTMD03
  0
ARC
  5
47B7
  8
240
  6
CONTINUOUS
 10
-96.346032669544513
 20
-36.949063049870738
 30
0.0
 40
21.000000000000011
 50
315.00000007584191
 51
345.00000007583589
1001
GRPNAME
1000
PASTMD03
  0
LINE
  5
47B8
  8
240
  6
CONTINUOUS
 10
-51.798305454793137
 20
-81.49679026462438
 30
0.0
 11
-62.93250352560495
 21
-92.630988335435674
 31
0.0
1001
GRPNAME
1000
PASTMD03
  0
ARC
  5
47B9
  8
241
 10
-77.781745930521993
 20
-77.781745930517715
 30
0.0
 40
21.0
 50
315.0000000000004
 51
135.0000000000004
1001
GRPNAME
1000
PASTMD03
  0
LINE
  5
47BA
  8
240
  6
CONTINUOUS
 10
-81.496790264627293
 20
-51.798305454788583
 30
0.0
 11
-92.630988335439213
 21
-62.932503525599977
 31
0.0
1001
GRPNAME
1000
PASTMD03
  0
LINE
  5
47BB
  8
245
  6
CENTER2
 10
-60.344309759548942
 20
-95.21918210149083
 30
0.0
 11
-95.219182101491569
 21
-60.344309759548239
 31
0.0
1001
GRPNAME
1000
PASTMD03
  0
LINE
  5
47BC
  8
240
  6
CONTINUOUS
 10
-42.384262997028941
 20
-76.061590317471826
 30
0.0
 11
16.176190318907629
 21
-60.370364143066162
 31
0.0
1001
GRPNAME
1000
PASTMD03
  0
ARC
  5
47BD
  8
240
 10
0.0
 20
0.0000000000005188
 30
0.0
 40
62.50000000000032
 50
344.99999999999818
 51
164.9999999999981
  0
LINE
  5
47BE
  8
240
  6
CONTINUOUS
 10
-76.061590310279996
 20
-42.384262970175122
 30
0.0
 11
-60.370361718384693
 21
16.176199367943529
 31
0.0
1001
GRPNAME
1000
PASTMD03
  0
LINE
  5
47BF
  8
245
  6
CENTER2
 10
-27.500000000001421
 20
47.63139720814312
 30
0.0
 11
27.500000000001371
 21
-47.631397208143028
 31
0.0
  0
LINE
  5
47C0
  8
245
  6
CENTER2
 10
0.0
 20
72.000000000000156
 30
0.0
 11
0.0
 21
-73.809961241492203
 31
0.0
1001
GRPNAME
1000
PASTMD03
  0
LINE
  5
47C1
  8
245
  6
CENTER2
 10
47.729707730093253
 20
47.72970773009142
 30
0.0
 11
-95.623378731493688
 21
-95.623378731488728
 31
0.0
1001
GRPNAME
1000
PASTMD03
  0
LINE
  5
47C2
  8
245
  6
CENTER2
 10
0.0
 20
72.000000000000156
 30
0.0
 11
0.0
 21
-73.809961241492203
 31
0.0
  0
LINE
  5
47C3
  8
241
 10
18.50000165421249
 20
5.0952994615607317
 30
0.0
 11
20.5000016542125
 21
3.9405989231814891
 31
0.0
1001
GRPNAME
1000
00000001
  0
LINE
  5
47C4
  8
241
 10
-7.9999999999996021
 20
-22.30940107669873
 30
0.0
 11
-5.9999999999996021
 21
-21.154700538319481
 31
0.0
1001
GRPNAME
1000
00000001
  0
ARC
  5
47C5
  8
240
  6
CONTINUOUS
 10
-77.781745930521993
 20
-77.781745930517772
 30
0.0
 40
21.0
 50
135.0000000000004
 51
315.0000000000004
1001
GRPNAME
1000
PASTMD03
  0
ARC
  5
47C6
  8
241
 10
-0.0000000000001137
 20
0.0000000000004335
 30
0.0
 40
62.50000000000032
 50
164.99999999999801
 51
285.00000000000119
  0
ARC
  5
47C7
  8
240
 10
-0.0000000000001137
 20
0.0000000000004335
 30
0.0
 40
62.50000000000032
 50
285.00000000000119
 51
344.99999999999818
  0
CIRCLE
  5
47C8
  8
243
  6
HIDDEN2
 10
-0.0000000000001137
 20
0.0000000000003411
 30
0.0
 40
50.0
  0
ARC
  5
47C9
  8
243
  6
HIDDEN2
 10
37.227360949833333
 20
26.92031939598667
 30
0.0
 40
0.2999999999999971
 50
120.0000000128617
 51
210.00000001285881
1001
GRPNAME
1000
PASTMD01
  0
LINE
  5
47CA
  8
243
  6
HIDDEN2
 10
38.567553328698011
 20
22.61655358082556
 30
0.0
 11
38.567553328698011
 21
23.99903810387632
 31
0.0
1001
GRPNAME
1000
PASTMD01
  0
LINE
  5
47CB
  8
243
  6
HIDDEN2
 10
40.067553328698011
 20
21.400961892523132
 30
0.0
 11
38.870286611397091
 21
22.092204154048432
 31
0.0
1001
GRPNAME
1000
PASTMD01
  0
LINE
  5
47CC
  8
243
  6
HIDDEN2
 10
39.084828269861987
 20
29.003091624298008
 30
0.0
 11
38.132200325699053
 21
28.453091624298001
 31
0.0
1001
GRPNAME
1000
PASTMD01
  0
LINE
  5
47CD
  8
243
  6
HIDDEN2
 10
40.584219845903867
 20
29.204812944778269
 30
0.0
 11
39.372328269862066
 21
28.505127017121939
 31
0.0
1001
GRPNAME
1000
PASTMD01
  0
LINE
  5
47CE
  8
243
  6
HIDDEN2
 10
38.419700325699182
 20
27.955127017121931
 30
0.0
 11
37.077360949833292
 21
27.180127017121951
 31
0.0
1001
GRPNAME
1000
PASTMD01
  0
LINE
  5
47CF
  8
243
  6
HIDDEN2
 10
44.659828269862082
 20
19.346908372101488
 30
0.0
 11
43.707200325699027
 21
18.796908372101491
 31
0.0
1001
GRPNAME
1000
PASTMD01
  0
LINE
  5
47D0
  8
243
  6
HIDDEN2
 10
45.584219845903931
 20
20.544558906934022
 30
0.0
 11
44.372328269862059
 21
19.844872979277561
 31
0.0
1001
GRPNAME
1000
PASTMD01
  0
LINE
  5
47D1
  8
243
  6
HIDDEN2
 10
43.419700325699182
 20
19.29487297927755
 30
0.0
 11
42.077360949833242
 21
18.519872979277569
 31
0.0
1001
GRPNAME
1000
PASTMD01
  0
LINE
  5
47D2
  8
243
  6
HIDDEN2
 10
41.667553328697799
 20
18.629680600412868
 30
0.0
 11
36.967553328698159
 21
26.770319395986579
 31
0.0
1001
GRPNAME
1000
PASTMD01
  0
LINE
  5
47D3
  8
243
  6
HIDDEN2
 10
43.707200325699027
 20
18.796908372101491
 30
0.0
 11
38.132200325699053
 21
28.453091624298001
 31
0.0
1001
GRPNAME
1000
PASTMD01
  0
LINE
  5
47D4
  8
243
  6
HIDDEN2
 10
44.659828269862082
 20
19.346908372101488
 30
0.0
 11
39.084828269861987
 21
29.003091624298008
 31
0.0
1001
GRPNAME
1000
PASTMD01
  0
LINE
  5
47D5
  8
243
  6
HIDDEN2
 10
31.52627944163163
 20
-32.605117766515207
 30
0.0
 11
12.473720558373881
 21
-43.605117766515143
 31
0.0
1001
GRPNAME
1000
PASTMD0M
  0
LINE
  5
47D6
  8
243
  6
HIDDEN2
 10
34.021176867625968
 20
-36.926406868010311
 30
0.0
 11
31.52627944163163
 21
-32.605117766515207
 31
0.0
1001
GRPNAME
1000
PASTMD0M
  0
LINE
  5
47D7
  8
243
  6
HIDDEN2
 10
14.968617984368279
 20
-47.926406868010289
 30
0.0
 11
12.473720558373881
 21
-43.605117766515143
 31
0.0
1001
GRPNAME
1000
PASTMD0M
  0
LINE
  5
47D8
  8
243
  6
HIDDEN2
 10
-43.029800219206997
 20
11.52980021920995
 30
0.0
 11
-46.694678532242733
 21
17.877555660945049
 31
0.0
  0
LINE
  5
47D9
  8
243
  6
HIDDEN2
 10
-43.029800219206997
 20
11.52980021920995
 30
0.0
 11
-49.377555660942051
 21
7.8649219061742297
 31
0.0
  0
LINE
  5
47DA
  8
243
  6
HIDDEN2
 10
-13.33974596215268
 20
43.105117766515257
 30
0.0
 11
-30.660254037841529
 21
33.105117766515271
 31
0.0
1001
GRPNAME
1000
PASTMD0M
  0
LINE
  5
47DB
  8
243
  6
HIDDEN2
 10
-30.660254037841529
 20
33.105117766515271
 30
0.0
 11
-33.155151463835871
 21
37.426406868010297
 31
0.0
1001
GRPNAME
1000
PASTMD0M
  0
LINE
  5
47DC
  8
243
  6
HIDDEN2
 10
-13.33974596215268
 20
43.105117766515257
 30
0.0
 11
-15.83464338814713
 21
47.426406868010247
 31
0.0
1001
GRPNAME
1000
PASTMD0M
  0
ARC
  5
47DD
  8
243
  6
HIDDEN2
 10
41.927360949833592
 20
18.77968060041292
 30
0.0
 40
0.2999999999999971
 50
209.99999998714259
 51
299.99999998713832
1001
GRPNAME
1000
PASTMD01
  0
ENDBLK
  5
47E1
  8
0
  0
ENDSEC
  0
SECTION
  2
ENTITIES
  0
TEXT
  5
199B
  8
241
 62
   211
 10
-60.409229540313419
 20
86.975031655402745
 30
0.0
 40
5.0
  1
HSK-A100-AG90-CA6SGM-241
  7
YOKO
 11
-60.409229540313419
 21
86.975031655402745
 31
0.0
 73
     1
  0
LINE
  5
1DC9
  8
250
 10
468.30881711839839
 20
79.038954624678297
 30
0.0
 11
452.06881711839827
 21
79.038954624678297
 31
0.0
  0
LINE
  5
1DCA
  8
250
 10
452.06881711839827
 20
79.038954624678297
 30
0.0
 11
449.94679238104828
 21
79.038954624678297
 31
0.0
  0
LINE
  5
1DCB
  8
250
 10
449.94679238104828
 20
79.038954624678297
 30
0.0
 11
442.5768481220457
 21
71.669010365675845
 31
0.0
  0
LINE
  5
1DCC
  8
250
 10
442.5768481220457
 20
71.669010365675845
 30
0.0
 11
441.0
 21
70.092162243629843
 31
0.0
  0
LINE
  5
1DCD
  8
250
 10
442.36925212938883
 20
71.87660635833295
 30
0.0
 11
441.0
 21
70.092162243629843
 31
0.0
  0
LINE
  5
1DCE
  8
250
 10
441.0
 20
70.092162243629843
 30
0.0
 11
442.78444411470309
 21
71.461414373018727
 31
0.0
  0
LINE
  5
1DD0
  8
250
 10
345.02306787791292
 20
-95.976932122082232
 30
0.0
 11
342.47076866679708
 21
-98.529231333197799
 31
0.0
  0
LINE
  5
1DD1
  8
250
 10
468.75000000000119
 20
-48.064409910035472
 30
0.0
 11
510.6706876208072
 21
-120.6731707574903
 31
0.0
  0
ARC
  5
1DD2
  8
250
 10
440.99999999999972
 20
0.0000000000001137
 30
0.0
 40
138.34137524160801
 50
225.92359188600361
 51
299.0764081139971
  0
LINE
  5
1DD6
  8
250
 10
441.0
 20
72.499999999999901
 30
0.0
 11
441.0
 21
139.34137524160769
 31
0.0
  0
LINE
  5
1DD7
  8
250
 10
345.02306787791281
 20
-95.976932122082161
 30
0.0
 11
342.4707686667976
 21
-98.529231333197103
 31
0.0
  0
ARC
  5
1DD8
  8
250
 10
441.0
 20
0.0000000000002842
 30
0.0
 40
138.34137524160741
 50
90.923591886004417
 51
224.07640811399369
  0
LINE
  5
1DDC
  8
250
 10
440.2823825211612
 20
-85.973888426586996
 30
0.0
 11
464.7623825211611
 21
-85.973888426586996
 31
0.0
  0
LINE
  5
1DDD
  8
250
 10
464.7623825211611
 20
-85.973888426586996
 30
0.0
 11
477.10619420950928
 21
-66.488569484620456
 31
0.0
  0
LINE
  5
1DDE
  8
250
 10
477.10619420950928
 20
-66.488569484620456
 30
0.0
 11
478.29957491552432
 21
-64.604758854405219
 31
0.0
  0
LINE
  5
1DDF
  8
250
 10
477.35420258285251
 20
-66.645681034438923
 30
0.0
 11
478.29957491552432
 21
-64.604758854405219
 31
0.0
  0
LINE
  5
1DE0
  8
250
 10
478.29957491552432
 20
-64.604758854405219
 30
0.0
 11
476.85818583616651
 21
-66.331457934802003
 31
0.0
  0
LINE
  5
1DE2
  8
250
 10
318.88444266872523
 20
-117.97745683229221
 30
0.0
 11
341.84444266872572
 21
-117.97745683229221
 31
0.0
  0
LINE
  5
1DE3
  8
250
 10
341.84444266872572
 20
-117.97745683229221
 30
0.0
 11
362.17128006065383
 21
-79.750691187463289
 31
0.0
  0
LINE
  5
1DE4
  8
250
 10
362.17128006065383
 20
-79.750691187463332
 30
0.0
 11
363.21825406947772
 21
-77.781745930518014
 31
0.0
  0
LINE
  5
1DE5
  8
250
 10
362.43049662018723
 20
-79.88852793001908
 30
0.0
 11
363.21825406947772
 21
-77.781745930518014
 31
0.0
  0
LINE
  5
1DE6
  8
250
 10
363.21825406947772
 20
-77.781745930518014
 30
0.0
 11
361.912063501121
 21
-79.612854444907555
 31
0.0
  0
LINE
  5
1E1C
  8
250
 10
237.00000000000179
 20
12.499999981162031
 30
0.0
 11
267.0
 21
12.499999981162031
 31
0.0
  0
LINE
  5
1E1D
  8
250
 10
233.4000005688259
 20
-16.00000001874448
 30
0.0
 11
267.0
 21
-16.00000001874449
 31
0.0
  0
LINE
  5
1E1E
  8
250
 10
266.0
 20
10.26999998116203
 30
0.0
 11
266.0
 21
-13.77000001874449
 31
0.0
  0
LINE
  5
1E22
  8
250
 10
228.00000000000219
 20
12.999999981162031
 30
0.0
 11
228.00000000000219
 21
29.0
 31
0.0
  0
LINE
  5
1E23
  8
250
 10
234.00000000000219
 20
12.999999981162031
 30
0.0
 11
234.00000000000219
 21
29.0
 31
0.0
  0
LINE
  5
1E24
  8
250
 10
225.77000000000211
 20
28.0
 30
0.0
 11
223.5400000000021
 21
28.0
 31
0.0
  0
LINE
  5
1E25
  8
250
 10
236.23000000000209
 20
28.0
 30
0.0
 11
254.3266666666687
 21
28.0
 31
0.0
  0
LINE
  5
1E26
  8
250
 10
228.00000000000219
 20
28.0
 30
0.0
 11
234.00000000000219
 21
28.0
 31
0.0
  0
LINE
  5
1E2A
  8
250
 10
-10.00000000000052
 20
49.500000000000171
 30
0.0
 11
-10.00000000000022
 21
78.0
 31
0.0
  0
LINE
  5
1E2B
  8
250
 10
231.0000000000023
 20
14.20604008790218
 30
0.0
 11
231.0000000000023
 21
78.0
 31
0.0
  0
LINE
  5
1E2C
  8
250
 10
-7.7700000000002252
 20
77.0
 30
0.0
 11
228.77000000000211
 21
77.0
 31
0.0
  0
TEXT
  5
1E30
  8
250
 10
106.2718340723727
 20
78.0
 30
0.0
 40
2.799999999999998
  1
241
  0
LINE
  5
1E31
  8
250
 10
228.77000000000211
 20
77.371666666666655
 30
0.0
 11
231.0000000000023
 21
77.0
 31
0.0
  0
LINE
  5
1E32
  8
250
 10
228.77000000000211
 20
76.62833333333333
 30
0.0
 11
231.0000000000023
 21
77.0
 31
0.0
  0
LINE
  5
1E33
  8
250
 10
231.0000000000023
 20
77.0
 30
0.0
 11
228.77000000000211
 21
77.0
 31
0.0
  0
LINE
  5
1E34
  8
250
 10
-7.7700000000002252
 20
76.62833333333333
 30
0.0
 11
-10.00000000000022
 21
77.0
 31
0.0
  0
LINE
  5
1E35
  8
250
 10
-7.7700000000002252
 20
77.371666666666655
 30
0.0
 11
-10.00000000000022
 21
77.0
 31
0.0
  0
LINE
  5
1E36
  8
250
 10
-10.00000000000022
 20
77.0
 30
0.0
 11
-7.7700000000002252
 21
77.0
 31
0.0
  0
TEXT
  5
1E37
  8
250
 10
238.92666666666889
 20
29.0
 30
0.0
 40
2.799999999999998
  1
MAX.
  0
TEXT
  5
1E38
  8
250
 10
248.5266666666688
 20
29.0
 30
0.0
 40
2.799999999999998
  1
\U+2205
  0
TEXT
  5
1E39
  8
250
 10
251.06000000000199
 20
29.0
 30
0.0
 40
2.799999999999998
  1
6
  0
LINE
  5
1E3A
  8
250
 10
236.23000000000209
 20
27.62833333333333
 30
0.0
 11
234.00000000000219
 21
28.0
 31
0.0
  0
LINE
  5
1E3B
  8
250
 10
236.23000000000209
 20
28.371666666666659
 30
0.0
 11
234.00000000000219
 21
28.0
 31
0.0
  0
LINE
  5
1E3C
  8
250
 10
234.00000000000219
 20
28.0
 30
0.0
 11
236.23000000000209
 21
28.0
 31
0.0
  0
LINE
  5
1E3D
  8
250
 10
225.77000000000211
 20
28.371666666666659
 30
0.0
 11
228.00000000000219
 21
28.0
 31
0.0
  0
LINE
  5
1E3E
  8
250
 10
225.77000000000211
 20
27.62833333333333
 30
0.0
 11
228.00000000000219
 21
28.0
 31
0.0
  0
LINE
  5
1E3F
  8
250
 10
228.00000000000219
 20
28.0
 30
0.0
 11
225.77000000000211
 21
28.0
 31
0.0
  0
TEXT
  5
1E40
  8
250
 10
265.0
 20
-6.4166666854578489
 30
0.0
 40
2.799999999999998
  1
28.5
 50
90.0
  0
LINE
  5
1E41
  8
250
 10
266.37166666666678
 20
-13.77000001874449
 30
0.0
 11
266.0
 21
-16.00000001874449
 31
0.0
  0
LINE
  5
1E42
  8
250
 10
265.62833333333327
 20
-13.77000001874449
 30
0.0
 11
266.0
 21
-16.00000001874449
 31
0.0
  0
LINE
  5
1E43
  8
250
 10
266.0
 20
-16.00000001874449
 30
0.0
 11
266.0
 21
-13.77000001874449
 31
0.0
  0
LINE
  5
1E44
  8
250
 10
265.62833333333327
 20
10.26999998116203
 30
0.0
 11
266.0
 21
12.499999981162031
 31
0.0
  0
LINE
  5
1E45
  8
250
 10
266.37166666666678
 20
10.26999998116203
 30
0.0
 11
266.0
 21
12.499999981162031
 31
0.0
  0
LINE
  5
1E46
  8
250
 10
266.0
 20
12.499999981162031
 30
0.0
 11
266.0
 21
10.26999998116203
 31
0.0
  0
TEXT
  5
1E73
  8
250
 10
311.33160780733391
 20
51.069369688604567
 30
0.0
 40
2.799999999999998
  1
\U+03B82
 50
67.499999999999275
  0
LINE
  5
1E74
  8
250
 10
438.76707688275201
 20
138.69505654387271
 30
0.0
 11
441.0
 21
138.34137524160769
 31
0.0
  0
LINE
  5
1E75
  8
250
 10
438.77306798024722
 20
137.9517473543726
 30
0.0
 11
441.0
 21
138.34137524160769
 31
0.0
  0
LINE
  5
1E76
  8
250
 10
441.0
 20
138.34137524160769
 30
0.0
 11
438.77007243149973
 21
138.3234019491226
 31
0.0
  0
TEXT
  5
1E77
  8
250
 10
454.86881711839851
 20
80.438954624678303
 30
0.0
 40
2.799999999999998
  1
刃先方向
  7
YOKO
  0
TEXT
  5
1E78
  8
250
 10
318.88444266872523
 20
-116.5774568322922
 30
0.0
 40
2.799999999999998
  1
位置決めピン
  7
YOKO
  0
TEXT
  5
1E79
  8
250
 10
440.2823825211612
 20
-84.573888426587004
 30
0.0
 40
2.799999999999998
  1
ドライブキー溝
  7
YOKO
  0
LINE
  5
1E7A
  8
250
 10
341.87870523677918
 20
-95.971937298398629
 30
0.0
 11
343.17787544798398
 21
-97.822124552010607
 31
0.0
  0
LINE
  5
1E7B
  8
250
 10
341.34886992269958
 20
-96.493299921146942
 30
0.0
 11
343.17787544798398
 21
-97.822124552010607
 31
0.0
  0
LINE
  5
1E7C
  8
250
 10
343.17787544798398
 20
-97.822124552010607
 30
0.0
 11
341.6137875797391
 21
-96.232618609772786
 31
0.0
  0
TEXT
  5
1E7D
  8
250
 10
421.0508057382454
 20
-135.90012730517549
 30
0.0
 40
2.799999999999998
  1
\U+03B81
 50
352.50000000000023
  0
LINE
  5
1E7E
  8
250
 10
344.5067000788473
 20
-99.651130077295846
 30
0.0
 11
343.17787544798381
 21
-97.822124552011275
 31
0.0
  0
LINE
  5
1E7F
  8
250
 10
345.02806270159562
 20
-99.121294763216596
 30
0.0
 11
343.17787544798381
 21
-97.822124552011275
 31
0.0
  0
LINE
  5
1E80
  8
250
 10
343.17787544798381
 20
-97.822124552011275
 30
0.0
 11
344.76738139022137
 21
-99.3862124202562
 31
0.0
  0
LINE
  5
1E81
  8
250
 10
508.04729397558282
 20
-120.58318371521391
 30
0.0
 11
510.17068762080743
 21
-119.80714535370591
 31
0.0
  0
LINE
  5
1E82
  8
250
 10
508.4137601277057
 20
-121.2299039049348
 30
0.0
 11
510.17068762080743
 21
-119.80714535370591
 31
0.0
  0
LINE
  5
1E83
  8
250
 10
510.17068762080743
 20
-119.80714535370591
 30
0.0
 11
508.23052705164417
 21
-120.9065438100743
 31
0.0
  0
LINE
  5
4027
  8
250
 10
-24.055475241705821
 20
-156.6778490344476
 30
0.0
 11
-58.284046670277263
 21
-156.6778490344476
 31
0.0
1001
ITEMNAME
1000
LNSP2
  0
LINE
  5
4028
  8
250
 10
10.99999999999933
 20
-95.499999999999943
 30
0.0
 11
10.99999999999933
 21
-76.000000000000185
 31
0.0
  0
LINE
  5
4029
  8
250
 10
20.99999999999957
 20
-90.999999999999943
 30
0.0
 11
20.99999999999957
 21
-76.000000000000185
 31
0.0
  0
LINE
  5
402A
  8
250
 10
13.22999999999934
 20
-77.000000000000213
 30
0.0
 11
18.769999999999548
 21
-77.000000000000213
 31
0.0
  0
LINE
  5
402B
  8
250
 10
-4.0000000000005951
 20
-98.144904710627131
 30
0.0
 11
-4.0000000000005951
 21
-76.000000000000185
 31
0.0
  0
LINE
  5
402C
  8
250
 10
10.99999999999933
 20
-95.499999999999943
 30
0.0
 11
10.99999999999933
 21
-76.000000000000185
 31
0.0
  0
LINE
  5
402D
  8
250
 10
-1.7700000000005911
 20
-77.000000000000213
 30
0.0
 11
8.7699999999993281
 21
-77.000000000000213
 31
0.0
  0
LINE
  5
402E
  8
250
 10
-10.00000000000041
 20
-35.424999999999898
 30
0.0
 11
-10.00000000000041
 21
-71.000000000000199
 31
0.0
  0
LINE
  5
402F
  8
250
 10
20.99999999999957
 20
-90.999999999999943
 30
0.0
 11
20.99999999999957
 21
-69.000000000000227
 31
0.0
  0
LINE
  5
4030
  8
250
 10
-7.7700000000004223
 20
-70.000000000000227
 30
0.0
 11
18.769999999999548
 21
-70.000000000000227
 31
0.0
  0
LINE
  5
4031
  8
250
 10
-23.500000000000512
 20
-0.0000000000001705
 30
0.0
 11
-23.00000000000048
 21
-0.0000000000001705
 31
0.0
  0
LINE
  5
4032
  8
250
 10
-8.9487512973332741
 20
-109.9999999999997
 30
0.0
 11
-25.000000000000512
 21
-109.9999999999999
 31
0.0
  0
LINE
  5
4033
  8
250
 10
-24.00000000000048
 20
-2.2300000000001869
 30
0.0
 11
-24.000000000000512
 21
-107.7700000000001
 31
0.0
  0
TEXT
  5
4034
  8
250
 10
-55.284046670277263
 20
-155.67784903444769
 30
0.0
 40
3.0
  1
位置決めブロック
  7
YOKO
1001
ITEMNAME
1000
LNSP3
1001
ACAD
1000
MTEXTBEGIN
1070
    73
1070
     1
1070
    44
1040
1.0
1070
    74
1070
     0
1000
MTEXTEND
  0
LINE
  5
4035
  8
250
 10
-10.00000000000041
 20
-35.424999999999898
 30
0.0
 11
-10.00000000000041
 21
-78.000000000000199
 31
0.0
  0
LINE
  5
4036
  8
250
 10
-4.0000000000005951
 20
-98.144904710627131
 30
0.0
 11
-4.0000000000005951
 21
-76.000000000000185
 31
0.0
  0
LINE
  5
4037
  8
250
 10
-12.23000000000042
 20
-77.000000000000213
 30
0.0
 11
-14.460000000000431
 21
-77.000000000000213
 31
0.0
  0
LINE
  5
4038
  8
250
 10
-1.7700000000005911
 20
-77.000000000000213
 30
0.0
 11
0.4599999999993969
 21
-77.000000000000213
 31
0.0
  0
LINE
  5
4039
  8
250
 10
-10.00000000000041
 20
-77.000000000000213
 30
0.0
 11
-4.0000000000005951
 21
-77.000000000000213
 31
0.0
  0
TEXT
  5
403A
  8
250
 10
-8.5000000000005098
 20
-76.000000000000199
 30
0.0
 40
3.0
  1
6
  0
LINE
  5
403B
  8
250
 10
-1.7700000000005911
 20
-77.371666666666911
 30
0.0
 11
-4.0000000000005951
 21
-77.000000000000213
 31
0.0
  0
LINE
  5
403C
  8
250
 10
-1.7700000000005911
 20
-76.628333333333558
 30
0.0
 11
-4.0000000000005951
 21
-77.000000000000213
 31
0.0
  0
LINE
  5
403D
  8
250
 10
-4.0000000000005951
 20
-77.000000000000213
 30
0.0
 11
-1.7700000000005911
 21
-77.000000000000213
 31
0.0
  0
LINE
  5
403E
  8
250
 10
-12.23000000000042
 20
-76.628333333333558
 30
0.0
 11
-10.00000000000041
 21
-77.000000000000213
 31
0.0
  0
LINE
  5
403F
  8
250
 10
-12.23000000000042
 20
-77.371666666666911
 30
0.0
 11
-10.00000000000041
 21
-77.000000000000213
 31
0.0
  0
LINE
  5
4040
  8
250
 10
-10.00000000000041
 20
-77.000000000000213
 30
0.0
 11
-12.23000000000042
 21
-77.000000000000213
 31
0.0
  0
LINE
  5
4041
  8
250
 10
-10.345362189456811
 20
-132.93123665043919
 30
0.0
 11
-24.055475241705821
 21
-156.6778490344476
 31
0.0
1001
ACAD
1000
DSTYLE
1002
{
1070
     5
1000
OPEN
1070
    78
1070
     8
1070
   140
1040
3.0
1002
}
  0
LINE
  5
4042
  8
250
 10
-10.667234964530021
 20
-132.745403317106
 30
0.0
 11
-9.2303621894568249
 21
-130.9999999999998
 31
0.0
  0
LINE
  5
4043
  8
250
 10
-10.023489414383601
 20
-133.1170699837725
 30
0.0
 11
-9.2303621894568249
 21
-130.9999999999998
 31
0.0
  0
LINE
  5
4044
  8
250
 10
-9.2303621894568249
 20
-130.9999999999998
 30
0.0
 11
-10.345362189456811
 21
-132.93123665043919
 31
0.0
  0
TEXT
  5
4045
  8
250
 10
-25.00000000000048
 20
-59.500000000000171
 30
0.0
 40
3.0
  1
110
 50
90.0
1001
ACAD
1000
MTEXTBEGIN
1070
    73
1070
     1
1070
    44
1040
1.0
1070
    74
1070
     0
1000
MTEXTEND
  0
LINE
  5
4046
  8
250
 10
-23.628333333333838
 20
-107.7700000000001
 30
0.0
 11
-24.000000000000512
 21
-109.9999999999999
 31
0.0
  0
LINE
  5
4047
  8
250
 10
-24.371666666667181
 20
-107.7700000000001
 30
0.0
 11
-24.000000000000512
 21
-109.9999999999999
 31
0.0
  0
LINE
  5
4048
  8
250
 10
-24.000000000000512
 20
-109.9999999999999
 30
0.0
 11
-24.000000000000512
 21
-107.7700000000001
 31
0.0
  0
LINE
  5
4049
  8
250
 10
-24.371666666667149
 20
-2.2300000000001869
 30
0.0
 11
-24.00000000000048
 21
-0.0000000000001705
 31
0.0
  0
LINE
  5
404A
  8
250
 10
-23.62833333333381
 20
-2.2300000000001869
 30
0.0
 11
-24.00000000000048
 21
-0.0000000000001705
 31
0.0
  0
LINE
  5
404B
  8
250
 10
-24.00000000000048
 20
-0.0000000000001705
 30
0.0
 11
-24.00000000000048
 21
-2.2300000000001869
 31
0.0
  0
TEXT
  5
404C
  8
250
 10
3.0714285714281271
 20
-69.000000000000227
 30
0.0
 40
3.0
  1
31
1001
ACAD
1000
MTEXTBEGIN
1070
    73
1070
     1
1070
    44
1040
1.0
1070
    74
1070
     0
1000
MTEXTEND
  0
LINE
  5
404D
  8
250
 10
18.769999999999548
 20
-69.628333333333558
 30
0.0
 11
20.99999999999957
 21
-70.000000000000227
 31
0.0
  0
LINE
  5
404E
  8
250
 10
18.769999999999548
 20
-70.371666666666911
 30
0.0
 11
20.99999999999957
 21
-70.000000000000227
 31
0.0
  0
LINE
  5
404F
  8
250
 10
20.99999999999957
 20
-70.000000000000227
 30
0.0
 11
18.769999999999548
 21
-70.000000000000227
 31
0.0
  0
LINE
  5
4050
  8
250
 10
-7.7700000000004339
 20
-70.371666666666911
 30
0.0
 11
-10.00000000000041
 21
-70.000000000000227
 31
0.0
  0
LINE
  5
4051
  8
250
 10
-7.7700000000004339
 20
-69.628333333333558
 30
0.0
 11
-10.00000000000041
 21
-70.000000000000227
 31
0.0
  0
LINE
  5
4052
  8
250
 10
-10.00000000000041
 20
-70.000000000000227
 30
0.0
 11
-7.7700000000004339
 21
-70.000000000000227
 31
0.0
  0
TEXT
  5
4053
  8
250
 10
0.4285714285708764
 20
-76.000000000000199
 30
0.0
 40
3.0
  1
15
1001
ACAD
1000
MTEXTBEGIN
1070
    73
1070
     1
1070
    44
1040
1.0
1070
    74
1070
     0
1000
MTEXTEND
  0
LINE
  5
4054
  8
250
 10
8.7699999999993281
 20
-76.628333333333558
 30
0.0
 11
10.99999999999933
 21
-77.000000000000213
 31
0.0
  0
LINE
  5
4055
  8
250
 10
8.7699999999993281
 20
-77.371666666666911
 30
0.0
 11
10.99999999999933
 21
-77.000000000000213
 31
0.0
  0
LINE
  5
4056
  8
250
 10
10.99999999999933
 20
-77.000000000000213
 30
0.0
 11
8.7699999999993281
 21
-77.000000000000213
 31
0.0
  0
LINE
  5
4057
  8
250
 10
-1.7700000000005911
 20
-77.371666666666911
 30
0.0
 11
-4.0000000000005951
 21
-77.000000000000213
 31
0.0
  0
LINE
  5
4058
  8
250
 10
-1.7700000000005911
 20
-76.628333333333558
 30
0.0
 11
-4.0000000000005951
 21
-77.000000000000213
 31
0.0
  0
LINE
  5
4059
  8
250
 10
-4.0000000000005951
 20
-77.000000000000213
 30
0.0
 11
-1.7700000000005911
 21
-77.000000000000213
 31
0.0
  0
TEXT
  5
405A
  8
250
 10
12.92857142857086
 20
-76.000000000000199
 30
0.0
 40
3.0
  1
10
  0
LINE
  5
405B
  8
250
 10
18.769999999999548
 20
-76.628333333333558
 30
0.0
 11
20.99999999999957
 21
-77.000000000000213
 31
0.0
  0
LINE
  5
405C
  8
250
 10
18.769999999999548
 20
-77.371666666666911
 30
0.0
 11
20.99999999999957
 21
-77.000000000000213
 31
0.0
  0
LINE
  5
405D
  8
250
 10
20.99999999999957
 20
-77.000000000000213
 30
0.0
 11
18.769999999999548
 21
-77.000000000000213
 31
0.0
  0
LINE
  5
405E
  8
250
 10
13.22999999999934
 20
-77.371666666666911
 30
0.0
 11
10.99999999999933
 21
-77.000000000000213
 31
0.0
  0
LINE
  5
405F
  8
250
 10
13.22999999999934
 20
-76.628333333333558
 30
0.0
 11
10.99999999999933
 21
-77.000000000000213
 31
0.0
  0
LINE
  5
4060
  8
250
 10
10.99999999999933
 20
-77.000000000000213
 30
0.0
 11
13.22999999999934
 21
-77.000000000000213
 31
0.0
  0
LINE
  5
4061
  8
250
 10
-42.24178141048256
 20
-49.204141969658963
 30
0.0
 11
-71.098924267625421
 21
-49.204141969658963
 31
0.0
1001
ITEMNAME
1000
LNSP2
  0
TEXT
  5
4062
  8
250
 10
-68.670352839053976
 20
-48.204141969658949
 30
0.0
 40
3.0
  1
HSK-A100
  7
YOKO
1001
ITEMNAME
1000
LNSP3
1001
ACAD
1000
MTEXTBEGIN
1070
    73
1070
     1
1070
    44
1040
1.0
1070
    74
1070
     0
1000
MTEXTEND
  0
LINE
  5
4063
  8
250
 10
-36.164937616944869
 20
-38.678739769592021
 30
0.0
 11
-42.24178141048256
 21
-49.204141969658963
 31
0.0
1001
ACAD
1000
DSTYLE
1002
{
1070
     5
1000
OPEN
1070
    78
1070
     8
1070
   140
1040
3.0
1002
}
  0
LINE
  5
4064
  8
250
 10
-36.4868103920181
 20
-38.492906436258693
 30
0.0
 11
-35.049937616944881
 21
-36.747503119152732
 31
0.0
  0
LINE
  5
4065
  8
250
 10
-35.843064841871659
 20
-38.864573102925362
 30
0.0
 11
-35.049937616944881
 21
-36.747503119152732
 31
0.0
  0
LINE
  5
4066
  8
250
 10
-35.049937616944881
 20
-36.747503119152732
 30
0.0
 11
-36.164937616944869
 21
-38.678739769592021
 31
0.0
  0
INSERT
  5
472A
  8
250
  2
A$C669D558D
 10
-10.00000000000051
 20
0.0000000000002914
 30
0.0
  0
INSERT
  5
47E2
  8
250
  2
A$C49316937
 10
440.99999999990752
 20
0.0000000000002914
 30
0.0
  0
VIEWPORT
  5
22
 67
     1
  8
0
 10
261.51769911504419
 20
148.5
 30
0.0
 40
523.0353982300885
 41
297.0
 68
     1
 69
     1
1001
ACAD
1000
MVIEW
1002
{
1070
    16
1010
0.0
1020
0.0
1030
0.0
1010
0.0
1020
0.0
1030
1.0
1040
0.0
1040
297.0
1040
261.51769911504419
1040
148.5
1040
50.0
1040
0.0
1040
0.0
1070
     0
1070
   100
1070
     1
1070
     1
1070
     0
1070
     0
1070
     0
1070
     0
1040
0.0
1040
0.0
1040
0.0
1040
1.0
1040
1.0
1040
10.0
1040
10.0
1070
     0
1002
{
1002
}
1002
}
1001
GENIUS_GENODEF_13
1002
{
1000
HIER
1070
     0
1002
}
1002
{
1000
MANEDIT
1070
     0
1002
}
1002
{
1000
NOSEL
1070
     0
1002
}
1002
{
1000
BEHIND
1070
     0
1002
}
1002
{
1000
OTHER
1070
     0
1002
}
1002
{
1000
REACTOR
1002
}
1001
GENIUS_GENOBJ-N-SDF_13
1002
{
1000
OWNER
1000
GEN
1002
}
1001
GENIUS_GENSCREG_15
1000
PF
1040
1.0
1000
DF
1040
1.0
1000
MIN
1011
0.0
1021
0.0
1031
0.0
1021
0.0
1031
0.0
1000
MAX
1011
523.0353982300885
1021
0.0
1031
0.0
1021
297.0
1031
0.0
1000
FLAGS
1070
     4
  0
ENDSEC
  0
EOF
