  0
SECTION
  2
HEADER
  9
$ACADVER
  1
AC1009
  9
$INSBASE
 10
0.0
 20
0.0
 30
0.0
  9
$EXTMIN
 10
-35.763635124154113
 20
-22.0
 30
0.0
  9
$EXTMAX
 10
40.119630115681709
 20
25.0
 30
0.0
  9
$LIMMIN
 10
0.0
 20
0.0
  9
$LIMMAX
 10
297.0
 20
210.0
  9
$ORTHOMODE
 70
     0
  9
$REGENMODE
 70
     1
  9
$FILLMODE
 70
     1
  9
$QTEXTMODE
 70
     0
  9
$MIRRTEXT
 70
     1
  9
$DRAGMODE
 70
     2
  9
$LTSCALE
 40
10.0
  9
$OSMODE
 70
   103
  9
$ATTMODE
 70
     1
  9
$TEXTSIZE
 40
3.0
  9
$TRACEWID
 40
1.0
  9
$TEXTSTYLE
  7
YOKO
  9
$CLAYER
  8
241
  9
$CELTYPE
  6
BYLAYER
  9
$CECOLOR
 62
   256
  9
$DIMSCALE
 40
1.0
  9
$DIMASZ
 40
2.2299999999999991
  9
$DIMEXO
 40
0.5
  9
$DIMDLI
 40
7.0
  9
$DIMRND
 40
0.0
  9
$DIMDLE
 40
0.0
  9
$DIMEXE
 40
1.0
  9
$DIMTP
 40
0.0
  9
$DIMTM
 40
0.01
  9
$DIMTXT
 40
2.7999999999999989
  9
$DIMCEN
 40
0.0
  9
$DIMTSZ
 40
0.0
  9
$DIMTOL
 70
     0
  9
$DIMLIM
 70
     0
  9
$DIMTIH
 70
     0
  9
$DIMTOH
 70
     0
  9
$DIMSE1
 70
     0
  9
$DIMSE2
 70
     0
  9
$DIMTAD
 70
     3
  9
$DIMZIN
 70
     9
  9
$DIMBLK
  1
OPEN
  9
$DIMASO
 70
     1
  9
$DIMSHO
 70
     1
  9
$DIMPOST
  1

  9
$DIMAPOST
  1

  9
$DIMALT
 70
     0
  9
$DIMALTD
 70
     2
  9
$DIMALTF
 40
25.399999999999999
  9
$DIMLFAC
 40
1.0
  9
$DIMTOFL
 70
     1
  9
$DIMTVP
 40
0.0
  9
$DIMTIX
 70
     1
  9
$DIMSOXD
 70
     0
  9
$DIMSAH
 70
     0
  9
$DIMBLK1
  1

  9
$DIMBLK2
  1

  9
$DIMSTYLE
  2
BIGT
  9
$DIMCLRD
 70
   256
  9
$DIMCLRE
 70
   256
  9
$DIMCLRT
 70
    40
  9
$DIMTFAC
 40
1.0
  9
$DIMGAP
 40
1.0
  9
$LUNITS
 70
     2
  9
$LUPREC
 70
     6
  9
$SKETCHINC
 40
1.0
  9
$FILLETRAD
 40
0.0
  9
$AUNITS
 70
     0
  9
$AUPREC
 70
     6
  9
$MENU
  1
.
  9
$ELEVATION
 40
0.0
  9
$PELEVATION
 40
0.0
  9
$THICKNESS
 40
0.0
  9
$LIMCHECK
 70
     0
  9
$BLIPMODE
 70
     0
  9
$CHAMFERA
 40
0.2
  9
$CHAMFERB
 40
0.2
  9
$SKPOLY
 70
     0
  9
$TDCREATE
 40
2458820.4059662148
  9
$TDUPDATE
 40
2458820.4120603702
  9
$TDINDWG
 40
0.0055143866
  9
$TDUSRTIMER
 40
0.0055143056
  9
$USRTIMER
 70
     1
  9
$ANGBASE
 50
0.0
  9
$ANGDIR
 70
     0
  9
$PDMODE
 70
     1
  9
$PDSIZE
 40
0.0
  9
$PLINEWID
 40
0.0
  9
$COORDS
 70
     1
  9
$SPLFRAME
 70
     0
  9
$SPLINETYPE
 70
     6
  9
$SPLINESEGS
 70
     4
  9
$ATTDIA
 70
     1
  9
$ATTREQ
 70
     1
  9
$HANDLING
 70
     1
  9
$HANDSEED
  5
4675
  9
$SURFTAB1
 70
     6
  9
$SURFTAB2
 70
     6
  9
$SURFTYPE
 70
     6
  9
$SURFU
 70
     6
  9
$SURFV
 70
     6
  9
$UCSNAME
  2

  9
$UCSORG
 10
0.0
 20
0.0
 30
0.0
  9
$UCSXDIR
 10
1.0
 20
0.0
 30
0.0
  9
$UCSYDIR
 10
0.0
 20
1.0
 30
0.0
  9
$PUCSNAME
  2

  9
$PUCSORG
 10
0.0
 20
0.0
 30
0.0
  9
$PUCSXDIR
 10
1.0
 20
0.0
 30
0.0
  9
$PUCSYDIR
 10
0.0
 20
1.0
 30
0.0
  9
$USERI1
 70
     1
  9
$USERI2
 70
     0
  9
$USERI3
 70
     0
  9
$USERI4
 70
     0
  9
$USERI5
 70
     0
  9
$USERR1
 40
0.0
  9
$USERR2
 40
0.0
  9
$USERR3
 40
0.0
  9
$USERR4
 40
0.0
  9
$USERR5
 40
0.0
  9
$WORLDVIEW
 70
     1
  9
$SHADEDGE
 70
     3
  9
$SHADEDIF
 70
    70
  9
$TILEMODE
 70
     1
  9
$MAXACTVP
 70
    16
  9
$PLIMCHECK
 70
     0
  9
$PEXTMIN
 10
1.0000000000000000E+020
 20
1.0000000000000000E+020
 30
1.0000000000000000E+020
  9
$PEXTMAX
 10
-1.0000000000000000E+020
 20
-1.0000000000000000E+020
 30
-1.0000000000000000E+020
  9
$PLIMMIN
 10
0.0
 20
0.0
  9
$PLIMMAX
 10
420.0
 20
297.0
  9
$UNITMODE
 70
     0
  9
$VISRETAIN
 70
     1
  9
$PLINEGEN
 70
     0
  9
$PSLTSCALE
 70
     1
  0
ENDSEC
  0
SECTION
  2
TABLES
  0
TABLE
  2
VPORT
 70
     1
  0
VPORT
  2
*ACTIVE
 70
     0
 10
0.0
 20
0.0
 11
1.0
 21
1.0
 12
14.63860598249607
 22
2.8577217034669919
 13
0.0
 23
0.0
 14
7.0
 24
7.0
 15
7.0
 25
7.0
 16
0.0
 26
0.0
 36
1.0
 17
0.0
 27
0.0
 37
0.0
 40
94.315145749179834
 41
1.4551495016611291
 42
50.0
 43
0.0
 44
0.0
 50
0.0
 51
0.0
 71
     0
 72
  2000
 73
     1
 74
     0
 75
     0
 76
     1
 77
     0
 78
     0
  0
ENDTAB
  0
TABLE
  2
LTYPE
 70
    18
  0
LTYPE
  2
CONTINUOUS
 70
     0
  3
Solid line
 72
    65
 73
     0
 40
0.0
  0
LTYPE
  2
CENTER2
 70
     0
  3
___ _ ___ _ ___ _ ___ _ ___ _ ___ _ ___ _ ___ _
 72
    65
 73
     4
 40
1.125
 49
0.75
 49
-0.125
 49
0.125
 49
-0.125
  0
LTYPE
  2
HIDDEN2
 70
     0
  3
_ _ _ _ _ _ _ _ _ _ _ _ _ _ _ _ _ _ _ _ _ _ _ _
 72
    65
 73
     2
 40
0.1875
 49
0.125
 49
-0.0625
  0
LTYPE
  2
PHANTOM2
 70
     0
  3
___ _ _ ___ _ _ ___ _ _ ___ _ _ ___ _ _ ___ _ _
 72
    65
 73
     6
 40
1.25
 49
0.625
 49
-0.125
 49
0.125
 49
-0.125
 49
0.125
 49
-0.125
  0
LTYPE
  2
AM_ISO02W050
 70
     0
  3
__ __ __ __ __ __ __ __ __ __ __ __ __ __ __
 72
    65
 73
     2
 40
7.5
 49
6.0
 49
-1.5
  0
LTYPE
  2
AMCONSTR
 70
     0
  3
_______________________
 72
    65
 73
     2
 40
9999.0
 49
9999.0
 49
0.0
  0
LTYPE
  2
ACISOWELD
 70
     0
  3
_ _ _ _ _
 72
    65
 73
     2
 40
2.0
 49
2.0
 49
-1.0
  0
LTYPE
  2
ACISOTGB
 70
     0
  3
__ . . __ . .
 72
    65
 73
     6
 40
9.0
 49
4.0
 49
-1.0
 49
1.0
 49
-1.0
 49
1.0
 49
-1.0
  0
LTYPE
  2
ACISOTGL
 70
     0
  3
_ _ _ _ _
 72
    65
 73
     2
 40
3.0
 49
2.0
 49
-1.0
  0
LTYPE
  2
ACJISTGB
 70
     0
  3
__ . . __ . .
 72
    65
 73
     6
 40
9.0
 49
4.0
 49
-1.0
 49
1.0
 49
-1.0
 49
1.0
 49
-1.0
  0
LTYPE
  2
ACJISTGL
 70
     0
  3
_ _ _ _ _
 72
    65
 73
     2
 40
3.0
 49
2.0
 49
-1.0
  0
ENDTAB
  0
TABLE
  2
LAYER
 70
    15
  0
LAYER
  2
0
 70
     0
 62
     7
  6
CONTINUOUS
  0
LAYER
  2
DEFPOINTS
 70
     0
 62
     7
  6
CONTINUOUS
  0
LAYER
  2
245
 70
     0
 62
     2
  6
CENTER2
  0
LAYER
  2
240
 70
     0
 62
     4
  6
CONTINUOUS
  0
LAYER
  2
241
 70
     0
 62
   211
  6
CONTINUOUS
  0
LAYER
  2
242
 70
     0
 62
     3
  6
CONTINUOUS
  0
LAYER
  2
250
 70
     0
 62
     3
  6
CONTINUOUS
  0
ENDTAB
  0
TABLE
  2
STYLE
 70
     7
  0
STYLE
  2
STANDARD
 70
     0
 40
0.0
 41
1.0
 50
0.0
 71
     0
 42
3.0
  3
romans.shx
  4
extfont.shx
  0
STYLE
  2
ACISOTS
 70
     0
 40
1.0
 41
1.0
 50
0.0
 71
     0
 42
3.0
  3
amgdt.shx
  4
extfont.shx
  0
STYLE
  2
ACISOGDT
 70
     0
 40
0.0
 41
1.0
 50
0.0
 71
     0
 42
3.0
  3
amgdt.shx
  4
extfont.shx
  0
STYLE
  2
ACJISTS
 70
     0
 40
1.0
 41
1.0
 50
0.0
 71
     0
 42
3.0
  3
amgdt.shx
  4
extfont.shx
  0
STYLE
  2
ACJISGDT
 70
     0
 40
0.0
 41
1.0
 50
0.0
 71
     0
 42
3.0
  3
amgdt.shx
  4
extfont.shx
  0
STYLE
  2
YOKO
 70
     0
 40
0.0
 41
1.0
 50
0.0
 71
     0
 42
3.0
  3
romans.shx
  4
extfont.shx
  0
ENDTAB
  0
TABLE
  2
VIEW
 70
     0
  0
ENDTAB
  0
TABLE
  2
UCS
 70
     0
  0
ENDTAB
  0
TABLE
  2
APPID
 70
    36
  0
APPID
  2
ACAD
 70
     0
  0
APPID
  2
GLOBAL
 70
     0
  0
APPID
  2
DETAIL
 70
     0
  0
APPID
  2
GRPNAME
 70
     0
  0
APPID
  2
GPARA
 70
     0
  0
APPID
  2
MCAD_NO_VIS
 70
     0
  0
APPID
  2
ACAD_TEMP_GRAPHIC
 70
     0
  0
APPID
  2
ACATTRIBSERVICES
 70
     0
  0
APPID
  2
GENIUS_GENSCREG_15
 70
     0
  0
APPID
  2
GENIUS_GENODEF_13
 70
     0
  0
APPID
  2
GENIUS_GENOBJ-N-SDF_13
 70
     0
  0
APPID
  2
GENIUS_GENREC_14
 70
     0
  0
APPID
  2
GENIUS_GENOBJ-N-REC_13
 70
     0
  0
APPID
  2
GENIUS_GENDIMSH_14
 70
     0
  0
APPID
  2
GENIUS_GENOBJ-N-DIM_13
 70
     0
  0
APPID
  2
GENIUS_GENDIM_13
 70
     0
  0
APPID
  2
GENIUS_GENDTOL_13
 70
     0
  0
APPID
  2
GENIUS_GENOLIS_13
 70
     0
  0
APPID
  2
GENIUS_GENOENT_13
 70
     0
  0
APPID
  2
GENIUS_GENOBJ-F-FEM_13
 70
     0
  0
APPID
  2
GENIUS_GENOREF_13
 70
     0
  0
APPID
  2
GENIUS_GEFFEM_13
 70
     0
  0
APPID
  2
GENIUS_GEFFEMP_13
 70
     0
  0
APPID
  2
AD_DRAW
 70
     0
  0
APPID
  2
DESIGNERASSEMBLIES
 70
     0
  0
APPID
  2
ACADM_DIM_EDIT
 70
     0
  0
APPID
  2
AMDT_DM_ADJ
 70
     0
  0
APPID
  2
ITEMNAME
 70
     0
  0
APPID
  2
GENIUS_GENOBJ-N-FIL_13
 70
     0
  0
APPID
  2
GENIUS_GENFIL_13
 70
     0
  0
APPID
  2
GENIUS_GENOBJ-N-CHA_13
 70
     0
  0
APPID
  2
ACAD_NAV_VCDISPLAY
 70
     0
  0
APPID
  2
ACAECLAYERSTANDARD
 70
     0
  0
APPID
  2
ACAD_DSTYLE_DIMINSPECT
 70
     0
  0
APPID
  2
ACAD_EXEMPT_FROM_CAD_STANDARDS
 70
     0
  0
APPID
  2
ACAD_MLEADERVER
 70
     0
  0
ENDTAB
  0
TABLE
  2
DIMSTYLE
 70
    26
  0
DIMSTYLE
  2
BIGT
 70
     0
  3

  4

  5
OPEN
  6

  7

 40
1.0
 41
2.2299999999999991
 42
0.5
 43
7.0
 44
1.0
 45
0.0
 46
0.0
 47
0.0
 48
0.01
140
2.7999999999999989
141
0.0
142
0.0
143
25.399999999999999
144
1.0
145
0.0
146
1.0
147
1.0
 71
     0
 72
     0
 73
     0
 74
     0
 75
     0
 76
     0
 77
     3
 78
     9
170
     0
171
     2
172
     1
173
     0
174
     1
175
     0
176
   256
177
   256
178
    40
  0
DIMSTYLE
  2
AM_ISO
 70
     0
  3

  4
"
  5

  6

  7

 40
1.0
 41
2.5
 42
1.0
 43
10.0
 44
1.0
 45
0.0
 46
0.0
 47
0.1
 48
0.1
140
3.5
141
0.0
142
0.0
143
0.0393701
144
1.0
145
0.0
146
0.71
147
1.5
 71
     0
 72
     0
 73
     0
 74
     0
 75
     0
 76
     0
 77
     1
 78
     8
170
     0
171
     2
172
     1
173
     0
174
     0
175
     0
176
   256
177
   256
178
     2
  0
DIMSTYLE
  2
AM_ISO$3
 70
     0
  3

  4
"
  5

  6

  7

 40
1.0
 41
2.5
 42
1.0
 43
10.0
 44
1.0
 45
0.0
 46
0.0
 47
0.1
 48
0.1
140
3.5
141
0.0
142
0.0
143
0.0393701
144
1.0
145
0.0
146
0.71
147
1.5
 71
     0
 72
     0
 73
     0
 74
     1
 75
     0
 76
     0
 77
     1
 78
     8
170
     0
171
     2
172
     0
173
     0
174
     0
175
     0
176
   256
177
   256
178
     2
  0
DIMSTYLE
  2
AM_ISO$4
 70
     0
  3

  4
"
  5

  6

  7

 40
1.0
 41
2.5
 42
1.0
 43
10.0
 44
1.0
 45
0.0
 46
0.0
 47
0.1
 48
0.1
140
3.5
141
0.0
142
0.0
143
0.0393701
144
1.0
145
0.0
146
0.71
147
1.5
 71
     0
 72
     0
 73
     0
 74
     1
 75
     0
 76
     0
 77
     1
 78
     8
170
     0
171
     2
172
     0
173
     0
174
     0
175
     0
176
   256
177
   256
178
     2
  0
DIMSTYLE
  2
AM_ISO$6
 70
     0
  3

  4
"
  5

  6

  7

 40
1.0
 41
2.5
 42
1.0
 43
10.0
 44
1.0
 45
0.0
 46
0.0
 47
0.1
 48
0.1
140
3.5
141
0.0
142
0.0
143
0.0393701
144
1.0
145
0.0
146
0.71
147
1.5
 71
     0
 72
     0
 73
     0
 74
     0
 75
     0
 76
     0
 77
     0
 78
     8
170
     0
171
     2
172
     1
173
     0
174
     0
175
     0
176
   256
177
   256
178
     2
  0
DIMSTYLE
  2
AM_ISO$7
 70
     0
  3

  4
"
  5

  6

  7

 40
1.0
 41
2.5
 42
1.0
 43
10.0
 44
1.0
 45
0.0
 46
0.0
 47
0.1
 48
0.1
140
5.0
141
0.0
142
0.0
143
0.0393701
144
1.0
145
0.0
146
0.71
147
1.5
 71
     0
 72
     0
 73
     0
 74
     0
 75
     0
 76
     0
 77
     1
 78
     8
170
     0
171
     2
172
     1
173
     0
174
     0
175
     0
176
   256
177
   256
178
     2
  0
DIMSTYLE
  2
AM_ISO$SF
 70
     0
  3

  4
"
  5

  6

  7

 40
1.0
 41
2.5
 42
1.0
 43
10.0
 44
1.0
 45
0.0
 46
0.0
 47
0.1
 48
0.1
140
3.5
141
0.0
142
0.0
143
0.0393701
144
1.0
145
0.0
146
0.71
147
1.5
 71
     0
 72
     0
 73
     0
 74
     0
 75
     1
 76
     1
 77
     1
 78
     8
170
     0
171
     2
172
     1
173
     0
174
     0
175
     0
176
   256
177
   256
178
     2
  0
DIMSTYLE
  2
AM_ISO$SH
 70
     0
  3

  4
"
  5

  6
GENAXEH
  7

 40
1.0
 41
2.5
 42
1.0
 43
10.0
 44
1.0
 45
0.0
 46
0.0
 47
0.1
 48
0.1
140
3.5
141
0.0
142
0.0
143
0.0393701
144
2.0
145
0.0
146
0.71
147
1.5
 71
     0
 72
     0
 73
     0
 74
     0
 75
     1
 76
     1
 77
     1
 78
     8
170
     0
171
     2
172
     1
173
     1
174
     0
175
     0
176
   256
177
   256
178
     2
  0
DIMSTYLE
  2
BIGT$2
 70
     0
  3

  4

  5
OPEN
  6

  7

 40
1.0
 41
2.2299999999999991
 42
0.5
 43
7.0
 44
1.0
 45
0.0
 46
0.0
 47
0.0
 48
0.01
140
2.7999999999999989
141
0.0
142
0.0
143
25.399999999999999
144
1.0
145
0.0
146
1.0
147
1.0
 71
     0
 72
     0
 73
     0
 74
     0
 75
     0
 76
     0
 77
     3
 78
     9
170
     0
171
     2
172
     1
173
     0
174
     0
175
     0
176
   256
177
   256
178
    40
  0
DIMSTYLE
  2
BIGT$3
 70
     0
  3

  4

  5
OPEN
  6

  7

 40
1.0
 41
2.2299999999999991
 42
0.5
 43
2.5
 44
1.0
 45
0.0
 46
0.0
 47
0.0
 48
0.01
140
2.7999999999999989
141
0.0
142
0.0
143
25.399999999999999
144
1.0
145
0.0
146
1.0
147
1.0
 71
     0
 72
     0
 73
     0
 74
     0
 75
     0
 76
     0
 77
     3
 78
     9
170
     0
171
     2
172
     1
173
     0
174
     0
175
     0
176
   256
177
   256
178
    40
  0
DIMSTYLE
  2
BIGT$7
 70
     0
  3

  4

  5
OPEN
  6

  7

 40
0.0
 41
2.2299999999999991
 42
0.5
 43
7.0
 44
1.0
 45
0.0
 46
0.0
 47
0.0
 48
0.01
140
2.7999999999999989
141
0.0
142
0.0
143
25.399999999999999
144
1.0
145
0.0
146
1.0
147
1.0
 71
     0
 72
     0
 73
     0
 74
     0
 75
     0
 76
     0
 77
     3
 78
     9
170
     0
171
     2
172
     0
173
     0
174
     0
175
     0
176
   256
177
   256
178
    40
  0
DIMSTYLE
  2
BIGT$6
 70
     0
  3

  4

  5
OPEN
  6

  7

 40
1.0
 41
2.2299999999999991
 42
0.5
 43
2.5
 44
1.0
 45
0.0
 46
0.0
 47
0.0
 48
0.01
140
2.7999999999999989
141
0.0
142
0.0
143
25.399999999999999
144
1.0
145
0.0
146
1.0
147
1.0
 71
     0
 72
     0
 73
     0
 74
     0
 75
     0
 76
     0
 77
     3
 78
     9
170
     0
171
     2
172
     1
173
     0
174
     0
175
     0
176
   256
177
   256
178
    40
  0
DIMSTYLE
  2
BIGT$0
 70
     0
  3

  4

  5
OPEN
  6

  7

 40
1.0
 41
2.2299999999999991
 42
0.5
 43
7.0
 44
1.0
 45
0.0
 46
0.0
 47
0.0
 48
0.01
140
2.7999999999999989
141
0.0
142
0.0
143
25.399999999999999
144
1.0
145
0.0
146
1.0
147
1.0
 71
     0
 72
     0
 73
     0
 74
     0
 75
     0
 76
     0
 77
     3
 78
     9
170
     0
171
     2
172
     1
173
     0
174
     1
175
     0
176
   256
177
   256
178
    40
  0
DIMSTYLE
  2
BIGT$4
 70
     0
  3

  4

  5
OPEN
  6

  7

 40
1.0
 41
2.2299999999999991
 42
0.5
 43
2.5
 44
1.0
 45
0.0
 46
0.0
 47
0.0
 48
0.01
140
2.7999999999999989
141
0.0
142
0.0
143
25.399999999999999
144
1.0
145
0.0
146
1.0
147
1.0
 71
     0
 72
     0
 73
     0
 74
     0
 75
     0
 76
     0
 77
     3
 78
     9
170
     0
171
     2
172
     1
173
     0
174
     0
175
     0
176
   256
177
   256
178
    40
  0
DIMSTYLE
  2
BIGT$SH
 70
     0
  3

  4

  5
OPEN
  6

  7

 40
1.0
 41
2.2299999999999991
 42
0.5
 43
7.0
 44
1.0
 45
0.0
 46
0.0
 47
0.0
 48
0.0
140
2.7999999999999989
141
0.0
142
0.0
143
25.399999999999999
144
1.0
145
0.0
146
1.0
147
1.0
 71
     0
 72
     0
 73
     0
 74
     0
 75
     0
 76
     0
 77
     3
 78
     9
170
     0
171
     2
172
     1
173
     0
174
     0
175
     0
176
   256
177
   256
178
    40
  0
DIMSTYLE
  2
BIGT$SF
 70
     0
  3

  4

  5
OPEN
  6

  7

 40
1.0
 41
2.2299999999999991
 42
0.5
 43
7.0
 44
1.0
 45
0.0
 46
0.0
 47
0.0
 48
0.0
140
2.7999999999999989
141
0.0
142
0.0
143
25.399999999999999
144
1.0
145
0.0
146
1.0
147
1.0
 71
     0
 72
     0
 73
     0
 74
     0
 75
     0
 76
     0
 77
     3
 78
     9
170
     0
171
     2
172
     1
173
     0
174
     0
175
     0
176
   256
177
   256
178
    40
  0
DIMSTYLE
  2
TECHNICAL_OSAKA
 70
     0
  3

  4
"
  5
OPEN30
  6

  7

 40
1.0
 41
2.5
 42
1.0
 43
10.0
 44
1.0
 45
0.0
 46
0.0
 47
0.1
 48
0.1
140
2.7999999999999989
141
0.0
142
0.0
143
0.0393701
144
1.0
145
0.0
146
0.71
147
1.5
 71
     0
 72
     0
 73
     0
 74
     0
 75
     0
 76
     0
 77
     3
 78
     8
170
     0
171
     2
172
     1
173
     0
174
     0
175
     0
176
   256
177
   256
178
    40
  0
DIMSTYLE
  2
TECHNICAL_OSAKA$3
 70
     0
  3

  4
"
  5
OPEN30
  6

  7

 40
1.0
 41
2.5
 42
1.0
 43
10.0
 44
1.0
 45
0.0
 46
0.0
 47
0.1
 48
0.1
140
2.7999999999999989
141
0.0
142
0.0
143
0.0393701
144
1.0
145
0.0
146
0.71
147
1.5
 71
     0
 72
     0
 73
     0
 74
     1
 75
     0
 76
     0
 77
     3
 78
     8
170
     0
171
     2
172
     0
173
     0
174
     0
175
     0
176
   256
177
   256
178
    40
  0
DIMSTYLE
  2
TECHNICAL_OSAKA$4
 70
     0
  3

  4
"
  5
OPEN30
  6

  7

 40
1.0
 41
2.5
 42
1.0
 43
10.0
 44
1.0
 45
0.0
 46
0.0
 47
0.1
 48
0.1
140
2.7999999999999989
141
0.0
142
0.0
143
0.0393701
144
1.0
145
0.0
146
0.71
147
1.5
 71
     0
 72
     0
 73
     0
 74
     1
 75
     0
 76
     0
 77
     3
 78
     8
170
     0
171
     2
172
     0
173
     0
174
     0
175
     0
176
   256
177
   256
178
    40
  0
DIMSTYLE
  2
TECHNICAL_OSAKA$6
 70
     0
  3

  4
"
  5
OPEN30
  6

  7

 40
1.0
 41
2.5
 42
1.0
 43
10.0
 44
1.0
 45
0.0
 46
0.0
 47
0.1
 48
0.1
140
2.7999999999999989
141
0.0
142
0.0
143
0.0393701
144
1.0
145
0.0
146
0.71
147
1.5
 71
     0
 72
     0
 73
     0
 74
     0
 75
     0
 76
     0
 77
     0
 78
     8
170
     0
171
     2
172
     1
173
     0
174
     0
175
     0
176
   256
177
   256
178
    40
  0
DIMSTYLE
  2
TECHNICAL_OSAKA$7
 70
     0
  3

  4
"
  5
OPEN30
  6

  7

 40
1.0
 41
2.5
 42
1.0
 43
10.0
 44
1.0
 45
0.0
 46
0.0
 47
0.1
 48
0.1
140
2.7999999999999989
141
0.0
142
0.0
143
0.0393701
144
1.0
145
0.0
146
0.71
147
1.5
 71
     0
 72
     0
 73
     0
 74
     0
 75
     0
 76
     0
 77
     3
 78
     8
170
     0
171
     2
172
     1
173
     0
174
     0
175
     0
176
   256
177
   256
178
    40
  0
DIMSTYLE
  2
TECHNICAL_OSAKA$SF
 70
     0
  3

  4
"
  5
OPEN30
  6
OPEN30
  7
OPEN30
 40
1.0
 41
2.5
 42
1.0
 43
10.0
 44
1.0
 45
0.0
 46
0.0
 47
0.1
 48
0.1
140
3.5
141
0.0
142
0.0
143
0.0393701
144
1.0
145
0.0
146
0.71
147
1.5
 71
     0
 72
     0
 73
     0
 74
     0
 75
     1
 76
     1
 77
     3
 78
     8
170
     0
171
     2
172
     1
173
     0
174
     0
175
     0
176
   256
177
   256
178
    40
  0
DIMSTYLE
  2
TECHNICAL_OSAKA$SH
 70
     0
  3

  4
"
  5
OPEN30
  6
GENAXEH
  7
OPEN30
 40
1.0
 41
2.5
 42
1.0
 43
10.0
 44
1.0
 45
0.0
 46
0.0
 47
0.1
 48
0.1
140
3.5
141
0.0
142
0.0
143
0.0393701
144
2.0
145
0.0
146
0.71
147
1.5
 71
     0
 72
     0
 73
     0
 74
     0
 75
     1
 76
     1
 77
     3
 78
     8
170
     0
171
     2
172
     1
173
     1
174
     0
175
     0
176
   256
177
   256
178
    40
  0
ENDTAB
  0
ENDSEC
  0
SECTION
  2
BLOCKS
  0
BLOCK
  8
0
  2
$MODEL_SPACE
 70
     0
 10
0.0
 20
0.0
 30
0.0
  3
$MODEL_SPACE
  1

  0
ENDBLK
  5
1C
  8
0
  0
BLOCK
 67
     1
  8
0
  2
$PAPER_SPACE
 70
     0
 10
0.0
 20
0.0
 30
0.0
  3
$PAPER_SPACE
  1

  0
ENDBLK
  5
19
 67
     1
  8
0
  0
BLOCK
  8
0
  2
_OPEN
 70
     0
 10
0.0
 20
0.0
 30
0.0
  3
_OPEN
  1

  0
LINE
  5
442C
  8
0
  6
BYBLOCK
 62
     0
 10
-1.0
 20
0.1666666666666666
 30
0.0
 11
0.0
 21
0.0
 31
0.0
  0
LINE
  5
442D
  8
0
  6
BYBLOCK
 62
     0
 10
-1.0
 20
-0.1666666666666666
 30
0.0
 11
0.0
 21
0.0
 31
0.0
  0
LINE
  5
442E
  8
0
  6
BYBLOCK
 62
     0
 10
0.0
 20
0.0
 30
0.0
 11
-1.0
 21
0.0
 31
0.0
  0
ENDBLK
  5
442F
  8
0
  0
BLOCK
  8
0
  2
GENAXEH
 70
     0
 10
0.0
 20
0.0
 30
0.0
  3
GENAXEH
  1

  0
LINE
  5
4467
  8
0
 10
-1.0
 20
0.0
 30
0.0
 11
1.0
 21
0.0
 31
0.0
  0
ENDBLK
  5
4468
  8
0
  0
BLOCK
  8
0
  2
_OPEN30
 70
     0
 10
0.0
 20
0.0
 30
0.0
  3
_OPEN30
  1

  0
LINE
  5
44A3
  8
0
  6
BYBLOCK
 62
     0
 10
-1.0
 20
0.26794919
 30
0.0
 11
0.0
 21
0.0
 31
0.0
  0
LINE
  5
44A4
  8
0
  6
BYBLOCK
 62
     0
 10
0.0
 20
0.0
 30
0.0
 11
-1.0
 21
-0.26794919
 31
0.0
  0
LINE
  5
44A5
  8
0
  6
BYBLOCK
 62
     0
 10
0.0
 20
0.0
 30
0.0
 11
-1.0
 21
0.0
 31
0.0
  0
ENDBLK
  5
44A6
  8
0
  0
BLOCK
  8
0
  2
*U20
 70
     1
 10
0.0
 20
0.0
 30
0.0
  3
*U20
  1

  0
TEXT
  5
4522
  8
241
 62
    40
 10
-8.6549062622964144
 20
-6.411610086917328
 30
0.0
 40
2.7999999999999989
  1
\U+220512.8
 50
90.0
  0
ENDBLK
  5
4524
  8
0
  0
BLOCK
  8
0
  2
*U21
 70
     1
 10
0.0
 20
0.0
 30
0.0
  3
*U21
  1

  0
TEXT
  5
452A
  8
241
 62
    40
 10
-29.399999999999999
 20
-20.0
 30
0.0
 40
2.7999999999999989
  1
6
  0
ENDBLK
  5
452C
  8
0
  0
BLOCK
  8
0
  2
*U22
 70
     1
 10
0.0
 20
0.0
 30
0.0
  3
*U22
  1

  0
TEXT
  5
452E
  8
241
 62
    40
 10
14.58333333333333
 20
-20.0
 30
0.0
 40
2.7999999999999989
  1
38.5
  0
ENDBLK
  5
4530
  8
0
  0
ENDSEC
  0
SECTION
  2
ENTITIES
  0
LINE
  5
41E9
  8
245
  6
CENTER2
 10
-0.882076684034672
 20
0.0
 30
0.0
 11
40.119630115681709
 21
0.0
 31
0.0
  0
LINE
  5
41EA
  8
240
  6
CONTINUOUS
 10
3.4313708498975468
 20
6.0000000000000417
 30
0.0
 11
37.900000000000013
 21
6.0000000000000142
 31
0.0
  0
LINE
  5
41EB
  8
245
  6
CENTER2
 10
-28.000000000000011
 20
-7.6932038841756301
 30
0.0
 11
-27.999999999999989
 21
7.6932038841756301
 31
0.0
  0
LINE
  5
41EC
  8
245
  6
CENTER2
 10
-35.763635124154113
 20
-0.0377153311950309
 30
0.0
 11
-20.367139321671232
 21
-0.0377153311950309
 31
0.0
  0
LINE
  5
41ED
  8
241
  6
CONTINUOUS
 10
7.0
 20
0.0
 30
0.0
 11
7.0000000000009939
 21
3.4641016151377211
 31
0.0
  0
POLYLINE
  8
241
  5
4531
  66
     1
 10
0.000000
 20
0.000000
 30
0.000000
  70
     8
  0
VERTEX
  8
241
  5
4532
 10
1.03402
 20
3.49338
 30
0.000000
  70
    32
  0
VERTEX
  8
241
  5
4533
 10
1.03868
 20
3.48230
 30
0.000000
  70
    32
  0
VERTEX
  8
241
  5
4534
 10
1.04333
 20
3.47122
 30
0.000000
  70
    32
  0
VERTEX
  8
241
  5
4535
 10
1.04798
 20
3.46014
 30
0.000000
  70
    32
  0
VERTEX
  8
241
  5
4536
 10
1.05263
 20
3.44907
 30
0.000000
  70
    32
  0
VERTEX
  8
241
  5
4537
 10
1.05727
 20
3.43799
 30
0.000000
  70
    32
  0
VERTEX
  8
241
  5
4538
 10
1.06190
 20
3.42691
 30
0.000000
  70
    32
  0
VERTEX
  8
241
  5
4539
 10
1.06652
 20
3.41583
 30
0.000000
  70
    32
  0
VERTEX
  8
241
  5
453A
 10
1.07113
 20
3.40476
 30
0.000000
  70
    32
  0
VERTEX
  8
241
  5
453B
 10
1.07573
 20
3.39368
 30
0.000000
  70
    32
  0
VERTEX
  8
241
  5
453C
 10
1.08031
 20
3.38260
 30
0.000000
  70
    32
  0
VERTEX
  8
241
  5
453D
 10
1.08488
 20
3.37153
 30
0.000000
  70
    32
  0
VERTEX
  8
241
  5
453E
 10
1.08943
 20
3.36045
 30
0.000000
  70
    32
  0
VERTEX
  8
241
  5
453F
 10
1.09396
 20
3.34937
 30
0.000000
  70
    32
  0
VERTEX
  8
241
  5
4540
 10
1.09847
 20
3.33829
 30
0.000000
  70
    32
  0
VERTEX
  8
241
  5
4541
 10
1.10295
 20
3.32722
 30
0.000000
  70
    32
  0
VERTEX
  8
241
  5
4542
 10
1.10742
 20
3.31614
 30
0.000000
  70
    32
  0
VERTEX
  8
241
  5
4543
 10
1.11185
 20
3.30506
 30
0.000000
  70
    32
  0
VERTEX
  8
241
  5
4544
 10
1.11626
 20
3.29399
 30
0.000000
  70
    32
  0
VERTEX
  8
241
  5
4545
 10
1.12064
 20
3.28291
 30
0.000000
  70
    32
  0
VERTEX
  8
241
  5
4546
 10
1.12499
 20
3.27183
 30
0.000000
  70
    32
  0
VERTEX
  8
241
  5
4547
 10
1.12931
 20
3.26075
 30
0.000000
  70
    32
  0
VERTEX
  8
241
  5
4548
 10
1.13359
 20
3.24968
 30
0.000000
  70
    32
  0
VERTEX
  8
241
  5
4549
 10
1.13783
 20
3.23860
 30
0.000000
  70
    32
  0
VERTEX
  8
241
  5
454A
 10
1.14204
 20
3.22752
 30
0.000000
  70
    32
  0
VERTEX
  8
241
  5
454B
 10
1.14622
 20
3.21644
 30
0.000000
  70
    32
  0
VERTEX
  8
241
  5
454C
 10
1.15035
 20
3.20537
 30
0.000000
  70
    32
  0
VERTEX
  8
241
  5
454D
 10
1.15443
 20
3.19429
 30
0.000000
  70
    32
  0
VERTEX
  8
241
  5
454E
 10
1.15848
 20
3.18321
 30
0.000000
  70
    32
  0
VERTEX
  8
241
  5
454F
 10
1.16248
 20
3.17214
 30
0.000000
  70
    32
  0
VERTEX
  8
241
  5
4550
 10
1.16643
 20
3.16106
 30
0.000000
  70
    32
  0
VERTEX
  8
241
  5
4551
 10
1.17034
 20
3.14998
 30
0.000000
  70
    32
  0
VERTEX
  8
241
  5
4552
 10
1.17419
 20
3.13890
 30
0.000000
  70
    32
  0
VERTEX
  8
241
  5
4553
 10
1.17799
 20
3.12783
 30
0.000000
  70
    32
  0
VERTEX
  8
241
  5
4554
 10
1.18174
 20
3.11675
 30
0.000000
  70
    32
  0
VERTEX
  8
241
  5
4555
 10
1.18544
 20
3.10567
 30
0.000000
  70
    32
  0
VERTEX
  8
241
  5
4556
 10
1.18907
 20
3.09459
 30
0.000000
  70
    32
  0
VERTEX
  8
241
  5
4557
 10
1.19265
 20
3.08352
 30
0.000000
  70
    32
  0
VERTEX
  8
241
  5
4558
 10
1.19617
 20
3.07244
 30
0.000000
  70
    32
  0
VERTEX
  8
241
  5
4559
 10
1.19963
 20
3.06136
 30
0.000000
  70
    32
  0
VERTEX
  8
241
  5
455A
 10
1.20302
 20
3.05028
 30
0.000000
  70
    32
  0
VERTEX
  8
241
  5
455B
 10
1.20635
 20
3.03921
 30
0.000000
  70
    32
  0
VERTEX
  8
241
  5
455C
 10
1.20962
 20
3.02813
 30
0.000000
  70
    32
  0
VERTEX
  8
241
  5
455D
 10
1.21281
 20
3.01705
 30
0.000000
  70
    32
  0
VERTEX
  8
241
  5
455E
 10
1.21594
 20
3.00598
 30
0.000000
  70
    32
  0
VERTEX
  8
241
  5
455F
 10
1.21900
 20
2.99490
 30
0.000000
  70
    32
  0
VERTEX
  8
241
  5
4560
 10
1.22198
 20
2.98382
 30
0.000000
  70
    32
  0
VERTEX
  8
241
  5
4561
 10
1.22489
 20
2.97274
 30
0.000000
  70
    32
  0
VERTEX
  8
241
  5
4562
 10
1.22772
 20
2.96167
 30
0.000000
  70
    32
  0
VERTEX
  8
241
  5
4563
 10
1.23048
 20
2.95059
 30
0.000000
  70
    32
  0
VERTEX
  8
241
  5
4564
 10
1.23315
 20
2.93951
 30
0.000000
  70
    32
  0
VERTEX
  8
241
  5
4565
 10
1.23575
 20
2.92843
 30
0.000000
  70
    32
  0
VERTEX
  8
241
  5
4566
 10
1.23826
 20
2.91736
 30
0.000000
  70
    32
  0
VERTEX
  8
241
  5
4567
 10
1.24069
 20
2.90628
 30
0.000000
  70
    32
  0
VERTEX
  8
241
  5
4568
 10
1.24303
 20
2.89520
 30
0.000000
  70
    32
  0
VERTEX
  8
241
  5
4569
 10
1.24529
 20
2.88412
 30
0.000000
  70
    32
  0
VERTEX
  8
241
  5
456A
 10
1.24745
 20
2.87305
 30
0.000000
  70
    32
  0
VERTEX
  8
241
  5
456B
 10
1.24953
 20
2.86197
 30
0.000000
  70
    32
  0
VERTEX
  8
241
  5
456C
 10
1.25151
 20
2.85089
 30
0.000000
  70
    32
  0
VERTEX
  8
241
  5
456D
 10
1.25340
 20
2.83981
 30
0.000000
  70
    32
  0
VERTEX
  8
241
  5
456E
 10
1.25520
 20
2.82874
 30
0.000000
  70
    32
  0
VERTEX
  8
241
  5
456F
 10
1.25690
 20
2.81766
 30
0.000000
  70
    32
  0
VERTEX
  8
241
  5
4570
 10
1.25849
 20
2.80658
 30
0.000000
  70
    32
  0
VERTEX
  8
241
  5
4571
 10
1.25999
 20
2.79551
 30
0.000000
  70
    32
  0
VERTEX
  8
241
  5
4572
 10
1.26139
 20
2.78443
 30
0.000000
  70
    32
  0
VERTEX
  8
241
  5
4573
 10
1.26268
 20
2.77335
 30
0.000000
  70
    32
  0
VERTEX
  8
241
  5
4574
 10
1.26387
 20
2.76227
 30
0.000000
  70
    32
  0
VERTEX
  8
241
  5
4575
 10
1.26495
 20
2.75120
 30
0.000000
  70
    32
  0
VERTEX
  8
241
  5
4576
 10
1.26593
 20
2.74012
 30
0.000000
  70
    32
  0
VERTEX
  8
241
  5
4577
 10
1.26679
 20
2.72904
 30
0.000000
  70
    32
  0
VERTEX
  8
241
  5
4578
 10
1.26754
 20
2.71796
 30
0.000000
  70
    32
  0
VERTEX
  8
241
  5
4579
 10
1.26818
 20
2.70689
 30
0.000000
  70
    32
  0
VERTEX
  8
241
  5
457A
 10
1.26871
 20
2.69581
 30
0.000000
  70
    32
  0
VERTEX
  8
241
  5
457B
 10
1.26912
 20
2.68473
 30
0.000000
  70
    32
  0
VERTEX
  8
241
  5
457C
 10
1.26941
 20
2.67365
 30
0.000000
  70
    32
  0
VERTEX
  8
241
  5
457D
 10
1.26958
 20
2.66258
 30
0.000000
  70
    32
  0
VERTEX
  8
241
  5
457E
 10
1.26963
 20
2.65150
 30
0.000000
  70
    32
  0
VERTEX
  8
241
  5
457F
 10
1.26956
 20
2.64042
 30
0.000000
  70
    32
  0
VERTEX
  8
241
  5
4580
 10
1.26938
 20
2.62934
 30
0.000000
  70
    32
  0
VERTEX
  8
241
  5
4581
 10
1.26909
 20
2.61827
 30
0.000000
  70
    32
  0
VERTEX
  8
241
  5
4582
 10
1.26868
 20
2.60719
 30
0.000000
  70
    32
  0
VERTEX
  8
241
  5
4583
 10
1.26816
 20
2.59611
 30
0.000000
  70
    32
  0
VERTEX
  8
241
  5
4584
 10
1.26753
 20
2.58503
 30
0.000000
  70
    32
  0
VERTEX
  8
241
  5
4585
 10
1.26679
 20
2.57396
 30
0.000000
  70
    32
  0
VERTEX
  8
241
  5
4586
 10
1.26595
 20
2.56288
 30
0.000000
  70
    32
  0
VERTEX
  8
241
  5
4587
 10
1.26499
 20
2.55180
 30
0.000000
  70
    32
  0
VERTEX
  8
241
  5
4588
 10
1.26394
 20
2.54072
 30
0.000000
  70
    32
  0
VERTEX
  8
241
  5
4589
 10
1.26278
 20
2.52965
 30
0.000000
  70
    32
  0
VERTEX
  8
241
  5
458A
 10
1.26152
 20
2.51857
 30
0.000000
  70
    32
  0
VERTEX
  8
241
  5
458B
 10
1.26016
 20
2.50749
 30
0.000000
  70
    32
  0
VERTEX
  8
241
  5
458C
 10
1.25870
 20
2.49641
 30
0.000000
  70
    32
  0
VERTEX
  8
241
  5
458D
 10
1.25714
 20
2.48533
 30
0.000000
  70
    32
  0
VERTEX
  8
241
  5
458E
 10
1.25549
 20
2.47426
 30
0.000000
  70
    32
  0
VERTEX
  8
241
  5
458F
 10
1.25374
 20
2.46318
 30
0.000000
  70
    32
  0
VERTEX
  8
241
  5
4590
 10
1.25190
 20
2.45210
 30
0.000000
  70
    32
  0
VERTEX
  8
241
  5
4591
 10
1.24996
 20
2.44102
 30
0.000000
  70
    32
  0
VERTEX
  8
241
  5
4592
 10
1.24794
 20
2.42995
 30
0.000000
  70
    32
  0
VERTEX
  8
241
  5
4593
 10
1.24583
 20
2.41887
 30
0.000000
  70
    32
  0
VERTEX
  8
241
  5
4594
 10
1.24363
 20
2.40779
 30
0.000000
  70
    32
  0
VERTEX
  8
241
  5
4595
 10
1.24134
 20
2.39671
 30
0.000000
  70
    32
  0
VERTEX
  8
241
  5
4596
 10
1.23897
 20
2.38564
 30
0.000000
  70
    32
  0
VERTEX
  8
241
  5
4597
 10
1.23652
 20
2.37456
 30
0.000000
  70
    32
  0
VERTEX
  8
241
  5
4598
 10
1.23398
 20
2.36348
 30
0.000000
  70
    32
  0
VERTEX
  8
241
  5
4599
 10
1.23137
 20
2.35240
 30
0.000000
  70
    32
  0
VERTEX
  8
241
  5
459A
 10
1.22867
 20
2.34133
 30
0.000000
  70
    32
  0
VERTEX
  8
241
  5
459B
 10
1.22590
 20
2.33025
 30
0.000000
  70
    32
  0
VERTEX
  8
241
  5
459C
 10
1.22305
 20
2.31917
 30
0.000000
  70
    32
  0
VERTEX
  8
241
  5
459D
 10
1.22013
 20
2.30809
 30
0.000000
  70
    32
  0
VERTEX
  8
241
  5
459E
 10
1.21713
 20
2.29702
 30
0.000000
  70
    32
  0
VERTEX
  8
241
  5
459F
 10
1.21406
 20
2.28594
 30
0.000000
  70
    32
  0
VERTEX
  8
241
  5
45A0
 10
1.21092
 20
2.27486
 30
0.000000
  70
    32
  0
VERTEX
  8
241
  5
45A1
 10
1.20771
 20
2.26378
 30
0.000000
  70
    32
  0
VERTEX
  8
241
  5
45A2
 10
1.20444
 20
2.25270
 30
0.000000
  70
    32
  0
VERTEX
  8
241
  5
45A3
 10
1.20109
 20
2.24163
 30
0.000000
  70
    32
  0
VERTEX
  8
241
  5
45A4
 10
1.19768
 20
2.23055
 30
0.000000
  70
    32
  0
VERTEX
  8
241
  5
45A5
 10
1.19421
 20
2.21947
 30
0.000000
  70
    32
  0
VERTEX
  8
241
  5
45A6
 10
1.19068
 20
2.20839
 30
0.000000
  70
    32
  0
VERTEX
  8
241
  5
45A7
 10
1.18708
 20
2.19732
 30
0.000000
  70
    32
  0
VERTEX
  8
241
  5
45A8
 10
1.18343
 20
2.18624
 30
0.000000
  70
    32
  0
VERTEX
  8
241
  5
45A9
 10
1.17972
 20
2.17516
 30
0.000000
  70
    32
  0
VERTEX
  8
241
  5
45AA
 10
1.17595
 20
2.16408
 30
0.000000
  70
    32
  0
VERTEX
  8
241
  5
45AB
 10
1.17213
 20
2.15301
 30
0.000000
  70
    32
  0
VERTEX
  8
241
  5
45AC
 10
1.16825
 20
2.14193
 30
0.000000
  70
    32
  0
VERTEX
  8
241
  5
45AD
 10
1.16432
 20
2.13085
 30
0.000000
  70
    32
  0
VERTEX
  8
241
  5
45AE
 10
1.16034
 20
2.11977
 30
0.000000
  70
    32
  0
VERTEX
  8
241
  5
45AF
 10
1.15631
 20
2.10869
 30
0.000000
  70
    32
  0
VERTEX
  8
241
  5
45B0
 10
1.15224
 20
2.09762
 30
0.000000
  70
    32
  0
VERTEX
  8
241
  5
45B1
 10
1.14811
 20
2.08654
 30
0.000000
  70
    32
  0
VERTEX
  8
241
  5
45B2
 10
1.14394
 20
2.07546
 30
0.000000
  70
    32
  0
VERTEX
  8
241
  5
45B3
 10
1.13973
 20
2.06438
 30
0.000000
  70
    32
  0
VERTEX
  8
241
  5
45B4
 10
1.13548
 20
2.05331
 30
0.000000
  70
    32
  0
VERTEX
  8
241
  5
45B5
 10
1.13118
 20
2.04223
 30
0.000000
  70
    32
  0
VERTEX
  8
241
  5
45B6
 10
1.12684
 20
2.03115
 30
0.000000
  70
    32
  0
VERTEX
  8
241
  5
45B7
 10
1.12247
 20
2.02007
 30
0.000000
  70
    32
  0
VERTEX
  8
241
  5
45B8
 10
1.11806
 20
2.00899
 30
0.000000
  70
    32
  0
VERTEX
  8
241
  5
45B9
 10
1.11361
 20
1.99792
 30
0.000000
  70
    32
  0
VERTEX
  8
241
  5
45BA
 10
1.10913
 20
1.98684
 30
0.000000
  70
    32
  0
VERTEX
  8
241
  5
45BB
 10
1.10462
 20
1.97576
 30
0.000000
  70
    32
  0
VERTEX
  8
241
  5
45BC
 10
1.10008
 20
1.96468
 30
0.000000
  70
    32
  0
VERTEX
  8
241
  5
45BD
 10
1.09551
 20
1.95361
 30
0.000000
  70
    32
  0
VERTEX
  8
241
  5
45BE
 10
1.09091
 20
1.94253
 30
0.000000
  70
    32
  0
VERTEX
  8
241
  5
45BF
 10
1.08628
 20
1.93145
 30
0.000000
  70
    32
  0
VERTEX
  8
241
  5
45C0
 10
1.08162
 20
1.92037
 30
0.000000
  70
    32
  0
VERTEX
  8
241
  5
45C1
 10
1.07695
 20
1.90930
 30
0.000000
  70
    32
  0
VERTEX
  8
241
  5
45C2
 10
1.07225
 20
1.89822
 30
0.000000
  70
    32
  0
VERTEX
  8
241
  5
45C3
 10
1.06753
 20
1.88714
 30
0.000000
  70
    32
  0
VERTEX
  8
241
  5
45C4
 10
1.06279
 20
1.87606
 30
0.000000
  70
    32
  0
VERTEX
  8
241
  5
45C5
 10
1.05803
 20
1.86498
 30
0.000000
  70
    32
  0
VERTEX
  8
241
  5
45C6
 10
1.05325
 20
1.85391
 30
0.000000
  70
    32
  0
VERTEX
  8
241
  5
45C7
 10
1.04846
 20
1.84283
 30
0.000000
  70
    32
  0
VERTEX
  8
241
  5
45C8
 10
1.04365
 20
1.83175
 30
0.000000
  70
    32
  0
VERTEX
  8
241
  5
45C9
 10
1.03884
 20
1.82067
 30
0.000000
  70
    32
  0
VERTEX
  8
241
  5
45CA
 10
1.03401
 20
1.80960
 30
0.000000
  70
    32
  0
VERTEX
  8
241
  5
45CB
 10
1.02917
 20
1.79852
 30
0.000000
  70
    32
  0
VERTEX
  8
241
  5
45CC
 10
1.02432
 20
1.78744
 30
0.000000
  70
    32
  0
VERTEX
  8
241
  5
45CD
 10
1.01946
 20
1.77636
 30
0.000000
  70
    32
  0
VERTEX
  8
241
  5
45CE
 10
1.01460
 20
1.76528
 30
0.000000
  70
    32
  0
VERTEX
  8
241
  5
45CF
 10
1.00974
 20
1.75421
 30
0.000000
  70
    32
  0
VERTEX
  8
241
  5
45D0
 10
1.00487
 20
1.74313
 30
0.000000
  70
    32
  0
VERTEX
  8
241
  5
45D1
 10
1.00000
 20
1.73205
 30
0.000000
  70
    32
  0
SEQEND
  8
241
  5
45D2
  0
LINE
  5
41EF
  8
241
  6
CONTINUOUS
 10
0.9999999999999218
 20
3.5499999999996699
 30
0.0
 11
1.0000000000000919
 21
0.0
 31
0.0
  0
POLYLINE
  8
241
  5
45D3
  66
     1
 10
0.000000
 20
0.000000
 30
0.000000
  70
     8
  0
VERTEX
  8
241
  5
45D4
 10
1.00000
 20
1.73205
 30
0.000000
  70
    32
  0
VERTEX
  8
241
  5
45D5
 10
1.00826
 20
1.72174
 30
0.000000
  70
    32
  0
VERTEX
  8
241
  5
45D6
 10
1.01652
 20
1.71142
 30
0.000000
  70
    32
  0
VERTEX
  8
241
  5
45D7
 10
1.02477
 20
1.70111
 30
0.000000
  70
    32
  0
VERTEX
  8
241
  5
45D8
 10
1.03302
 20
1.69079
 30
0.000000
  70
    32
  0
VERTEX
  8
241
  5
45D9
 10
1.04125
 20
1.68048
 30
0.000000
  70
    32
  0
VERTEX
  8
241
  5
45DA
 10
1.04947
 20
1.67016
 30
0.000000
  70
    32
  0
VERTEX
  8
241
  5
45DB
 10
1.05767
 20
1.65984
 30
0.000000
  70
    32
  0
VERTEX
  8
241
  5
45DC
 10
1.06585
 20
1.64952
 30
0.000000
  70
    32
  0
VERTEX
  8
241
  5
45DD
 10
1.07401
 20
1.63920
 30
0.000000
  70
    32
  0
VERTEX
  8
241
  5
45DE
 10
1.08214
 20
1.62888
 30
0.000000
  70
    32
  0
VERTEX
  8
241
  5
45DF
 10
1.09024
 20
1.61855
 30
0.000000
  70
    32
  0
VERTEX
  8
241
  5
45E0
 10
1.09831
 20
1.60822
 30
0.000000
  70
    32
  0
VERTEX
  8
241
  5
45E1
 10
1.10634
 20
1.59789
 30
0.000000
  70
    32
  0
VERTEX
  8
241
  5
45E2
 10
1.11434
 20
1.58756
 30
0.000000
  70
    32
  0
VERTEX
  8
241
  5
45E3
 10
1.12230
 20
1.57722
 30
0.000000
  70
    32
  0
VERTEX
  8
241
  5
45E4
 10
1.13021
 20
1.56689
 30
0.000000
  70
    32
  0
VERTEX
  8
241
  5
45E5
 10
1.13807
 20
1.55654
 30
0.000000
  70
    32
  0
VERTEX
  8
241
  5
45E6
 10
1.14589
 20
1.54620
 30
0.000000
  70
    32
  0
VERTEX
  8
241
  5
45E7
 10
1.15365
 20
1.53585
 30
0.000000
  70
    32
  0
VERTEX
  8
241
  5
45E8
 10
1.16136
 20
1.52550
 30
0.000000
  70
    32
  0
VERTEX
  8
241
  5
45E9
 10
1.16901
 20
1.51514
 30
0.000000
  70
    32
  0
VERTEX
  8
241
  5
45EA
 10
1.17660
 20
1.50478
 30
0.000000
  70
    32
  0
VERTEX
  8
241
  5
45EB
 10
1.18412
 20
1.49441
 30
0.000000
  70
    32
  0
VERTEX
  8
241
  5
45EC
 10
1.19158
 20
1.48404
 30
0.000000
  70
    32
  0
VERTEX
  8
241
  5
45ED
 10
1.19897
 20
1.47367
 30
0.000000
  70
    32
  0
VERTEX
  8
241
  5
45EE
 10
1.20628
 20
1.46329
 30
0.000000
  70
    32
  0
VERTEX
  8
241
  5
45EF
 10
1.21352
 20
1.45290
 30
0.000000
  70
    32
  0
VERTEX
  8
241
  5
45F0
 10
1.22068
 20
1.44251
 30
0.000000
  70
    32
  0
VERTEX
  8
241
  5
45F1
 10
1.22776
 20
1.43211
 30
0.000000
  70
    32
  0
VERTEX
  8
241
  5
45F2
 10
1.23475
 20
1.42171
 30
0.000000
  70
    32
  0
VERTEX
  8
241
  5
45F3
 10
1.24165
 20
1.41130
 30
0.000000
  70
    32
  0
VERTEX
  8
241
  5
45F4
 10
1.24847
 20
1.40088
 30
0.000000
  70
    32
  0
VERTEX
  8
241
  5
45F5
 10
1.25519
 20
1.39046
 30
0.000000
  70
    32
  0
VERTEX
  8
241
  5
45F6
 10
1.26182
 20
1.38003
 30
0.000000
  70
    32
  0
VERTEX
  8
241
  5
45F7
 10
1.26835
 20
1.36960
 30
0.000000
  70
    32
  0
VERTEX
  8
241
  5
45F8
 10
1.27477
 20
1.35915
 30
0.000000
  70
    32
  0
VERTEX
  8
241
  5
45F9
 10
1.28109
 20
1.34870
 30
0.000000
  70
    32
  0
VERTEX
  8
241
  5
45FA
 10
1.28730
 20
1.33825
 30
0.000000
  70
    32
  0
VERTEX
  8
241
  5
45FB
 10
1.29340
 20
1.32778
 30
0.000000
  70
    32
  0
VERTEX
  8
241
  5
45FC
 10
1.29939
 20
1.31731
 30
0.000000
  70
    32
  0
VERTEX
  8
241
  5
45FD
 10
1.30526
 20
1.30682
 30
0.000000
  70
    32
  0
VERTEX
  8
241
  5
45FE
 10
1.31101
 20
1.29633
 30
0.000000
  70
    32
  0
VERTEX
  8
241
  5
45FF
 10
1.31664
 20
1.28584
 30
0.000000
  70
    32
  0
VERTEX
  8
241
  5
4600
 10
1.32214
 20
1.27533
 30
0.000000
  70
    32
  0
VERTEX
  8
241
  5
4601
 10
1.32752
 20
1.26481
 30
0.000000
  70
    32
  0
VERTEX
  8
241
  5
4602
 10
1.33276
 20
1.25429
 30
0.000000
  70
    32
  0
VERTEX
  8
241
  5
4603
 10
1.33787
 20
1.24375
 30
0.000000
  70
    32
  0
VERTEX
  8
241
  5
4604
 10
1.34284
 20
1.23321
 30
0.000000
  70
    32
  0
VERTEX
  8
241
  5
4605
 10
1.34768
 20
1.22265
 30
0.000000
  70
    32
  0
VERTEX
  8
241
  5
4606
 10
1.35237
 20
1.21209
 30
0.000000
  70
    32
  0
VERTEX
  8
241
  5
4607
 10
1.35691
 20
1.20151
 30
0.000000
  70
    32
  0
VERTEX
  8
241
  5
4608
 10
1.36131
 20
1.19093
 30
0.000000
  70
    32
  0
VERTEX
  8
241
  5
4609
 10
1.36555
 20
1.18033
 30
0.000000
  70
    32
  0
VERTEX
  8
241
  5
460A
 10
1.36964
 20
1.16972
 30
0.000000
  70
    32
  0
VERTEX
  8
241
  5
460B
 10
1.37357
 20
1.15911
 30
0.000000
  70
    32
  0
VERTEX
  8
241
  5
460C
 10
1.37734
 20
1.14848
 30
0.000000
  70
    32
  0
VERTEX
  8
241
  5
460D
 10
1.38095
 20
1.13784
 30
0.000000
  70
    32
  0
VERTEX
  8
241
  5
460E
 10
1.38439
 20
1.12718
 30
0.000000
  70
    32
  0
VERTEX
  8
241
  5
460F
 10
1.38766
 20
1.11652
 30
0.000000
  70
    32
  0
VERTEX
  8
241
  5
4610
 10
1.39076
 20
1.10584
 30
0.000000
  70
    32
  0
VERTEX
  8
241
  5
4611
 10
1.39369
 20
1.09516
 30
0.000000
  70
    32
  0
VERTEX
  8
241
  5
4612
 10
1.39644
 20
1.08446
 30
0.000000
  70
    32
  0
VERTEX
  8
241
  5
4613
 10
1.39900
 20
1.07374
 30
0.000000
  70
    32
  0
VERTEX
  8
241
  5
4614
 10
1.40139
 20
1.06302
 30
0.000000
  70
    32
  0
VERTEX
  8
241
  5
4615
 10
1.40358
 20
1.05228
 30
0.000000
  70
    32
  0
VERTEX
  8
241
  5
4616
 10
1.40559
 20
1.04152
 30
0.000000
  70
    32
  0
VERTEX
  8
241
  5
4617
 10
1.40740
 20
1.03076
 30
0.000000
  70
    32
  0
VERTEX
  8
241
  5
4618
 10
1.40902
 20
1.01998
 30
0.000000
  70
    32
  0
VERTEX
  8
241
  5
4619
 10
1.41044
 20
1.00918
 30
0.000000
  70
    32
  0
VERTEX
  8
241
  5
461A
 10
1.41167
 20
0.998377
 30
0.000000
  70
    32
  0
VERTEX
  8
241
  5
461B
 10
1.41270
 20
0.987556
 30
0.000000
  70
    32
  0
VERTEX
  8
241
  5
461C
 10
1.41354
 20
0.976721
 30
0.000000
  70
    32
  0
VERTEX
  8
241
  5
461D
 10
1.41419
 20
0.965873
 30
0.000000
  70
    32
  0
VERTEX
  8
241
  5
461E
 10
1.41465
 20
0.955012
 30
0.000000
  70
    32
  0
VERTEX
  8
241
  5
461F
 10
1.41493
 20
0.944138
 30
0.000000
  70
    32
  0
VERTEX
  8
241
  5
4620
 10
1.41503
 20
0.933252
 30
0.000000
  70
    32
  0
VERTEX
  8
241
  5
4621
 10
1.41494
 20
0.922352
 30
0.000000
  70
    32
  0
VERTEX
  8
241
  5
4622
 10
1.41468
 20
0.911440
 30
0.000000
  70
    32
  0
VERTEX
  8
241
  5
4623
 10
1.41423
 20
0.900516
 30
0.000000
  70
    32
  0
VERTEX
  8
241
  5
4624
 10
1.41362
 20
0.889579
 30
0.000000
  70
    32
  0
VERTEX
  8
241
  5
4625
 10
1.41283
 20
0.878630
 30
0.000000
  70
    32
  0
VERTEX
  8
241
  5
4626
 10
1.41187
 20
0.867670
 30
0.000000
  70
    32
  0
VERTEX
  8
241
  5
4627
 10
1.41075
 20
0.856698
 30
0.000000
  70
    32
  0
VERTEX
  8
241
  5
4628
 10
1.40945
 20
0.845714
 30
0.000000
  70
    32
  0
VERTEX
  8
241
  5
4629
 10
1.40800
 20
0.834718
 30
0.000000
  70
    32
  0
VERTEX
  8
241
  5
462A
 10
1.40638
 20
0.823712
 30
0.000000
  70
    32
  0
VERTEX
  8
241
  5
462B
 10
1.40461
 20
0.812694
 30
0.000000
  70
    32
  0
VERTEX
  8
241
  5
462C
 10
1.40268
 20
0.801665
 30
0.000000
  70
    32
  0
VERTEX
  8
241
  5
462D
 10
1.40059
 20
0.790625
 30
0.000000
  70
    32
  0
VERTEX
  8
241
  5
462E
 10
1.39835
 20
0.779575
 30
0.000000
  70
    32
  0
VERTEX
  8
241
  5
462F
 10
1.39596
 20
0.768514
 30
0.000000
  70
    32
  0
VERTEX
  8
241
  5
4630
 10
1.39342
 20
0.757442
 30
0.000000
  70
    32
  0
VERTEX
  8
241
  5
4631
 10
1.39074
 20
0.746361
 30
0.000000
  70
    32
  0
VERTEX
  8
241
  5
4632
 10
1.38791
 20
0.735269
 30
0.000000
  70
    32
  0
VERTEX
  8
241
  5
4633
 10
1.38494
 20
0.724168
 30
0.000000
  70
    32
  0
VERTEX
  8
241
  5
4634
 10
1.38183
 20
0.713056
 30
0.000000
  70
    32
  0
VERTEX
  8
241
  5
4635
 10
1.37859
 20
0.701935
 30
0.000000
  70
    32
  0
VERTEX
  8
241
  5
4636
 10
1.37521
 20
0.690805
 30
0.000000
  70
    32
  0
VERTEX
  8
241
  5
4637
 10
1.37169
 20
0.679665
 30
0.000000
  70
    32
  0
VERTEX
  8
241
  5
4638
 10
1.36805
 20
0.668516
 30
0.000000
  70
    32
  0
VERTEX
  8
241
  5
4639
 10
1.36427
 20
0.657358
 30
0.000000
  70
    32
  0
VERTEX
  8
241
  5
463A
 10
1.36037
 20
0.646191
 30
0.000000
  70
    32
  0
VERTEX
  8
241
  5
463B
 10
1.35635
 20
0.635016
 30
0.000000
  70
    32
  0
VERTEX
  8
241
  5
463C
 10
1.35220
 20
0.623831
 30
0.000000
  70
    32
  0
VERTEX
  8
241
  5
463D
 10
1.34794
 20
0.612639
 30
0.000000
  70
    32
  0
VERTEX
  8
241
  5
463E
 10
1.34355
 20
0.601438
 30
0.000000
  70
    32
  0
VERTEX
  8
241
  5
463F
 10
1.33905
 20
0.590229
 30
0.000000
  70
    32
  0
VERTEX
  8
241
  5
4640
 10
1.33444
 20
0.579013
 30
0.000000
  70
    32
  0
VERTEX
  8
241
  5
4641
 10
1.32972
 20
0.567788
 30
0.000000
  70
    32
  0
VERTEX
  8
241
  5
4642
 10
1.32489
 20
0.556556
 30
0.000000
  70
    32
  0
VERTEX
  8
241
  5
4643
 10
1.31995
 20
0.545316
 30
0.000000
  70
    32
  0
VERTEX
  8
241
  5
4644
 10
1.31490
 20
0.534069
 30
0.000000
  70
    32
  0
VERTEX
  8
241
  5
4645
 10
1.30976
 20
0.522815
 30
0.000000
  70
    32
  0
VERTEX
  8
241
  5
4646
 10
1.30451
 20
0.511553
 30
0.000000
  70
    32
  0
VERTEX
  8
241
  5
4647
 10
1.29916
 20
0.500285
 30
0.000000
  70
    32
  0
VERTEX
  8
241
  5
4648
 10
1.29372
 20
0.489010
 30
0.000000
  70
    32
  0
VERTEX
  8
241
  5
4649
 10
1.28819
 20
0.477729
 30
0.000000
  70
    32
  0
VERTEX
  8
241
  5
464A
 10
1.28256
 20
0.466441
 30
0.000000
  70
    32
  0
VERTEX
  8
241
  5
464B
 10
1.27685
 20
0.455147
 30
0.000000
  70
    32
  0
VERTEX
  8
241
  5
464C
 10
1.27105
 20
0.443847
 30
0.000000
  70
    32
  0
VERTEX
  8
241
  5
464D
 10
1.26516
 20
0.432541
 30
0.000000
  70
    32
  0
VERTEX
  8
241
  5
464E
 10
1.25919
 20
0.421229
 30
0.000000
  70
    32
  0
VERTEX
  8
241
  5
464F
 10
1.25314
 20
0.409911
 30
0.000000
  70
    32
  0
VERTEX
  8
241
  5
4650
 10
1.24701
 20
0.398588
 30
0.000000
  70
    32
  0
VERTEX
  8
241
  5
4651
 10
1.24080
 20
0.387259
 30
0.000000
  70
    32
  0
VERTEX
  8
241
  5
4652
 10
1.23453
 20
0.375926
 30
0.000000
  70
    32
  0
VERTEX
  8
241
  5
4653
 10
1.22817
 20
0.364587
 30
0.000000
  70
    32
  0
VERTEX
  8
241
  5
4654
 10
1.22175
 20
0.353243
 30
0.000000
  70
    32
  0
VERTEX
  8
241
  5
4655
 10
1.21526
 20
0.341895
 30
0.000000
  70
    32
  0
VERTEX
  8
241
  5
4656
 10
1.20871
 20
0.330542
 30
0.000000
  70
    32
  0
VERTEX
  8
241
  5
4657
 10
1.20209
 20
0.319185
 30
0.000000
  70
    32
  0
VERTEX
  8
241
  5
4658
 10
1.19541
 20
0.307823
 30
0.000000
  70
    32
  0
VERTEX
  8
241
  5
4659
 10
1.18868
 20
0.296457
 30
0.000000
  70
    32
  0
VERTEX
  8
241
  5
465A
 10
1.18188
 20
0.285088
 30
0.000000
  70
    32
  0
VERTEX
  8
241
  5
465B
 10
1.17504
 20
0.273714
 30
0.000000
  70
    32
  0
VERTEX
  8
241
  5
465C
 10
1.16813
 20
0.262337
 30
0.000000
  70
    32
  0
VERTEX
  8
241
  5
465D
 10
1.16118
 20
0.250956
 30
0.000000
  70
    32
  0
VERTEX
  8
241
  5
465E
 10
1.15419
 20
0.239572
 30
0.000000
  70
    32
  0
VERTEX
  8
241
  5
465F
 10
1.14714
 20
0.228185
 30
0.000000
  70
    32
  0
VERTEX
  8
241
  5
4660
 10
1.14005
 20
0.216794
 30
0.000000
  70
    32
  0
VERTEX
  8
241
  5
4661
 10
1.13292
 20
0.205401
 30
0.000000
  70
    32
  0
VERTEX
  8
241
  5
4662
 10
1.12576
 20
0.194005
 30
0.000000
  70
    32
  0
VERTEX
  8
241
  5
4663
 10
1.11855
 20
0.182606
 30
0.000000
  70
    32
  0
VERTEX
  8
241
  5
4664
 10
1.11131
 20
0.171205
 30
0.000000
  70
    32
  0
VERTEX
  8
241
  5
4665
 10
1.10404
 20
0.159802
 30
0.000000
  70
    32
  0
VERTEX
  8
241
  5
4666
 10
1.09673
 20
0.148397
 30
0.000000
  70
    32
  0
VERTEX
  8
241
  5
4667
 10
1.08940
 20
0.136989
 30
0.000000
  70
    32
  0
VERTEX
  8
241
  5
4668
 10
1.08204
 20
0.125580
 30
0.000000
  70
    32
  0
VERTEX
  8
241
  5
4669
 10
1.07466
 20
0.114169
 30
0.000000
  70
    32
  0
VERTEX
  8
241
  5
466A
 10
1.06726
 20
0.102756
 30
0.000000
  70
    32
  0
VERTEX
  8
241
  5
466B
 10
1.05983
 20
0.0913423
 30
0.000000
  70
    32
  0
VERTEX
  8
241
  5
466C
 10
1.05239
 20
0.0799272
 30
0.000000
  70
    32
  0
VERTEX
  8
241
  5
466D
 10
1.04494
 20
0.0685110
 30
0.000000
  70
    32
  0
VERTEX
  8
241
  5
466E
 10
1.03747
 20
0.0570939
 30
0.000000
  70
    32
  0
VERTEX
  8
241
  5
466F
 10
1.02999
 20
0.0456761
 30
0.000000
  70
    32
  0
VERTEX
  8
241
  5
4670
 10
1.02250
 20
0.0342576
 30
0.000000
  70
    32
  0
VERTEX
  8
241
  5
4671
 10
1.01500
 20
0.0228386
 30
0.000000
  70
    32
  0
VERTEX
  8
241
  5
4672
 10
1.00750
 20
0.0114194
 30
0.000000
  70
    32
  0
VERTEX
  8
241
  5
4673
 10
1.00000
 20
9.45609e-012
 30
0.000000
  70
    32
  0
SEQEND
  8
241
  5
4674
  0
LINE
  5
41F1
  8
240
  6
CONTINUOUS
 10
1.5
 20
0.0
 30
0.0
 11
1.4999999999999569
 21
-6.200000000000002
 31
0.0
  0
LINE
  5
41F2
  8
240
  6
CONTINUOUS
 10
0.0
 20
6.1000000000000076
 30
0.0
 11
0.0
 21
-6.1000000000000076
 31
0.0
  0
ARC
  5
41F3
  8
240
  6
CONTINUOUS
 10
2.2999999999999972
 20
6.0000000000000142
 30
0.0
 40
0.7999999999999972
 50
180.0
 51
314.99999999999949
  0
LINE
  5
41F4
  8
241
  6
CONTINUOUS
 10
1.0340233281889359
 20
3.493375672974067
 30
0.0
 11
1.000000000000113
 21
3.5499999999999972
 31
0.0
  0
LINE
  5
41F5
  8
241
  6
CONTINUOUS
 10
0.2000000000000028
 20
3.5499999999999972
 30
0.0
 11
1.0
 21
3.5499999999999972
 31
0.0
  0
LINE
  5
41F6
  8
240
  6
CONTINUOUS
 10
0.2999999999999971
 20
6.400000000000019
 30
0.0
 11
1.2999999999987599
 21
6.400000000000019
 31
0.0
  0
ARC
  5
41F7
  8
240
  6
CONTINUOUS
 10
0.2999999999999971
 20
6.1000000000000076
 30
0.0
 40
0.2999999999999971
 50
90.0
 51
180.0
  0
LINE
  5
41F8
  8
240
  6
CONTINUOUS
 10
2.8656854249491772
 20
5.4343145750508342
 30
0.0
 11
3.4313708498975468
 21
6.0000000000000417
 31
0.0
  0
LINE
  5
41F9
  8
240
  6
CONTINUOUS
 10
38.5
 20
-5.4000000000000119
 30
0.0
 11
38.5
 21
5.400000000000019
 31
0.0
  0
LINE
  5
41FA
  8
242
  6
CONTINUOUS
 10
38.399999999999871
 20
5.5000000000000142
 30
0.0
 11
2.9313708498985198
 21
5.5000000000000142
 31
0.0
  0
LINE
  5
41FB
  8
240
  6
CONTINUOUS
 10
37.900000000000013
 20
6.0000000000000142
 30
0.0
 11
38.5
 21
5.400000000000019
 31
0.0
  0
LINE
  5
41FC
  8
240
  6
CONTINUOUS
 10
0.2999999999999971
 20
-6.4000000000000048
 30
0.0
 11
1.2999999999999681
 21
-6.4000000000000048
 31
0.0
  0
ARC
  5
41FD
  8
240
  6
CONTINUOUS
 10
0.2999999999999971
 20
-6.1000000000000076
 30
0.0
 40
0.2999999999999971
 50
180.0
 51
270.0
  0
LINE
  5
41FE
  8
240
  6
CONTINUOUS
 10
2.8656854249491772
 20
-5.4343145750508048
 30
0.0
 11
3.4313708498972701
 21
-6.0000000000000142
 31
0.0
  0
ARC
  5
41FF
  8
240
  6
CONTINUOUS
 10
2.2999999999999972
 20
-6.0
 30
0.0
 40
0.7999999999999972
 50
45.000000000000568
 51
180.0
  0
LINE
  5
4200
  8
242
  6
CONTINUOUS
 10
38.399999999999871
 20
-5.5
 30
0.0
 11
2.9313708498979731
 21
-5.5
 31
0.0
  0
LINE
  5
4201
  8
240
  6
CONTINUOUS
 10
37.900000000000013
 20
-6.0000000000000142
 30
0.0
 11
3.4313708498972701
 21
-6.0000000000000142
 31
0.0
  0
LINE
  5
4202
  8
240
  6
CONTINUOUS
 10
37.900000000000013
 20
-6.0000000000000142
 30
0.0
 11
38.5
 21
-5.4000000000000119
 31
0.0
  0
LINE
  5
4203
  8
240
 10
3.4313708498972701
 20
-6.0000000000000142
 30
0.0
 11
3.4313708498972701
 21
0.0
 31
0.0
  0
LINE
  5
4204
  8
240
  6
CONTINUOUS
 10
1.4999999999999569
 20
-6.200000000000002
 30
0.0
 11
1.2999999999999681
 21
-6.4000000000000048
 31
0.0
  0
LINE
  5
4205
  8
240
  6
CONTINUOUS
 10
1.2999999999987599
 20
6.400000000000019
 30
0.0
 11
1.5000000000012359
 21
6.200000000000002
 31
0.0
  0
LINE
  5
4206
  8
241
  6
CONTINUOUS
 10
0.2000000000000028
 20
3.5499999999999972
 30
0.0
 11
0.0
 21
3.75
 31
0.0
  0
LINE
  5
4207
  8
240
 10
1.5000000000012359
 20
6.200000000000002
 30
0.0
 11
1.5
 21
6.0000000000000142
 31
0.0
  0
LINE
  5
4208
  8
240
 10
37.900000000000013
 20
-6.0000000000000142
 30
0.0
 11
37.900000000000013
 21
0.0
 31
0.0
  0
CIRCLE
  5
420B
  8
240
 10
-27.999999999999989
 20
-0.0377153311950309
 30
0.0
 40
6.4000000000000341
  0
LINE
  5
420C
  8
241
 10
-31.000000000000011
 20
1.6943354763738221
 30
0.0
 11
-31.0
 21
-1.769766138763891
 31
0.0
  0
LINE
  5
420D
  8
241
 10
-31.0
 20
-1.769766138763891
 30
0.0
 11
-28.00000000000006
 21
-3.501816946332752
 31
0.0
  0
LINE
  5
420E
  8
241
 10
-28.00000000000006
 20
-3.501816946332752
 30
0.0
 11
-25.0
 21
-1.769766138763905
 31
0.0
  0
LINE
  5
420F
  8
241
 10
-25.0
 20
-1.769766138763905
 30
0.0
 11
-25.000000000000011
 21
1.6943354763737939
 31
0.0
  0
LINE
  5
4210
  8
241
 10
-25.000000000000011
 20
1.6943354763737939
 30
0.0
 11
-27.999999999999989
 21
3.4263862839426902
 31
0.0
  0
LINE
  5
4211
  8
241
 10
-27.999999999999989
 20
3.4263862839426902
 30
0.0
 11
-31.000000000000011
 21
1.6943354763738221
 31
0.0
  0
CIRCLE
  5
4212
  8
241
 10
-28.0
 20
-0.0377153311950309
 30
0.0
 40
3.5499999999999989
  0
LINE
  5
4213
  8
241
 10
7.0000000000009939
 20
3.4641016151377211
 30
0.0
 11
1.048005093396817
 21
3.4641016151377211
 31
0.0
  0
LINE
  5
4214
  8
241
 10
0.9999999999999502
 20
1.732050807568825
 30
0.0
 11
7.0000000000005107
 21
1.732050807568825
 31
0.0
  0
LINE
  5
4215
  8
241
  6
CONTINUOUS
 10
37.500000000000092
 20
3.5499999999996699
 30
0.0
 11
37.499999999999922
 21
0.0
 31
0.0
  0
LINE
  5
4216
  8
241
  6
CONTINUOUS
 10
38.299999999999997
 20
3.5499999999999972
 30
0.0
 11
38.5
 21
3.75
 31
0.0
  0
LINE
  5
4217
  8
241
  6
CONTINUOUS
 10
38.299999999999997
 20
3.5499999999999972
 30
0.0
 11
37.5
 21
3.5499999999999972
 31
0.0
  0
LINE
  5
4218
  8
241
  6
CONTINUOUS
 10
37.139483628575647
 20
2.9500000000000171
 30
0.0
 11
37.499999999999893
 21
3.5499999999999972
 31
0.0
  0
LINE
  5
4219
  8
241
 10
7.0000000000004974
 20
2.950000000000002
 30
0.0
 11
37.139483628575647
 21
2.9500000000000171
 31
0.0
  0
LINE
  5
421A
  8
241
 10
37.139483628575647
 20
0.0
 30
0.0
 11
37.139483628575647
 21
2.9500000000000171
 31
0.0
  0
TEXT
  5
431E
  8
241
 10
-21.0
 20
21.0
 30
0.0
 40
4.0
  1
HDA16-12037
  7
YOKO
  0
LINE
  5
4348
  8
250
  6
CONTINUOUS
 10
31.769006102745859
 20
15.375699435946389
 30
0.0
 11
21.36900610274586
 21
15.375699435946389
 31
0.0
  0
LINE
  5
4349
  8
250
  6
CONTINUOUS
 10
21.36900610274586
 20
15.375699435946389
 30
0.0
 11
16.998667784315629
 21
7.9236058806220404
 31
0.0
  0
LINE
  5
434A
  8
250
  6
CONTINUOUS
 10
16.998667784315629
 20
7.9236058806220386
 30
0.0
 11
15.870554130450721
 21
6.0000000000000311
 31
0.0
  0
LINE
  5
434B
  8
250
  6
CONTINUOUS
 10
16.745420266887859
 20
8.0721248600531474
 30
0.0
 11
15.870554130450721
 21
6.0000000000000311
 31
0.0
  0
LINE
  5
434C
  8
250
  6
CONTINUOUS
 10
15.870554130450721
 20
6.0000000000000311
 30
0.0
 11
17.251915301743399
 21
7.7750869011909289
 31
0.0
  0
LINE
  5
434E
  8
250
  6
CONTINUOUS
 10
-0.2000000000000029
 20
6.400000000000019
 30
0.0
 11
-7.885833333333327
 21
6.4000000000000217
 31
0.0
  0
LINE
  5
434F
  8
250
  6
CONTINUOUS
 10
-0.2000000000000029
 20
-6.4000000000000048
 30
0.0
 11
-7.8858333333333297
 21
-6.400000000000003
 31
0.0
  0
LINE
  5
4350
  8
250
  6
CONTINUOUS
 10
-6.885833333333327
 20
4.1700000000000212
 30
0.0
 11
-6.8858333333333279
 21
-4.1700000000000026
 31
0.0
  0
LINE
  5
4354
  8
250
  6
CONTINUOUS
 10
0.0
 20
-6.6000000000000076
 30
0.0
 11
-0.000000000000001
 21
-22.0
 31
0.0
  0
LINE
  5
4355
  8
250
  6
CONTINUOUS
 10
38.5
 20
-5.9000000000000119
 30
0.0
 11
38.5
 21
-22.0
 31
0.0
  0
LINE
  5
4356
  8
250
  6
CONTINUOUS
 10
2.2299999999999991
 20
-21.0
 30
0.0
 11
36.27000000000001
 21
-21.0
 31
0.0
  0
LINE
  5
435A
  8
250
  6
CONTINUOUS
 10
-31.0
 20
-2.2697661387638912
 30
0.0
 11
-31.0
 21
-22.0
 31
0.0
  0
LINE
  5
435B
  8
250
  6
CONTINUOUS
 10
-25.0
 20
-2.269766138763905
 30
0.0
 11
-25.0
 21
-22.0
 31
0.0
  0
LINE
  5
435C
  8
250
  6
CONTINUOUS
 10
-33.229999999999997
 20
-21.0
 30
0.0
 11
-35.459999999999987
 21
-21.0
 31
0.0
  0
LINE
  5
435D
  8
250
  6
CONTINUOUS
 10
-22.77
 20
-21.0
 30
0.0
 11
-20.539999999999999
 21
-21.0
 31
0.0
  0
LINE
  5
435E
  8
250
  6
CONTINUOUS
 10
-31.0
 20
-21.0
 30
0.0
 11
-25.0
 21
-21.0
 31
0.0
  0
TEXT
  5
4362
  8
250
  6
CONTINUOUS
 10
23.63567276941253
 20
16.77569943594639
 30
0.0
 40
2.7999999999999989
  1
M12
  7
ACJISTS
  0
LINE
  5
4363
  8
250
  6
CONTINUOUS
 10
-6.5141666666666618
 20
-4.1700000000000026
 30
0.0
 11
-6.8858333333333288
 21
-6.400000000000003
 31
0.0
  0
LINE
  5
4364
  8
250
  6
CONTINUOUS
 10
-7.257499999999995
 20
-4.1700000000000026
 30
0.0
 11
-6.8858333333333288
 21
-6.400000000000003
 31
0.0
  0
LINE
  5
4365
  8
250
  6
CONTINUOUS
 10
-6.8858333333333288
 20
-6.400000000000003
 30
0.0
 11
-6.8858333333333288
 21
-4.1700000000000026
 31
0.0
  0
LINE
  5
4366
  8
250
  6
CONTINUOUS
 10
-7.2574999999999932
 20
4.1700000000000212
 30
0.0
 11
-6.8858333333333261
 21
6.4000000000000208
 31
0.0
  0
LINE
  5
4367
  8
250
  6
CONTINUOUS
 10
-6.5141666666666591
 20
4.1700000000000212
 30
0.0
 11
-6.8858333333333261
 21
6.4000000000000208
 31
0.0
  0
LINE
  5
4368
  8
250
  6
CONTINUOUS
 10
-6.8858333333333261
 20
6.4000000000000208
 30
0.0
 11
-6.8858333333333261
 21
4.1700000000000212
 31
0.0
  0
TEXT
  5
4369
  8
250
  6
CONTINUOUS
 10
-8.6549062622964144
 20
-6.411610086917328
 30
0.0
 40
2.7999999999999989
  1
\U+220512.8
 50
90.0
  0
TEXT
  5
436A
  8
250
  6
CONTINUOUS
 10
14.58333333333333
 20
-20.0
 30
0.0
 40
2.7999999999999989
  1
38.5
  0
LINE
  5
436B
  8
250
  6
CONTINUOUS
 10
36.27000000000001
 20
-20.62833333333333
 30
0.0
 11
38.5
 21
-21.0
 31
0.0
  0
LINE
  5
436C
  8
250
  6
CONTINUOUS
 10
36.27000000000001
 20
-21.37166666666667
 30
0.0
 11
38.5
 21
-21.0
 31
0.0
  0
LINE
  5
436D
  8
250
  6
CONTINUOUS
 10
38.5
 20
-21.0
 30
0.0
 11
36.27000000000001
 21
-21.0
 31
0.0
  0
LINE
  5
436E
  8
250
  6
CONTINUOUS
 10
2.2299999999999991
 20
-21.37166666666667
 30
0.0
 11
-0.0000000000000009
 21
-21.0
 31
0.0
  0
LINE
  5
436F
  8
250
  6
CONTINUOUS
 10
2.2299999999999991
 20
-20.62833333333333
 30
0.0
 11
-0.0000000000000009
 21
-21.0
 31
0.0
  0
LINE
  5
4370
  8
250
  6
CONTINUOUS
 10
-0.0000000000000009
 20
-21.0
 30
0.0
 11
2.2299999999999991
 21
-21.0
 31
0.0
  0
TEXT
  5
4371
  8
250
  6
CONTINUOUS
 10
-29.399999999999999
 20
-20.0
 30
0.0
 40
2.7999999999999989
  1
6
  0
LINE
  5
4372
  8
250
  6
CONTINUOUS
 10
-22.77
 20
-21.37166666666667
 30
0.0
 11
-25.0
 21
-21.0
 31
0.0
  0
LINE
  5
4373
  8
250
  6
CONTINUOUS
 10
-22.77
 20
-20.62833333333333
 30
0.0
 11
-25.0
 21
-21.0
 31
0.0
  0
LINE
  5
4374
  8
250
  6
CONTINUOUS
 10
-25.0
 20
-21.0
 30
0.0
 11
-22.77
 21
-21.0
 31
0.0
  0
LINE
  5
4375
  8
250
  6
CONTINUOUS
 10
-33.229999999999997
 20
-20.62833333333333
 30
0.0
 11
-31.0
 21
-21.0
 31
0.0
  0
LINE
  5
4376
  8
250
  6
CONTINUOUS
 10
-33.229999999999997
 20
-21.37166666666667
 30
0.0
 11
-31.0
 21
-21.0
 31
0.0
  0
LINE
  5
4377
  8
250
  6
CONTINUOUS
 10
-31.0
 20
-21.0
 30
0.0
 11
-33.229999999999997
 21
-21.0
 31
0.0
  0
VIEWPORT
  5
22
 67
     1
  8
0
 10
261.51769911504419
 20
148.5
 30
0.0
 40
523.0353982300885
 41
297.0
 68
     1
 69
     1
1001
ACAD
1000
MVIEW
1002
{
1070
    16
1010
0.0
1020
0.0
1030
0.0
1010
0.0
1020
0.0
1030
1.0
1040
0.0
1040
297.0
1040
261.51769911504419
1040
148.5
1040
50.0
1040
0.0
1040
0.0
1070
     0
1070
   100
1070
     1
1070
     1
1070
     0
1070
     0
1070
     0
1070
     0
1040
0.0
1040
0.0
1040
0.0
1040
1.0
1040
1.0
1040
10.0
1040
10.0
1070
     0
1002
{
1002
}
1002
}
1001
GENIUS_GENODEF_13
1002
{
1000
HIER
1070
     0
1002
}
1002
{
1000
MANEDIT
1070
     0
1002
}
1002
{
1000
NOSEL
1070
     0
1002
}
1002
{
1000
BEHIND
1070
     0
1002
}
1002
{
1000
OTHER
1070
     0
1002
}
1002
{
1000
REACTOR
1002
}
1001
GENIUS_GENOBJ-N-SDF_13
1002
{
1000
OWNER
1000
GEN
1002
}
1001
GENIUS_GENSCREG_15
1000
PF
1040
1.0
1000
DF
1040
1.0
1000
MIN
1011
0.0
1021
0.0
1031
0.0
1021
0.0
1031
0.0
1000
MAX
1011
523.0353982300885
1021
0.0
1031
0.0
1021
297.0
1031
0.0
1000
FLAGS
1070
     4
  0
ENDSEC
  0
EOF
