  0
SECTION
  2
HEADER
  9
$ACADVER
  1
AC1009
  9
$INSBASE
 10
0.0
 20
0.0
 30
0.0
  9
$EXTMIN
 10
-34.319050046969998
 20
-40.282540590300407
 30
-0.0015258207003583
  9
$EXTMAX
 10
64.026095935923877
 20
75.061619693848115
 30
0.0000000349246037
  9
$LIMMIN
 10
0.0
 20
0.0
  9
$LIMMAX
 10
420.0
 20
297.0
  9
$ORTHOMODE
 70
     0
  9
$REGENMODE
 70
     1
  9
$FILLMODE
 70
     1
  9
$QTEXTMODE
 70
     0
  9
$MIRRTEXT
 70
     1
  9
$DRAGMODE
 70
     2
  9
$LTSCALE
 40
10.0
  9
$OSMODE
 70
    39
  9
$ATTMODE
 70
     1
  9
$TEXTSIZE
 40
3.0
  9
$TRACEWID
 40
1.0
  9
$TEXTSTYLE
  7
YOKO
  9
$CLAYER
  8
240
  9
$CELTYPE
  6
BYLAYER
  9
$CECOLOR
 62
   256
  9
$DIMSCALE
 40
1.0
  9
$DIMASZ
 40
2.2299999999999991
  9
$DIMEXO
 40
0.5
  9
$DIMDLI
 40
2.5
  9
$DIMRND
 40
0.0
  9
$DIMDLE
 40
0.0
  9
$DIMEXE
 40
1.0
  9
$DIMTP
 40
0.0
  9
$DIMTM
 40
0.0
  9
$DIMTXT
 40
2.7999999999999989
  9
$DIMCEN
 40
0.0
  9
$DIMTSZ
 40
0.0
  9
$DIMTOL
 70
     0
  9
$DIMLIM
 70
     0
  9
$DIMTIH
 70
     0
  9
$DIMTOH
 70
     0
  9
$DIMSE1
 70
     0
  9
$DIMSE2
 70
     0
  9
$DIMTAD
 70
     3
  9
$DIMZIN
 70
     8
  9
$DIMBLK
  1

  9
$DIMASO
 70
     1
  9
$DIMSHO
 70
     1
  9
$DIMPOST
  1

  9
$DIMAPOST
  1

  9
$DIMALT
 70
     0
  9
$DIMALTD
 70
     2
  9
$DIMALTF
 40
25.399999999999999
  9
$DIMLFAC
 40
1.0
  9
$DIMTOFL
 70
     1
  9
$DIMTVP
 40
0.0
  9
$DIMTIX
 70
     1
  9
$DIMSOXD
 70
     0
  9
$DIMSAH
 70
     1
  9
$DIMBLK1
  1
OPEN
  9
$DIMBLK2
  1
OPEN
  9
$DIMSTYLE
  2
BIGT
  9
$DIMCLRD
 70
   256
  9
$DIMCLRE
 70
   256
  9
$DIMCLRT
 70
    40
  9
$DIMTFAC
 40
1.0
  9
$DIMGAP
 40
1.0
  9
$LUNITS
 70
     2
  9
$LUPREC
 70
     3
  9
$SKETCHINC
 40
1.0
  9
$FILLETRAD
 40
3.0
  9
$AUNITS
 70
     0
  9
$AUPREC
 70
     3
  9
$MENU
  1
.
  9
$ELEVATION
 40
0.0
  9
$PELEVATION
 40
0.0
  9
$THICKNESS
 40
0.0
  9
$LIMCHECK
 70
     0
  9
$BLIPMODE
 70
     0
  9
$CHAMFERA
 40
10.0
  9
$CHAMFERB
 40
10.0
  9
$SKPOLY
 70
     0
  9
$TDCREATE
 40
2455380.367199433
  9
$TDUPDATE
 40
2456115.485648253
  9
$TDINDWG
 40
0.0879713542
  9
$TDUSRTIMER
 40
0.0879713542
  9
$USRTIMER
 70
     1
  9
$ANGBASE
 50
0.0
  9
$ANGDIR
 70
     0
  9
$PDMODE
 70
     1
  9
$PDSIZE
 40
-5.0
  9
$PLINEWID
 40
0.0
  9
$COORDS
 70
     0
  9
$SPLFRAME
 70
     0
  9
$SPLINETYPE
 70
     6
  9
$SPLINESEGS
 70
     8
  9
$ATTDIA
 70
     1
  9
$ATTREQ
 70
     1
  9
$HANDLING
 70
     1
  9
$HANDSEED
  5
1876
  9
$SURFTAB1
 70
     6
  9
$SURFTAB2
 70
     6
  9
$SURFTYPE
 70
     6
  9
$SURFU
 70
     6
  9
$SURFV
 70
     6
  9
$UCSNAME
  2

  9
$UCSORG
 10
0.0
 20
0.0
 30
0.0
  9
$UCSXDIR
 10
1.0
 20
0.0
 30
0.0
  9
$UCSYDIR
 10
0.0
 20
1.0
 30
0.0
  9
$PUCSNAME
  2

  9
$PUCSORG
 10
0.0
 20
0.0
 30
0.0
  9
$PUCSXDIR
 10
1.0
 20
0.0
 30
0.0
  9
$PUCSYDIR
 10
0.0
 20
1.0
 30
0.0
  9
$USERI1
 70
     1
  9
$USERI2
 70
     0
  9
$USERI3
 70
     0
  9
$USERI4
 70
     0
  9
$USERI5
 70
     0
  9
$USERR1
 40
0.0
  9
$USERR2
 40
0.0
  9
$USERR3
 40
0.0
  9
$USERR4
 40
0.0
  9
$USERR5
 40
0.0
  9
$WORLDVIEW
 70
     1
  9
$SHADEDGE
 70
     3
  9
$SHADEDIF
 70
    70
  9
$TILEMODE
 70
     1
  9
$MAXACTVP
 70
    16
  9
$PLIMCHECK
 70
     0
  9
$PEXTMIN
 10
1.0000000000000000E+020
 20
1.0000000000000000E+020
 30
1.0000000000000000E+020
  9
$PEXTMAX
 10
-1.0000000000000000E+020
 20
-1.0000000000000000E+020
 30
-1.0000000000000000E+020
  9
$PLIMMIN
 10
0.0
 20
0.0
  9
$PLIMMAX
 10
420.0
 20
297.0
  9
$UNITMODE
 70
     0
  9
$VISRETAIN
 70
     0
  9
$PLINEGEN
 70
     0
  9
$PSLTSCALE
 70
     1
  0
ENDSEC
  0
SECTION
  2
TABLES
  0
TABLE
  2
VPORT
 70
   247
  0
VPORT
  2
*ACTIVE
 70
     0
 10
0.0
 20
0.0
 11
1.0
 21
1.0
 12
14.85352294447693
 22
17.38953955177384
 13
0.0
 23
0.0
 14
7.0
 24
7.0
 15
7.0
 25
7.0
 16
0.0
 26
0.0
 36
1.0
 17
0.0
 27
0.0
 37
0.0
 40
116.1005154335527
 41
1.5459518599562361
 42
50.0
 43
0.0
 44
0.0
 50
0.0
 51
0.0
 71
     0
 72
  2000
 73
     1
 74
     0
 75
     0
 76
     0
 77
     0
 78
     0
  0
ENDTAB
  0
TABLE
  2
LTYPE
 70
    13
  0
LTYPE
  2
CONTINUOUS
 70
     0
  3
Solid line
 72
    65
 73
     0
 40
0.0
  0
LTYPE
  2
CENTER2
 70
     0
  3
___ _ ___ _ ___ _ ___ _ ___ _ ___ _ ___ _ ___ _
 72
    65
 73
     4
 40
1.125
 49
0.75
 49
-0.125
 49
0.125
 49
-0.125
  0
LTYPE
  2
HIDDEN2
 70
     0
  3
_ _ _ _ _ _ _ _ _ _ _ _ _ _ _ _ _ _ _ _ _ _ _ _
 72
    65
 73
     2
 40
0.1875
 49
0.125
 49
-0.0625
  0
LTYPE
  2
PHANTOM2
 70
     0
  3
___ _ _ ___ _ _ ___ _ _ ___ _ _ ___ _ _ ___ _ _
 72
    65
 73
     6
 40
1.25
 49
0.625
 49
-0.125
 49
0.125
 49
-0.125
 49
0.125
 49
-0.125
  0
LTYPE
  2
AMCONSTR
 70
     0
  3
_______________________
 72
    65
 73
     2
 40
9999.0
 49
9999.0
 49
0.0
  0
LTYPE
  2
AM_ISO02W050
 70
     0
  3
__ __ __ __ __ __ __ __ __ __ __ __ __ __ __
 72
    65
 73
     2
 40
7.5
 49
6.0
 49
-1.5
  0
LTYPE
  2
HIDDEN
 70
     0
  3
Hidden __ __ __ __ __ __ __ __ __ __ __ __ __ _
 72
    65
 73
     2
 40
9.5249999999999986
 49
6.3499999999999988
 49
-3.1749999999999989
  0
LTYPE
  2
CENTER
 70
     0
  3
____ _ ____ _ ____ _ ____ _ ____ _ ____ _ ____ 
 72
    65
 73
     4
 40
2.0
 49
1.25
 49
-0.25
 49
0.25
 49
-0.25
  0
LTYPE
  2
ACJISTGB
 70
     0
  3
__ . . __ . .
 72
    65
 73
     6
 40
9.0
 49
4.0
 49
-1.0
 49
1.0
 49
-1.0
 49
1.0
 49
-1.0
  0
LTYPE
  2
ACJISTGL
 70
     0
  3
_ _ _ _ _
 72
    65
 73
     2
 40
3.0
 49
2.0
 49
-1.0
  0
LTYPE
  2
ACISOWELD
 70
     0
  3
_ _ _ _ _
 72
    65
 73
     2
 40
2.0
 49
2.0
 49
-1.0
  0
LTYPE
  2
ACISOTGB
 70
     0
  3
__ . . __ . .
 72
    65
 73
     6
 40
9.0
 49
4.0
 49
-1.0
 49
1.0
 49
-1.0
 49
1.0
 49
-1.0
  0
LTYPE
  2
ACISOTGL
 70
     0
  3
_ _ _ _ _
 72
    65
 73
     2
 40
3.0
 49
2.0
 49
-1.0
  0
ENDTAB
  0
TABLE
  2
LAYER
 70
    11
  0
LAYER
  2
0
 70
     0
 62
     7
  6
CONTINUOUS
  0
LAYER
  2
240
 70
     0
 62
     4
  6
CONTINUOUS
  0
LAYER
  2
241
 70
     0
 62
   211
  6
CONTINUOUS
  0
LAYER
  2
242
 70
     0
 62
     3
  6
CONTINUOUS
  0
LAYER
  2
245
 70
     0
 62
     2
  6
CENTER2
  0
LAYER
  2
250
 70
     0
 62
     3
  6
CONTINUOUS
  0
LAYER
  2
DEFPOINTS
 70
     0
 62
     7
  6
CONTINUOUS
  0
ENDTAB
  0
TABLE
  2
STYLE
 70
     6
  0
STYLE
  2
STANDARD
 70
     0
 40
0.0
 41
1.0
 50
0.0
 71
     0
 42
3.0
  3
romans.shx
  4
BIGFONT.SHX
  0
STYLE
  2
YOKO
 70
     0
 40
0.0
 41
1.0
 50
0.0
 71
     0
 42
3.0
  3
romans.shx
  4
extfont.shx
  0
STYLE
  2
ACJISGDT
 70
     0
 40
0.0
 41
1.0
 50
0.0
 71
     0
 42
3.0
  3
amgdt.shx
  4
extfont.shx
  0
STYLE
  2
ACJISTS
 70
     0
 40
1.0
 41
1.0
 50
0.0
 71
     0
 42
3.0
  3
amgdt.shx
  4
extfont.shx
  0
STYLE
  2
ACISOTS
 70
     0
 40
1.0
 41
1.0
 50
0.0
 71
     0
 42
3.0
  3
amgdt.shx
  4
extfont.shx
  0
STYLE
  2
ACISOGDT
 70
     0
 40
0.0
 41
1.0
 50
0.0
 71
     0
 42
3.0
  3
amgdt.shx
  4
extfont.shx
  0
ENDTAB
  0
TABLE
  2
VIEW
 70
     0
  0
ENDTAB
  0
TABLE
  2
UCS
 70
     0
  0
ENDTAB
  0
TABLE
  2
APPID
 70
    32
  0
APPID
  2
ACAD
 70
     0
  0
APPID
  2
GLOBAL
 70
     0
  0
APPID
  2
DETAIL
 70
     0
  0
APPID
  2
GRPNAME
 70
     0
  0
APPID
  2
GPARA
 70
     0
  0
APPID
  2
DCO15
 70
     0
  0
APPID
  2
ITEMNAME
 70
     0
  0
APPID
  2
GRADE_0
 70
     0
  0
APPID
  2
ACAD_PSEXT
 70
     0
  0
APPID
  2
CONTENTBLOCKICON
 70
     0
  0
APPID
  2
MCAD_NO_VIS
 70
     0
  0
APPID
  2
ACAD_TEMP_GRAPHIC
 70
     0
  0
APPID
  2
ACATTRIBSERVICES
 70
     0
  0
APPID
  2
GENIUS_GENSCREG_15
 70
     0
  0
APPID
  2
GENIUS_GENODEF_13
 70
     0
  0
APPID
  2
GENIUS_GENOBJ-N-SDF_13
 70
     0
  0
APPID
  2
GENIUS_GENREC_14
 70
     0
  0
APPID
  2
GENIUS_GENOBJ-N-REC_13
 70
     0
  0
APPID
  2
GENIUS_GENDIMSH_14
 70
     0
  0
APPID
  2
GENIUS_GENOBJ-N-DIM_13
 70
     0
  0
APPID
  2
GENIUS_GENDIM_13
 70
     0
  0
APPID
  2
GENIUS_GENDTOL_13
 70
     0
  0
APPID
  2
GENIUS_GENOLIS_13
 70
     0
  0
APPID
  2
GENIUS_GENOENT_13
 70
     0
  0
APPID
  2
GENIUS_GENOBJ-F-FEM_13
 70
     0
  0
APPID
  2
GENIUS_GENOREF_13
 70
     0
  0
APPID
  2
GENIUS_GEFFEM_13
 70
     0
  0
APPID
  2
GENIUS_GEFFEMP_13
 70
     0
  0
APPID
  2
AD_DRAW
 70
     0
  0
APPID
  2
DESIGNERASSEMBLIES
 70
     0
  0
APPID
  2
ACADM_DIM_EDIT
 70
     0
  0
APPID
  2
AMDT_DM_ADJ
 70
     0
  0
ENDTAB
  0
TABLE
  2
DIMSTYLE
 70
    26
  0
DIMSTYLE
  2
BIGT
 70
     0
  3

  4

  5
OPEN
  6

  7

 40
1.0
 41
2.2299999999999991
 42
0.5
 43
7.0
 44
1.0
 45
0.0
 46
0.0
 47
0.0
 48
0.01
140
2.7999999999999989
141
0.0
142
0.0
143
25.399999999999999
144
1.0
145
0.0
146
1.0
147
1.0
 71
     0
 72
     0
 73
     0
 74
     0
 75
     0
 76
     0
 77
     3
 78
     9
170
     0
171
     2
172
     1
173
     0
174
     1
175
     0
176
   256
177
   256
178
    40
  0
DIMSTYLE
  2
BIGT$0
 70
     0
  3

  4

  5
OPEN
  6

  7

 40
1.0
 41
2.2299999999999991
 42
0.5
 43
7.0
 44
1.0
 45
0.0
 46
0.0
 47
0.0
 48
0.01
140
2.7999999999999989
141
0.0
142
0.0
143
25.399999999999999
144
1.0
145
0.0
146
1.0
147
1.0
 71
     0
 72
     0
 73
     0
 74
     0
 75
     0
 76
     0
 77
     3
 78
     9
170
     0
171
     2
172
     1
173
     0
174
     0
175
     0
176
   256
177
   256
178
    40
  0
DIMSTYLE
  2
BIGT$2
 70
     0
  3

  4

  5
OPEN
  6

  7

 40
1.0
 41
2.2299999999999991
 42
0.5
 43
7.0
 44
1.0
 45
0.0
 46
0.0
 47
0.0
 48
0.01
140
2.7999999999999989
141
0.0
142
0.0
143
25.399999999999999
144
1.0
145
0.0
146
1.0
147
1.0
 71
     0
 72
     0
 73
     0
 74
     0
 75
     0
 76
     0
 77
     3
 78
     9
170
     0
171
     2
172
     1
173
     0
174
     0
175
     0
176
   256
177
   256
178
    40
  0
DIMSTYLE
  2
BIGT$3
 70
     0
  3

  4

  5
OPEN
  6

  7

 40
1.0
 41
2.2299999999999991
 42
0.5
 43
2.5
 44
1.0
 45
0.0
 46
0.0
 47
0.0
 48
0.01
140
2.7999999999999989
141
0.0
142
0.0
143
25.399999999999999
144
1.0
145
0.0
146
1.0
147
1.0
 71
     0
 72
     0
 73
     0
 74
     0
 75
     0
 76
     0
 77
     3
 78
     9
170
     0
171
     2
172
     1
173
     0
174
     0
175
     0
176
   256
177
   256
178
    40
  0
DIMSTYLE
  2
BIGT$4
 70
     0
  3

  4

  5
OPEN
  6

  7

 40
1.0
 41
2.2299999999999991
 42
0.5
 43
2.5
 44
1.0
 45
0.0
 46
0.0
 47
0.0
 48
0.01
140
2.7999999999999989
141
0.0
142
0.0
143
25.399999999999999
144
1.0
145
0.0
146
1.0
147
1.0
 71
     0
 72
     0
 73
     0
 74
     0
 75
     0
 76
     0
 77
     3
 78
     9
170
     0
171
     2
172
     1
173
     0
174
     0
175
     0
176
   256
177
   256
178
    40
  0
DIMSTYLE
  2
BIGT$6
 70
     0
  3

  4

  5
OPEN
  6

  7

 40
1.0
 41
2.2299999999999991
 42
0.5
 43
2.5
 44
1.0
 45
0.0
 46
0.0
 47
0.0
 48
0.01
140
2.7999999999999989
141
0.0
142
0.0
143
25.399999999999999
144
1.0
145
0.0
146
1.0
147
1.0
 71
     0
 72
     0
 73
     0
 74
     0
 75
     0
 76
     0
 77
     3
 78
     9
170
     0
171
     2
172
     1
173
     0
174
     0
175
     0
176
   256
177
   256
178
    40
  0
DIMSTYLE
  2
BIGT$7
 70
     0
  3

  4

  5
OPEN
  6

  7

 40
0.0
 41
2.2299999999999991
 42
0.5
 43
7.0
 44
1.0
 45
0.0
 46
0.0
 47
0.0
 48
0.01
140
2.7999999999999989
141
0.0
142
0.0
143
25.399999999999999
144
1.0
145
0.0
146
1.0
147
1.0
 71
     0
 72
     0
 73
     0
 74
     0
 75
     0
 76
     0
 77
     3
 78
     9
170
     0
171
     2
172
     0
173
     0
174
     0
175
     0
176
   256
177
   256
178
    40
  0
DIMSTYLE
  2
BIGT$SF
 70
     0
  3

  4

  5
OPEN
  6

  7

 40
1.0
 41
2.2299999999999991
 42
0.5
 43
7.0
 44
1.0
 45
0.0
 46
0.0
 47
0.0
 48
0.0
140
2.7999999999999989
141
0.0
142
0.0
143
25.399999999999999
144
1.0
145
0.0
146
1.0
147
1.0
 71
     0
 72
     0
 73
     0
 74
     0
 75
     0
 76
     0
 77
     3
 78
     9
170
     0
171
     2
172
     1
173
     0
174
     0
175
     0
176
   256
177
   256
178
    40
  0
DIMSTYLE
  2
BIGT$SH
 70
     0
  3

  4

  5
OPEN
  6

  7

 40
1.0
 41
2.2299999999999991
 42
0.5
 43
7.0
 44
1.0
 45
0.0
 46
0.0
 47
0.0
 48
0.0
140
2.7999999999999989
141
0.0
142
0.0
143
25.399999999999999
144
1.0
145
0.0
146
1.0
147
1.0
 71
     0
 72
     0
 73
     0
 74
     0
 75
     0
 76
     0
 77
     3
 78
     9
170
     0
171
     2
172
     1
173
     0
174
     0
175
     0
176
   256
177
   256
178
    40
  0
DIMSTYLE
  2
AM_ISO
 70
     0
  3

  4
"
  5

  6

  7

 40
1.0
 41
2.5
 42
1.0
 43
10.0
 44
1.0
 45
0.0
 46
0.0
 47
0.1
 48
0.1
140
3.5
141
0.0
142
0.0
143
0.0393701
144
1.0
145
0.0
146
0.71
147
1.5
 71
     0
 72
     0
 73
     0
 74
     0
 75
     0
 76
     0
 77
     1
 78
     8
170
     0
171
     2
172
     1
173
     0
174
     0
175
     0
176
   256
177
   256
178
     2
  0
DIMSTYLE
  2
AM_ISO$3
 70
     0
  3

  4
"
  5

  6

  7

 40
1.0
 41
2.5
 42
1.0
 43
10.0
 44
1.0
 45
0.0
 46
0.0
 47
0.1
 48
0.1
140
3.5
141
0.0
142
0.0
143
0.0393701
144
1.0
145
0.0
146
0.71
147
1.5
 71
     0
 72
     0
 73
     0
 74
     1
 75
     0
 76
     0
 77
     1
 78
     8
170
     0
171
     2
172
     0
173
     0
174
     0
175
     0
176
   256
177
   256
178
     2
  0
DIMSTYLE
  2
AM_ISO$4
 70
     0
  3

  4
"
  5

  6

  7

 40
1.0
 41
2.5
 42
1.0
 43
10.0
 44
1.0
 45
0.0
 46
0.0
 47
0.1
 48
0.1
140
3.5
141
0.0
142
0.0
143
0.0393701
144
1.0
145
0.0
146
0.71
147
1.5
 71
     0
 72
     0
 73
     0
 74
     1
 75
     0
 76
     0
 77
     1
 78
     8
170
     0
171
     2
172
     0
173
     0
174
     0
175
     0
176
   256
177
   256
178
     2
  0
DIMSTYLE
  2
AM_ISO$6
 70
     0
  3

  4
"
  5

  6

  7

 40
1.0
 41
2.5
 42
1.0
 43
10.0
 44
1.0
 45
0.0
 46
0.0
 47
0.1
 48
0.1
140
3.5
141
0.0
142
0.0
143
0.0393701
144
1.0
145
0.0
146
0.71
147
1.5
 71
     0
 72
     0
 73
     0
 74
     0
 75
     0
 76
     0
 77
     0
 78
     8
170
     0
171
     2
172
     1
173
     0
174
     0
175
     0
176
   256
177
   256
178
     2
  0
DIMSTYLE
  2
AM_ISO$7
 70
     0
  3

  4
"
  5

  6

  7

 40
1.0
 41
2.5
 42
1.0
 43
10.0
 44
1.0
 45
0.0
 46
0.0
 47
0.1
 48
0.1
140
5.0
141
0.0
142
0.0
143
0.0393701
144
1.0
145
0.0
146
0.71
147
1.5
 71
     0
 72
     0
 73
     0
 74
     0
 75
     0
 76
     0
 77
     1
 78
     8
170
     0
171
     2
172
     1
173
     0
174
     0
175
     0
176
   256
177
   256
178
     2
  0
DIMSTYLE
  2
AM_ISO$SF
 70
     0
  3

  4
"
  5

  6

  7

 40
1.0
 41
2.5
 42
1.0
 43
10.0
 44
1.0
 45
0.0
 46
0.0
 47
0.1
 48
0.1
140
3.5
141
0.0
142
0.0
143
0.0393701
144
1.0
145
0.0
146
0.71
147
1.5
 71
     0
 72
     0
 73
     0
 74
     0
 75
     1
 76
     1
 77
     1
 78
     8
170
     0
171
     2
172
     1
173
     0
174
     0
175
     0
176
   256
177
   256
178
     2
  0
DIMSTYLE
  2
AM_ISO$SH
 70
     0
  3

  4
"
  5

  6
GENAXEH
  7

 40
1.0
 41
2.5
 42
1.0
 43
10.0
 44
1.0
 45
0.0
 46
0.0
 47
0.1
 48
0.1
140
3.5
141
0.0
142
0.0
143
0.0393701
144
2.0
145
0.0
146
0.71
147
1.5
 71
     0
 72
     0
 73
     0
 74
     0
 75
     1
 76
     1
 77
     1
 78
     8
170
     0
171
     2
172
     1
173
     1
174
     0
175
     0
176
   256
177
   256
178
     2
  0
DIMSTYLE
  2
TECHNICAL_OSAKA
 70
     0
  3

  4
"
  5
OPEN30
  6

  7

 40
1.0
 41
2.5
 42
1.0
 43
10.0
 44
1.0
 45
0.0
 46
0.0
 47
0.1
 48
0.1
140
2.7999999999999989
141
0.0
142
0.0
143
0.0393701
144
1.0
145
0.0
146
0.71
147
1.5
 71
     0
 72
     0
 73
     0
 74
     0
 75
     0
 76
     0
 77
     3
 78
     8
170
     0
171
     2
172
     1
173
     0
174
     0
175
     0
176
   256
177
   256
178
    40
  0
DIMSTYLE
  2
TECHNICAL_OSAKA$3
 70
     0
  3

  4
"
  5
OPEN30
  6

  7

 40
1.0
 41
2.5
 42
1.0
 43
10.0
 44
1.0
 45
0.0
 46
0.0
 47
0.1
 48
0.1
140
2.7999999999999989
141
0.0
142
0.0
143
0.0393701
144
1.0
145
0.0
146
0.71
147
1.5
 71
     0
 72
     0
 73
     0
 74
     1
 75
     0
 76
     0
 77
     3
 78
     8
170
     0
171
     2
172
     0
173
     0
174
     0
175
     0
176
   256
177
   256
178
    40
  0
DIMSTYLE
  2
TECHNICAL_OSAKA$4
 70
     0
  3

  4
"
  5
OPEN30
  6

  7

 40
1.0
 41
2.5
 42
1.0
 43
10.0
 44
1.0
 45
0.0
 46
0.0
 47
0.1
 48
0.1
140
2.7999999999999989
141
0.0
142
0.0
143
0.0393701
144
1.0
145
0.0
146
0.71
147
1.5
 71
     0
 72
     0
 73
     0
 74
     1
 75
     0
 76
     0
 77
     3
 78
     8
170
     0
171
     2
172
     0
173
     0
174
     0
175
     0
176
   256
177
   256
178
    40
  0
DIMSTYLE
  2
TECHNICAL_OSAKA$6
 70
     0
  3

  4
"
  5
OPEN30
  6

  7

 40
1.0
 41
2.5
 42
1.0
 43
10.0
 44
1.0
 45
0.0
 46
0.0
 47
0.1
 48
0.1
140
2.7999999999999989
141
0.0
142
0.0
143
0.0393701
144
1.0
145
0.0
146
0.71
147
1.5
 71
     0
 72
     0
 73
     0
 74
     0
 75
     0
 76
     0
 77
     0
 78
     8
170
     0
171
     2
172
     1
173
     0
174
     0
175
     0
176
   256
177
   256
178
    40
  0
DIMSTYLE
  2
TECHNICAL_OSAKA$7
 70
     0
  3

  4
"
  5
OPEN30
  6

  7

 40
1.0
 41
2.5
 42
1.0
 43
10.0
 44
1.0
 45
0.0
 46
0.0
 47
0.1
 48
0.1
140
2.7999999999999989
141
0.0
142
0.0
143
0.0393701
144
1.0
145
0.0
146
0.71
147
1.5
 71
     0
 72
     0
 73
     0
 74
     0
 75
     0
 76
     0
 77
     3
 78
     8
170
     0
171
     2
172
     1
173
     0
174
     0
175
     0
176
   256
177
   256
178
    40
  0
DIMSTYLE
  2
TECHNICAL_OSAKA$SF
 70
     0
  3

  4
"
  5
OPEN30
  6
OPEN30
  7
OPEN30
 40
1.0
 41
2.5
 42
1.0
 43
10.0
 44
1.0
 45
0.0
 46
0.0
 47
0.1
 48
0.1
140
3.5
141
0.0
142
0.0
143
0.0393701
144
1.0
145
0.0
146
0.71
147
1.5
 71
     0
 72
     0
 73
     0
 74
     0
 75
     1
 76
     1
 77
     3
 78
     8
170
     0
171
     2
172
     1
173
     0
174
     0
175
     0
176
   256
177
   256
178
    40
  0
DIMSTYLE
  2
TECHNICAL_OSAKA$SH
 70
     0
  3

  4
"
  5
OPEN30
  6
GENAXEH
  7
OPEN30
 40
1.0
 41
2.5
 42
1.0
 43
10.0
 44
1.0
 45
0.0
 46
0.0
 47
0.1
 48
0.1
140
3.5
141
0.0
142
0.0
143
0.0393701
144
2.0
145
0.0
146
0.71
147
1.5
 71
     0
 72
     0
 73
     0
 74
     0
 75
     1
 76
     1
 77
     3
 78
     8
170
     0
171
     2
172
     1
173
     1
174
     0
175
     0
176
   256
177
   256
178
    40
  0
ENDTAB
  0
ENDSEC
  0
SECTION
  2
BLOCKS
  0
BLOCK
  8
0
  2
$MODEL_SPACE
 70
     0
 10
0.0
 20
0.0
 30
0.0
  3
$MODEL_SPACE
  1

  0
ENDBLK
  5
1C
  8
0
  0
BLOCK
 67
     1
  8
0
  2
$PAPER_SPACE
 70
     0
 10
0.0
 20
0.0
 30
0.0
  3
$PAPER_SPACE
  1

  0
ENDBLK
  5
19
 67
     1
  8
0
  0
BLOCK
  8
0
  2
_OPEN
 70
     0
 10
0.0
 20
0.0
 30
0.0
  3
_OPEN
  1

  0
LINE
  5
C27
  8
0
  6
BYBLOCK
 62
     0
 10
-1.0
 20
0.1666666666666666
 30
0.0
 11
0.0
 21
0.0
 31
0.0
  0
LINE
  5
C28
  8
0
  6
BYBLOCK
 62
     0
 10
-1.0
 20
-0.1666666666666666
 30
0.0
 11
0.0
 21
0.0
 31
0.0
  0
LINE
  5
C29
  8
0
  6
BYBLOCK
 62
     0
 10
0.0
 20
0.0
 30
0.0
 11
-1.0
 21
0.0
 31
0.0
  0
ENDBLK
  5
C2A
  8
0
  0
BLOCK
  8
0
  2
矢印なし
 70
     0
 10
0.0
 20
0.0
 30
0.0
  3
矢印なし
  1

  0
ENDBLK
  5
6E5
  8
0
  0
BLOCK
  8
0
  2
GENAXEH
 70
     0
 10
0.0
 20
0.0
 30
0.0
  3
GENAXEH
  1

  0
LINE
  5
C52
  8
0
 10
-1.0
 20
0.0
 30
0.0
 11
1.0
 21
0.0
 31
0.0
  0
ENDBLK
  5
C53
  8
0
  0
BLOCK
  8
0
  2
_OPEN30
 70
     0
 10
0.0
 20
0.0
 30
0.0
  3
_OPEN30
  1

  0
LINE
  5
C77
  8
0
  6
BYBLOCK
 62
     0
 10
-1.0
 20
0.26794919
 30
0.0
 11
0.0
 21
0.0
 31
0.0
  0
LINE
  5
C78
  8
0
  6
BYBLOCK
 62
     0
 10
0.0
 20
0.0
 30
0.0
 11
-1.0
 21
-0.26794919
 31
0.0
  0
LINE
  5
C79
  8
0
  6
BYBLOCK
 62
     0
 10
0.0
 20
0.0
 30
0.0
 11
-1.0
 21
0.0
 31
0.0
  0
ENDBLK
  5
C7A
  8
0
  0
BLOCK
  8
0
  2
*U23
 70
     1
 10
0.0
 20
0.0
 30
0.0
  3
*U23
  1

  0
TEXT
  5
1468
  8
250
 62
    40
 10
62.0
 20
-3.7999999999999989
 30
0.0
 40
2.7999999999999989
  1
\U+2205
 50
90.0
  0
TEXT
  5
1469
  8
250
 62
    40
 10
62.0
 20
-1.2666666666666671
 30
0.0
 40
2.7999999999999989
  1
80
 50
90.0
  0
ENDBLK
  5
146B
  8
0
  0
BLOCK
  8
0
  2
*U24
 70
     1
 10
0.0
 20
0.0
 30
0.0
  3
*U24
  1

  0
TEXT
  5
146D
  8
250
 62
    40
 10
-25.5
 20
-3.7999999999999989
 30
0.0
 40
2.7999999999999989
  1
\U+2205
 50
90.0
  0
TEXT
  5
146E
  8
250
 62
    40
 10
-25.5
 20
-1.2666666666666671
 30
0.0
 40
2.7999999999999989
  1
60
 50
90.0
  0
ENDBLK
  5
1470
  8
0
  0
BLOCK
  8
0
  2
*U25
 70
     1
 10
0.0
 20
0.0
 30
0.0
  3
*U25
  1

  0
TEXT
  5
1472
  8
250
 62
    40
 10
-11.5
 20
-4.9333333333333318
 30
0.0
 40
2.7999999999999989
  1
12.4
 50
90.0
  0
ENDBLK
  5
1474
  8
0
  0
BLOCK
  8
0
  2
*U26
 70
     1
 10
0.0
 20
0.0
 30
0.0
  3
*U26
  1

  0
TEXT
  5
1476
  8
250
 62
    40
 10
-18.5
 20
-3.7999999999999989
 30
0.0
 40
2.7999999999999989
  1
\U+2205
 50
90.0
  0
TEXT
  5
1477
  8
250
 62
    40
 10
-18.5
 20
-1.2666666666666671
 30
0.0
 40
2.7999999999999989
  1
27
 50
90.0
  0
ENDBLK
  5
1479
  8
0
  0
BLOCK
  8
0
  2
*U27
 70
     1
 10
0.0
 20
0.0
 30
0.0
  3
*U27
  1

  0
TEXT
  5
14A1
  8
250
 62
    40
 10
318.44038055692278
 20
65.831112587278682
 30
0.0
 40
2.7999999999999989
  1
17.584°
 50
8.8077636524545291
  0
ENDBLK
  5
14A3
  8
0
  0
BLOCK
  8
0
  2
*U28
 70
     1
 10
0.0
 20
0.0
 30
0.0
  3
*U28
  1

  0
TEXT
  5
14A5
  8
250
 62
    40
 10
42.033418383333341
 20
50.0
 30
0.0
 40
2.7999999999999989
  1
11
  0
ENDBLK
  5
14A7
  8
0
  0
BLOCK
  8
0
  2
*U29
 70
     1
 10
0.0
 20
0.0
 30
0.0
  3
*U29
  1

  0
TEXT
  5
14A9
  8
250
 62
    40
 10
22.333375858333341
 20
57.0
 30
0.0
 40
2.7999999999999989
  1
50
  0
ENDBLK
  5
14AB
  8
0
  0
BLOCK
  8
0
  2
*U30
 70
     1
 10
0.0
 20
0.0
 30
0.0
  3
*U30
  1

  0
TEXT
  5
14AD
  8
250
 62
    40
 10
229.55513636421
 20
99.358875404872833
 30
0.0
 40
2.7999999999999989
  1
L=11
 50
90.0
  0
ENDBLK
  5
14AF
  8
0
  0
BLOCK
  8
0
  2
*U31
 70
     1
 10
0.0
 20
0.0
 30
0.0
  3
*U31
  1

  0
TEXT
  5
14B1
  8
250
 62
    40
 10
224.04593721098351
 20
100.5097076562504
 30
0.0
 40
2.7999999999999989
  1
L=2
 50
90.0
  0
ENDBLK
  5
14B3
  8
0
  0
BLOCK
  8
0
  2
*U32
 70
     1
 10
0.0
 20
0.0
 30
0.0
  3
*U32
  1

  0
TEXT
  5
14B5
  8
250
 62
    40
 10
-3.0302756668358191
 20
-17.919184954501869
 30
0.0
 40
3.0
  1
刃先
  7
YOKO
  0
ENDBLK
  5
14B7
  8
0
  0
BLOCK
  8
0
  2
*U33
 70
     1
 10
0.0
 20
0.0
 30
0.0
  3
*U33
  1

  0
INSERT
  5
14B9
  8
250
  6
CONTINUOUS
  2
_OPEN
 10
10.04647764311596
 20
-13.936502060823431
 30
0.0
 41
2.2299999999999991
 42
2.2299999999999991
 43
2.2299999999999991
 50
59.999999999999993
  0
POLYLINE
  5
14BA
  8
250
  6
CONTINUOUS
 66
     1
 10
0.0
 20
0.0
 30
0.0
  0
VERTEX
  5
14BB
  8
250
  6
CONTINUOUS
 10
8.9314776431159633
 20
-15.867738711262721
 30
0.0
  0
VERTEX
  5
14BC
  8
250
  6
CONTINUOUS
 10
7.1697243331641678
 20
-18.919184954501869
 30
0.0
  0
SEQEND
  5
14BD
  8
250
  6
CONTINUOUS
  0
ENDBLK
  5
14BF
  8
0
  0
BLOCK
  8
0
  2
*U34
 70
     1
 10
0.0
 20
0.0
 30
0.0
  3
*U34
  1

  0
TEXT
  5
14C1
  8
250
 62
    40
 10
143.2365020608234
 20
130.24149657451181
 30
0.0
 40
2.7999999999999989
  1
L=11
  0
ENDBLK
  5
14C3
  8
0
  0
BLOCK
  8
0
  2
*U35
 70
     1
 10
0.0
 20
0.0
 30
0.0
  3
*U35
  1

  0
TEXT
  5
14C5
  8
250
 62
    40
 10
139.46441926846799
 20
127.4868969978986
 30
0.0
 40
2.7999999999999989
  1
L=2
  0
ENDBLK
  5
14C7
  8
0
  0
ENDSEC
  0
SECTION
  2
ENTITIES
  0
INSERT
  5
6E6
  8
245
  2
矢印なし
 10
175.62382697000001
 20
90.551235719999994
 30
0.0
  0
TEXT
  5
A96
  8
241
 10
-35.0
 20
70.043695369074499
 30
0.0
 40
5.0
  1
FMH27-FCM80116-50
  7
YOKO
 11
-35.0
 21
70.043695369074499
 31
0.0
 73
     1
  0
ARC
  5
10C7
  8
241
  6
CONTINUOUS
 10
22.21116759253826
 20
-19.979592437281241
 30
0.0
 40
55.03457339328574
 50
61.009272441259661
 51
78.661302955104446
  0
ARC
  5
10C8
  8
241
  6
CONTINUOUS
 10
48.400000000000233
 20
27.284349198264241
 30
0.0
 40
1.0
 50
0.0
 51
61.009272441255781
  0
LINE
  5
10CA
  8
241
 10
24.399999999999999
 20
-33.385816820000002
 30
0.0
 11
24.399999999999999
 21
0.0
 31
0.0
  0
LINE
  5
10CB
  8
241
 10
33.399999999999999
 20
-38.942534250000001
 30
0.0
 11
33.399999999999999
 21
-24.60826801845181
 31
0.0
  0
LINE
  5
10CC
  8
241
 10
12.0
 20
-32.449489739999997
 30
0.0
 11
12.0
 21
0.0
 31
0.0
  0
LINE
  5
10CD
  8
241
 10
10.26794919
 20
-30.0
 30
0.0
 11
10.26794919
 21
0.0
 31
0.0
  0
LINE
  5
10CE
  8
240
  6
CONTINUOUS
 10
0.0
 20
-30.0
 30
0.0
 11
0.0
 21
-6.2000000000000002
 31
0.0
  0
LINE
  5
10D0
  8
240
  6
CONTINUOUS
 10
0.0
 20
-30.0
 30
0.0
 11
10.26794919
 21
-30.0
 31
0.0
  0
LINE
  5
10D1
  8
240
  6
CONTINUOUS
 10
26.432116539999999
 20
-34.376487169999997
 30
0.0
 11
32.612723680000002
 21
-38.563021880000001
 31
0.0
  0
LINE
  5
10D2
  8
240
  6
CONTINUOUS
 10
13.73205081
 20
-33.0
 30
0.0
 11
21.945572460000001
 21
-33.0
 31
0.0
  0
LINE
  5
10D3
  8
240
  6
CONTINUOUS
 10
10.26794919
 20
-30.0
 30
0.0
 11
11.1339746
 21
-31.5
 31
0.0
  0
ARC
  5
10D4
  8
240
  6
CONTINUOUS
 10
13.73205081
 20
-30.0
 30
0.0
 40
3.0
 50
210.0
 51
270.0
  0
ARC
  5
10D5
  8
240
  6
CONTINUOUS
 10
21.945572460000001
 20
-41.0
 30
0.0
 40
8.0000000000000266
 50
55.887612509999997
 51
90.0
  0
LINE
  5
10D6
  8
240
 10
50.000085050000003
 20
-40.0
 30
0.0
 11
39.000085050000003
 21
-40.0
 31
0.0
  0
LINE
  5
10D7
  8
240
  6
CONTINUOUS
 10
34.350723739999999
 20
-39.078690299999998
 30
0.0
 11
37.167574172048802
 21
-39.026526403318179
 31
0.0
  0
ARC
  5
10D8
  8
240
  6
CONTINUOUS
 10
34.295177709999997
 20
-36.079204570000002
 30
0.0
 40
3.0000000000000431
 50
235.88761251
 51
271.06091169000001
  0
LINE
  5
10D9
  8
240
  6
CONTINUOUS
 10
10.26794919
 20
30.0
 30
0.0
 11
0.0
 21
30.0
 31
0.0
  0
LINE
  5
10DA
  8
241
  6
HIDDEN2
 10
18.199999999999999
 20
13.5
 30
0.0
 11
0.0
 21
13.5
 31
0.0
  0
LINE
  5
10DB
  8
245
 10
-1.0
 20
0.0
 30
0.0
 11
51.000085050000003
 21
0.0
 31
0.0
  0
LINE
  5
10DC
  8
240
  6
CONTINUOUS
 10
0.0
 20
30.0
 30
0.0
 11
0.0
 21
6.2000000000000002
 31
0.0
  0
LINE
  5
10DD
  8
240
 10
7.0
 20
6.2000000000000002
 30
0.0
 11
7.0
 21
-6.2000000000000002
 31
0.0
  0
LINE
  5
10DE
  8
240
 10
0.0
 20
-6.2000000000000002
 30
0.0
 11
7.0
 21
-6.2000000000000002
 31
0.0
  0
LINE
  5
10DF
  8
240
 10
0.0
 20
6.2000000000000002
 30
0.0
 11
7.0
 21
6.2000000000000002
 31
0.0
  0
LINE
  5
10E0
  8
241
 10
10.26794919
 20
30.0
 30
0.0
 11
10.26794919
 21
0.0
 31
0.0
  0
LINE
  5
10E1
  8
241
 10
12.0
 20
32.449489739999997
 30
0.0
 11
12.0
 21
0.0
 31
0.0
  0
LINE
  5
10E2
  8
240
 10
49.399999999999991
 20
35.774339652991841
 30
0.0
 11
49.399999999999977
 21
25.700039329663909
 31
0.0
  0
LINE
  5
10E3
  8
241
 10
24.399999999999999
 20
33.385816820000002
 30
0.0
 11
24.399999999999999
 21
0.0
 31
0.0
  0
LINE
  5
10ED
  8
240
  6
CONTINUOUS
 10
49.399999999999999
 20
-2.88749126
 30
0.0
 11
49.388961190000003
 21
-2.8855448199999989
 31
0.0
1001
GRPNAME
1000
PASTMD01
  0
LINE
  5
10EE
  8
240
  6
CONTINUOUS
 10
32.612723680000002
 20
38.563021880000001
 30
0.0
 11
26.432116539999999
 21
34.376487169999997
 31
0.0
  0
LINE
  5
10EF
  8
240
  6
CONTINUOUS
 10
21.945572460000001
 20
33.0
 30
0.0
 11
13.73205081
 21
33.0
 31
0.0
  0
LINE
  5
10F0
  8
240
  6
CONTINUOUS
 10
11.1339746
 20
31.5
 30
0.0
 11
10.26794919
 21
30.0
 31
0.0
  0
ARC
  5
10F1
  8
240
  6
CONTINUOUS
 10
13.73205081
 20
30.0
 30
0.0
 40
3.000000000000028
 50
90.0
 51
150.0
  0
ARC
  5
10F2
  8
240
  6
CONTINUOUS
 10
21.945572460000001
 20
41.0
 30
0.0
 40
7.9999999999999707
 50
270.0
 51
304.11238749000012
  0
LINE
  5
10F5
  8
240
 10
37.167574171968013
 20
39.026526403113017
 30
0.0
 11
37.15302836
 21
39.02679577
 31
0.0
  0
LINE
  5
10F6
  8
240
  6
CONTINUOUS
 10
37.15302836
 20
39.02679577
 30
0.0
 11
34.350723739999999
 21
39.078690299999998
 31
0.0
  0
ARC
  5
10F7
  8
240
  6
CONTINUOUS
 10
34.295177709999997
 20
36.079204570000002
 30
0.0
 40
3.0000000000000391
 50
88.939088310000017
 51
124.11238749
  0
LINE
  5
10F8
  8
242
  6
PHANTOM2
 10
50.000085050000003
 20
40.0
 30
0.0
 11
39.000085050000003
 21
40.0
 31
0.0
  0
LINE
  5
1105
  8
245
 10
39.445311943607521
 20
34.815999999999953
 30
0.0
 11
47.606214079794867
 21
34.815999999999953
 31
0.0
  0
LINE
  5
1106
  8
245
 10
43.59999999999885
 20
31.431188244649089
 30
0.0
 11
43.599999999998772
 21
38.378021457072471
 31
0.0
  0
CIRCLE
  5
1107
  8
241
 10
43.599999999998808
 20
34.80165954076481
 30
0.0
 40
2.75
  0
LINE
  5
1180
  8
241
 10
37.810594292546241
 20
27.84664512086696
 30
0.0
 11
36.39425888636012
 21
24.942727196598749
 31
0.0
1001
GRPNAME
1000
PASTMD01
  0
LINE
  5
1181
  8
241
  6
CONTINUOUS
 10
49.400085049999973
 20
25.803105207656419
 30
0.0
 11
37.810594292546241
 21
27.84664512086696
 31
0.0
1001
GRPNAME
1000
PASTMD01
  0
LINE
  5
1182
  8
240
 10
49.399999999999991
 20
20.20902455666161
 30
0.0
 11
50.000085050000003
 21
19.99061146043346
 31
0.0
1001
GRPNAME
1000
PASTMD01
  0
LINE
  5
1183
  8
241
 10
49.38896118430722
 20
25.805066645307821
 30
0.0
 11
49.399999999999977
 21
25.700039329663909
 31
0.0
1001
GRPNAME
1000
PASTMD01
  0
LINE
  5
1185
  8
241
 10
33.326959839850701
 20
15.683326839705829
 30
0.0
 11
49.400000000000013
 21
12.288681786435401
 31
0.0
  0
ARC
  5
1186
  8
241
 10
34.331037555739037
 20
20.488454695667489
 30
0.0
 40
4.9089128910260973
 50
65.146403375337471
 51
258.19732416461079
  0
LINE
  5
1187
  8
241
 10
31.71520180571542
 20
16.28356293768363
 30
0.0
 11
49.400000000000013
 21
1.009608529616485
 31
0.0
  0
LINE
  5
1198
  8
241
 10
37.810594292546241
 20
-12.15335341028471
 30
0.0
 11
36.39425888636012
 21
-15.057271334552921
 31
0.0
1001
GRPNAME
1000
PASTMD01
  0
LINE
  5
1199
  8
241
  6
CONTINUOUS
 10
49.400085049999973
 20
-14.196893323495249
 30
0.0
 11
37.810594292546241
 21
-12.15335341028471
 31
0.0
1001
GRPNAME
1000
PASTMD01
  0
LINE
  5
119A
  8
240
 10
49.399999999999999
 20
-19.790973974490061
 30
0.0
 11
50.000085050000003
 21
-20.009387070718208
 31
0.0
1001
GRPNAME
1000
PASTMD01
  0
LINE
  5
119B
  8
241
 10
49.38896118430722
 20
-14.19493188584385
 30
0.0
 11
49.400000000000013
 21
-14.29995920148793
 31
0.0
1001
GRPNAME
1000
PASTMD01
  0
LINE
  5
119D
  8
241
 10
33.326959839850701
 20
-24.316671691445841
 30
0.0
 11
49.39999999999997
 21
-25.727609548570459
 31
0.0
  0
ARC
  5
119E
  8
241
 10
34.33103755573903
 20
-19.511543835484169
 30
0.0
 40
4.9089128910260991
 50
65.146403375337385
 51
258.19732416461079
  0
LINE
  5
119F
  8
241
 10
31.71520180571542
 20
-23.716435593468042
 30
0.0
 11
49.39999999999997
 21
-33.077720827783402
 31
0.0
  0
LINE
  5
11C1
  8
241
 10
33.400000000000013
 20
25.308267434922591
 30
0.0
 11
33.399999999999999
 21
33.90560309858639
 31
0.0
  0
LINE
  5
11C2
  8
241
 10
33.399999999999999
 20
-14.691731096229081
 30
0.0
 11
33.399999999999999
 21
14.82844139636952
 31
0.0
  0
LINE
  5
1252
  8
241
 10
48.573297315128052
 20
30.982232711877959
 30
0.0
 11
49.170299535740547
 21
32.959181873886919
 31
0.0
  0
LINE
  5
125A
  8
241
 10
36.432106481714527
 20
34.782443940107278
 30
0.0
 11
41.996218507127573
 21
32.567742594429589
 31
0.0
  0
POLYLINE
  5
125C
  8
241
 10
45.26077690987016
 20
29.995599197161926
 30
0.0
 66
     1
 70
     8
  0
VERTEX
  8
241
  5
14C8
 10
45.2608
 20
29.9956
 30
0.000000
  70
    32
  0
VERTEX
  8
241
  5
14C9
 10
45.2834
 20
29.9950
 30
0.000000
  70
    32
  0
VERTEX
  8
241
  5
14CA
 10
45.3061
 20
29.9943
 30
0.000000
  70
    32
  0
VERTEX
  8
241
  5
14CB
 10
45.3288
 20
29.9937
 30
0.000000
  70
    32
  0
VERTEX
  8
241
  5
14CC
 10
45.3514
 20
29.9931
 30
0.000000
  70
    32
  0
VERTEX
  8
241
  5
14CD
 10
45.3741
 20
29.9925
 30
0.000000
  70
    32
  0
VERTEX
  8
241
  5
14CE
 10
45.3967
 20
29.9918
 30
0.000000
  70
    32
  0
VERTEX
  8
241
  5
14CF
 10
45.4193
 20
29.9912
 30
0.000000
  70
    32
  0
VERTEX
  8
241
  5
14D0
 10
45.4419
 20
29.9906
 30
0.000000
  70
    32
  0
VERTEX
  8
241
  5
14D1
 10
45.4646
 20
29.9900
 30
0.000000
  70
    32
  0
VERTEX
  8
241
  5
14D2
 10
45.4872
 20
29.9894
 30
0.000000
  70
    32
  0
VERTEX
  8
241
  5
14D3
 10
45.5098
 20
29.9888
 30
0.000000
  70
    32
  0
VERTEX
  8
241
  5
14D4
 10
45.5324
 20
29.9882
 30
0.000000
  70
    32
  0
VERTEX
  8
241
  5
14D5
 10
45.5550
 20
29.9876
 30
0.000000
  70
    32
  0
VERTEX
  8
241
  5
14D6
 10
45.5775
 20
29.9870
 30
0.000000
  70
    32
  0
VERTEX
  8
241
  5
14D7
 10
45.6001
 20
29.9864
 30
0.000000
  70
    32
  0
VERTEX
  8
241
  5
14D8
 10
45.6227
 20
29.9859
 30
0.000000
  70
    32
  0
VERTEX
  8
241
  5
14D9
 10
45.6453
 20
29.9853
 30
0.000000
  70
    32
  0
VERTEX
  8
241
  5
14DA
 10
45.6678
 20
29.9847
 30
0.000000
  70
    32
  0
VERTEX
  8
241
  5
14DB
 10
45.6904
 20
29.9841
 30
0.000000
  70
    32
  0
VERTEX
  8
241
  5
14DC
 10
45.7129
 20
29.9836
 30
0.000000
  70
    32
  0
VERTEX
  8
241
  5
14DD
 10
45.7355
 20
29.9830
 30
0.000000
  70
    32
  0
VERTEX
  8
241
  5
14DE
 10
45.7580
 20
29.9825
 30
0.000000
  70
    32
  0
VERTEX
  8
241
  5
14DF
 10
45.7805
 20
29.9819
 30
0.000000
  70
    32
  0
VERTEX
  8
241
  5
14E0
 10
45.8030
 20
29.9814
 30
0.000000
  70
    32
  0
VERTEX
  8
241
  5
14E1
 10
45.8255
 20
29.9808
 30
0.000000
  70
    32
  0
VERTEX
  8
241
  5
14E2
 10
45.8481
 20
29.9803
 30
0.000000
  70
    32
  0
VERTEX
  8
241
  5
14E3
 10
45.8706
 20
29.9797
 30
0.000000
  70
    32
  0
VERTEX
  8
241
  5
14E4
 10
45.8930
 20
29.9792
 30
0.000000
  70
    32
  0
VERTEX
  8
241
  5
14E5
 10
45.9155
 20
29.9787
 30
0.000000
  70
    32
  0
VERTEX
  8
241
  5
14E6
 10
45.9380
 20
29.9781
 30
0.000000
  70
    32
  0
VERTEX
  8
241
  5
14E7
 10
45.9605
 20
29.9776
 30
0.000000
  70
    32
  0
VERTEX
  8
241
  5
14E8
 10
45.9830
 20
29.9771
 30
0.000000
  70
    32
  0
VERTEX
  8
241
  5
14E9
 10
46.0054
 20
29.9766
 30
0.000000
  70
    32
  0
VERTEX
  8
241
  5
14EA
 10
46.0279
 20
29.9761
 30
0.000000
  70
    32
  0
VERTEX
  8
241
  5
14EB
 10
46.0503
 20
29.9756
 30
0.000000
  70
    32
  0
VERTEX
  8
241
  5
14EC
 10
46.0728
 20
29.9751
 30
0.000000
  70
    32
  0
VERTEX
  8
241
  5
14ED
 10
46.0952
 20
29.9746
 30
0.000000
  70
    32
  0
VERTEX
  8
241
  5
14EE
 10
46.1176
 20
29.9741
 30
0.000000
  70
    32
  0
VERTEX
  8
241
  5
14EF
 10
46.1401
 20
29.9736
 30
0.000000
  70
    32
  0
VERTEX
  8
241
  5
14F0
 10
46.1625
 20
29.9731
 30
0.000000
  70
    32
  0
VERTEX
  8
241
  5
14F1
 10
46.1849
 20
29.9726
 30
0.000000
  70
    32
  0
VERTEX
  8
241
  5
14F2
 10
46.2073
 20
29.9721
 30
0.000000
  70
    32
  0
VERTEX
  8
241
  5
14F3
 10
46.2297
 20
29.9716
 30
0.000000
  70
    32
  0
VERTEX
  8
241
  5
14F4
 10
46.2521
 20
29.9711
 30
0.000000
  70
    32
  0
VERTEX
  8
241
  5
14F5
 10
46.2744
 20
29.9707
 30
0.000000
  70
    32
  0
VERTEX
  8
241
  5
14F6
 10
46.2968
 20
29.9702
 30
0.000000
  70
    32
  0
VERTEX
  8
241
  5
14F7
 10
46.3192
 20
29.9697
 30
0.000000
  70
    32
  0
VERTEX
  8
241
  5
14F8
 10
46.3416
 20
29.9693
 30
0.000000
  70
    32
  0
VERTEX
  8
241
  5
14F9
 10
46.3639
 20
29.9688
 30
0.000000
  70
    32
  0
VERTEX
  8
241
  5
14FA
 10
46.3863
 20
29.9684
 30
0.000000
  70
    32
  0
VERTEX
  8
241
  5
14FB
 10
46.4086
 20
29.9679
 30
0.000000
  70
    32
  0
VERTEX
  8
241
  5
14FC
 10
46.4309
 20
29.9675
 30
0.000000
  70
    32
  0
VERTEX
  8
241
  5
14FD
 10
46.4533
 20
29.9670
 30
0.000000
  70
    32
  0
VERTEX
  8
241
  5
14FE
 10
46.4756
 20
29.9666
 30
0.000000
  70
    32
  0
VERTEX
  8
241
  5
14FF
 10
46.4979
 20
29.9662
 30
0.000000
  70
    32
  0
VERTEX
  8
241
  5
1500
 10
46.5202
 20
29.9657
 30
0.000000
  70
    32
  0
VERTEX
  8
241
  5
1501
 10
46.5425
 20
29.9653
 30
0.000000
  70
    32
  0
VERTEX
  8
241
  5
1502
 10
46.5648
 20
29.9649
 30
0.000000
  70
    32
  0
VERTEX
  8
241
  5
1503
 10
46.5871
 20
29.9645
 30
0.000000
  70
    32
  0
VERTEX
  8
241
  5
1504
 10
46.6094
 20
29.9641
 30
0.000000
  70
    32
  0
VERTEX
  8
241
  5
1505
 10
46.6317
 20
29.9637
 30
0.000000
  70
    32
  0
VERTEX
  8
241
  5
1506
 10
46.6540
 20
29.9632
 30
0.000000
  70
    32
  0
VERTEX
  8
241
  5
1507
 10
46.6762
 20
29.9628
 30
0.000000
  70
    32
  0
VERTEX
  8
241
  5
1508
 10
46.6985
 20
29.9624
 30
0.000000
  70
    32
  0
VERTEX
  8
241
  5
1509
 10
46.7207
 20
29.9621
 30
0.000000
  70
    32
  0
VERTEX
  8
241
  5
150A
 10
46.7430
 20
29.9617
 30
0.000000
  70
    32
  0
VERTEX
  8
241
  5
150B
 10
46.7652
 20
29.9613
 30
0.000000
  70
    32
  0
VERTEX
  8
241
  5
150C
 10
46.7874
 20
29.9609
 30
0.000000
  70
    32
  0
VERTEX
  8
241
  5
150D
 10
46.8097
 20
29.9605
 30
0.000000
  70
    32
  0
VERTEX
  8
241
  5
150E
 10
46.8319
 20
29.9601
 30
0.000000
  70
    32
  0
VERTEX
  8
241
  5
150F
 10
46.8541
 20
29.9598
 30
0.000000
  70
    32
  0
VERTEX
  8
241
  5
1510
 10
46.8763
 20
29.9594
 30
0.000000
  70
    32
  0
VERTEX
  8
241
  5
1511
 10
46.8985
 20
29.9590
 30
0.000000
  70
    32
  0
VERTEX
  8
241
  5
1512
 10
46.9207
 20
29.9587
 30
0.000000
  70
    32
  0
VERTEX
  8
241
  5
1513
 10
46.9429
 20
29.9583
 30
0.000000
  70
    32
  0
VERTEX
  8
241
  5
1514
 10
46.9650
 20
29.9579
 30
0.000000
  70
    32
  0
VERTEX
  8
241
  5
1515
 10
46.9872
 20
29.9576
 30
0.000000
  70
    32
  0
VERTEX
  8
241
  5
1516
 10
47.0094
 20
29.9572
 30
0.000000
  70
    32
  0
VERTEX
  8
241
  5
1517
 10
47.0315
 20
29.9569
 30
0.000000
  70
    32
  0
VERTEX
  8
241
  5
1518
 10
47.0537
 20
29.9566
 30
0.000000
  70
    32
  0
VERTEX
  8
241
  5
1519
 10
47.0758
 20
29.9562
 30
0.000000
  70
    32
  0
VERTEX
  8
241
  5
151A
 10
47.0980
 20
29.9559
 30
0.000000
  70
    32
  0
VERTEX
  8
241
  5
151B
 10
47.1201
 20
29.9556
 30
0.000000
  70
    32
  0
VERTEX
  8
241
  5
151C
 10
47.1422
 20
29.9552
 30
0.000000
  70
    32
  0
VERTEX
  8
241
  5
151D
 10
47.1643
 20
29.9549
 30
0.000000
  70
    32
  0
VERTEX
  8
241
  5
151E
 10
47.1865
 20
29.9546
 30
0.000000
  70
    32
  0
VERTEX
  8
241
  5
151F
 10
47.2086
 20
29.9543
 30
0.000000
  70
    32
  0
VERTEX
  8
241
  5
1520
 10
47.2307
 20
29.9540
 30
0.000000
  70
    32
  0
VERTEX
  8
241
  5
1521
 10
47.2528
 20
29.9537
 30
0.000000
  70
    32
  0
VERTEX
  8
241
  5
1522
 10
47.2748
 20
29.9534
 30
0.000000
  70
    32
  0
VERTEX
  8
241
  5
1523
 10
47.2969
 20
29.9531
 30
0.000000
  70
    32
  0
VERTEX
  8
241
  5
1524
 10
47.3190
 20
29.9528
 30
0.000000
  70
    32
  0
VERTEX
  8
241
  5
1525
 10
47.3410
 20
29.9525
 30
0.000000
  70
    32
  0
VERTEX
  8
241
  5
1526
 10
47.3631
 20
29.9522
 30
0.000000
  70
    32
  0
VERTEX
  8
241
  5
1527
 10
47.3852
 20
29.9519
 30
0.000000
  70
    32
  0
VERTEX
  8
241
  5
1528
 10
47.4072
 20
29.9517
 30
0.000000
  70
    32
  0
VERTEX
  8
241
  5
1529
 10
47.4292
 20
29.9514
 30
0.000000
  70
    32
  0
VERTEX
  8
241
  5
152A
 10
47.4513
 20
29.9511
 30
0.000000
  70
    32
  0
VERTEX
  8
241
  5
152B
 10
47.4733
 20
29.9508
 30
0.000000
  70
    32
  0
VERTEX
  8
241
  5
152C
 10
47.4953
 20
29.9506
 30
0.000000
  70
    32
  0
VERTEX
  8
241
  5
152D
 10
47.5173
 20
29.9503
 30
0.000000
  70
    32
  0
VERTEX
  8
241
  5
152E
 10
47.5393
 20
29.9501
 30
0.000000
  70
    32
  0
VERTEX
  8
241
  5
152F
 10
47.5613
 20
29.9498
 30
0.000000
  70
    32
  0
VERTEX
  8
241
  5
1530
 10
47.5833
 20
29.9496
 30
0.000000
  70
    32
  0
VERTEX
  8
241
  5
1531
 10
47.6053
 20
29.9493
 30
0.000000
  70
    32
  0
VERTEX
  8
241
  5
1532
 10
47.6273
 20
29.9491
 30
0.000000
  70
    32
  0
VERTEX
  8
241
  5
1533
 10
47.6492
 20
29.9488
 30
0.000000
  70
    32
  0
VERTEX
  8
241
  5
1534
 10
47.6712
 20
29.9486
 30
0.000000
  70
    32
  0
VERTEX
  8
241
  5
1535
 10
47.6931
 20
29.9484
 30
0.000000
  70
    32
  0
VERTEX
  8
241
  5
1536
 10
47.7151
 20
29.9481
 30
0.000000
  70
    32
  0
VERTEX
  8
241
  5
1537
 10
47.7370
 20
29.9479
 30
0.000000
  70
    32
  0
VERTEX
  8
241
  5
1538
 10
47.7590
 20
29.9477
 30
0.000000
  70
    32
  0
VERTEX
  8
241
  5
1539
 10
47.7809
 20
29.9475
 30
0.000000
  70
    32
  0
VERTEX
  8
241
  5
153A
 10
47.8028
 20
29.9473
 30
0.000000
  70
    32
  0
VERTEX
  8
241
  5
153B
 10
47.8247
 20
29.9471
 30
0.000000
  70
    32
  0
VERTEX
  8
241
  5
153C
 10
47.8466
 20
29.9469
 30
0.000000
  70
    32
  0
VERTEX
  8
241
  5
153D
 10
47.8685
 20
29.9467
 30
0.000000
  70
    32
  0
VERTEX
  8
241
  5
153E
 10
47.8904
 20
29.9465
 30
0.000000
  70
    32
  0
VERTEX
  8
241
  5
153F
 10
47.9123
 20
29.9463
 30
0.000000
  70
    32
  0
VERTEX
  8
241
  5
1540
 10
47.9342
 20
29.9461
 30
0.000000
  70
    32
  0
VERTEX
  8
241
  5
1541
 10
47.9561
 20
29.9459
 30
0.000000
  70
    32
  0
VERTEX
  8
241
  5
1542
 10
47.9780
 20
29.9457
 30
0.000000
  70
    32
  0
VERTEX
  8
241
  5
1543
 10
47.9998
 20
29.9456
 30
0.000000
  70
    32
  0
VERTEX
  8
241
  5
1544
 10
48.0217
 20
29.9454
 30
0.000000
  70
    32
  0
VERTEX
  8
241
  5
1545
 10
48.0435
 20
29.9452
 30
0.000000
  70
    32
  0
VERTEX
  8
241
  5
1546
 10
48.0654
 20
29.9450
 30
0.000000
  70
    32
  0
VERTEX
  8
241
  5
1547
 10
48.0872
 20
29.9449
 30
0.000000
  70
    32
  0
VERTEX
  8
241
  5
1548
 10
48.1090
 20
29.9447
 30
0.000000
  70
    32
  0
SEQEND
  8
241
  5
1549
  0
POLYLINE
  5
1263
  8
241
 10
48.573297315128059
 20
30.982232711877963
 30
0.0
 66
     1
 70
     8
  0
VERTEX
  8
241
  5
154A
 10
48.5733
 20
30.9822
 30
0.000000
  70
    32
  0
VERTEX
  8
241
  5
154B
 10
48.5710
 20
30.9768
 30
0.000000
  70
    32
  0
VERTEX
  8
241
  5
154C
 10
48.5687
 20
30.9713
 30
0.000000
  70
    32
  0
VERTEX
  8
241
  5
154D
 10
48.5665
 20
30.9658
 30
0.000000
  70
    32
  0
VERTEX
  8
241
  5
154E
 10
48.5642
 20
30.9602
 30
0.000000
  70
    32
  0
VERTEX
  8
241
  5
154F
 10
48.5619
 20
30.9546
 30
0.000000
  70
    32
  0
VERTEX
  8
241
  5
1550
 10
48.5595
 20
30.9489
 30
0.000000
  70
    32
  0
VERTEX
  8
241
  5
1551
 10
48.5572
 20
30.9432
 30
0.000000
  70
    32
  0
VERTEX
  8
241
  5
1552
 10
48.5549
 20
30.9374
 30
0.000000
  70
    32
  0
VERTEX
  8
241
  5
1553
 10
48.5525
 20
30.9315
 30
0.000000
  70
    32
  0
VERTEX
  8
241
  5
1554
 10
48.5502
 20
30.9256
 30
0.000000
  70
    32
  0
VERTEX
  8
241
  5
1555
 10
48.5478
 20
30.9197
 30
0.000000
  70
    32
  0
VERTEX
  8
241
  5
1556
 10
48.5455
 20
30.9136
 30
0.000000
  70
    32
  0
VERTEX
  8
241
  5
1557
 10
48.5431
 20
30.9076
 30
0.000000
  70
    32
  0
VERTEX
  8
241
  5
1558
 10
48.5407
 20
30.9015
 30
0.000000
  70
    32
  0
VERTEX
  8
241
  5
1559
 10
48.5383
 20
30.8953
 30
0.000000
  70
    32
  0
VERTEX
  8
241
  5
155A
 10
48.5360
 20
30.8891
 30
0.000000
  70
    32
  0
VERTEX
  8
241
  5
155B
 10
48.5336
 20
30.8829
 30
0.000000
  70
    32
  0
VERTEX
  8
241
  5
155C
 10
48.5312
 20
30.8766
 30
0.000000
  70
    32
  0
VERTEX
  8
241
  5
155D
 10
48.5287
 20
30.8702
 30
0.000000
  70
    32
  0
VERTEX
  8
241
  5
155E
 10
48.5263
 20
30.8638
 30
0.000000
  70
    32
  0
VERTEX
  8
241
  5
155F
 10
48.5239
 20
30.8574
 30
0.000000
  70
    32
  0
VERTEX
  8
241
  5
1560
 10
48.5215
 20
30.8509
 30
0.000000
  70
    32
  0
VERTEX
  8
241
  5
1561
 10
48.5191
 20
30.8444
 30
0.000000
  70
    32
  0
VERTEX
  8
241
  5
1562
 10
48.5166
 20
30.8378
 30
0.000000
  70
    32
  0
VERTEX
  8
241
  5
1563
 10
48.5142
 20
30.8312
 30
0.000000
  70
    32
  0
VERTEX
  8
241
  5
1564
 10
48.5118
 20
30.8246
 30
0.000000
  70
    32
  0
VERTEX
  8
241
  5
1565
 10
48.5093
 20
30.8179
 30
0.000000
  70
    32
  0
VERTEX
  8
241
  5
1566
 10
48.5069
 20
30.8111
 30
0.000000
  70
    32
  0
VERTEX
  8
241
  5
1567
 10
48.5044
 20
30.8043
 30
0.000000
  70
    32
  0
VERTEX
  8
241
  5
1568
 10
48.5020
 20
30.7975
 30
0.000000
  70
    32
  0
VERTEX
  8
241
  5
1569
 10
48.4995
 20
30.7907
 30
0.000000
  70
    32
  0
VERTEX
  8
241
  5
156A
 10
48.4970
 20
30.7838
 30
0.000000
  70
    32
  0
VERTEX
  8
241
  5
156B
 10
48.4946
 20
30.7769
 30
0.000000
  70
    32
  0
VERTEX
  8
241
  5
156C
 10
48.4921
 20
30.7699
 30
0.000000
  70
    32
  0
VERTEX
  8
241
  5
156D
 10
48.4897
 20
30.7629
 30
0.000000
  70
    32
  0
VERTEX
  8
241
  5
156E
 10
48.4872
 20
30.7559
 30
0.000000
  70
    32
  0
VERTEX
  8
241
  5
156F
 10
48.4847
 20
30.7488
 30
0.000000
  70
    32
  0
VERTEX
  8
241
  5
1570
 10
48.4823
 20
30.7417
 30
0.000000
  70
    32
  0
VERTEX
  8
241
  5
1571
 10
48.4798
 20
30.7346
 30
0.000000
  70
    32
  0
VERTEX
  8
241
  5
1572
 10
48.4773
 20
30.7274
 30
0.000000
  70
    32
  0
VERTEX
  8
241
  5
1573
 10
48.4748
 20
30.7202
 30
0.000000
  70
    32
  0
VERTEX
  8
241
  5
1574
 10
48.4724
 20
30.7130
 30
0.000000
  70
    32
  0
VERTEX
  8
241
  5
1575
 10
48.4699
 20
30.7057
 30
0.000000
  70
    32
  0
VERTEX
  8
241
  5
1576
 10
48.4674
 20
30.6984
 30
0.000000
  70
    32
  0
VERTEX
  8
241
  5
1577
 10
48.4650
 20
30.6911
 30
0.000000
  70
    32
  0
VERTEX
  8
241
  5
1578
 10
48.4625
 20
30.6838
 30
0.000000
  70
    32
  0
VERTEX
  8
241
  5
1579
 10
48.4601
 20
30.6764
 30
0.000000
  70
    32
  0
VERTEX
  8
241
  5
157A
 10
48.4576
 20
30.6690
 30
0.000000
  70
    32
  0
VERTEX
  8
241
  5
157B
 10
48.4551
 20
30.6616
 30
0.000000
  70
    32
  0
VERTEX
  8
241
  5
157C
 10
48.4527
 20
30.6542
 30
0.000000
  70
    32
  0
VERTEX
  8
241
  5
157D
 10
48.4502
 20
30.6467
 30
0.000000
  70
    32
  0
VERTEX
  8
241
  5
157E
 10
48.4478
 20
30.6392
 30
0.000000
  70
    32
  0
VERTEX
  8
241
  5
157F
 10
48.4453
 20
30.6317
 30
0.000000
  70
    32
  0
VERTEX
  8
241
  5
1580
 10
48.4429
 20
30.6242
 30
0.000000
  70
    32
  0
VERTEX
  8
241
  5
1581
 10
48.4404
 20
30.6166
 30
0.000000
  70
    32
  0
VERTEX
  8
241
  5
1582
 10
48.4380
 20
30.6090
 30
0.000000
  70
    32
  0
VERTEX
  8
241
  5
1583
 10
48.4355
 20
30.6014
 30
0.000000
  70
    32
  0
VERTEX
  8
241
  5
1584
 10
48.4331
 20
30.5938
 30
0.000000
  70
    32
  0
VERTEX
  8
241
  5
1585
 10
48.4307
 20
30.5862
 30
0.000000
  70
    32
  0
VERTEX
  8
241
  5
1586
 10
48.4283
 20
30.5786
 30
0.000000
  70
    32
  0
VERTEX
  8
241
  5
1587
 10
48.4258
 20
30.5709
 30
0.000000
  70
    32
  0
VERTEX
  8
241
  5
1588
 10
48.4234
 20
30.5632
 30
0.000000
  70
    32
  0
VERTEX
  8
241
  5
1589
 10
48.4210
 20
30.5555
 30
0.000000
  70
    32
  0
VERTEX
  8
241
  5
158A
 10
48.4186
 20
30.5478
 30
0.000000
  70
    32
  0
VERTEX
  8
241
  5
158B
 10
48.4162
 20
30.5401
 30
0.000000
  70
    32
  0
VERTEX
  8
241
  5
158C
 10
48.4138
 20
30.5324
 30
0.000000
  70
    32
  0
VERTEX
  8
241
  5
158D
 10
48.4115
 20
30.5247
 30
0.000000
  70
    32
  0
VERTEX
  8
241
  5
158E
 10
48.4091
 20
30.5169
 30
0.000000
  70
    32
  0
VERTEX
  8
241
  5
158F
 10
48.4067
 20
30.5092
 30
0.000000
  70
    32
  0
VERTEX
  8
241
  5
1590
 10
48.4044
 20
30.5014
 30
0.000000
  70
    32
  0
VERTEX
  8
241
  5
1591
 10
48.4020
 20
30.4936
 30
0.000000
  70
    32
  0
VERTEX
  8
241
  5
1592
 10
48.3997
 20
30.4858
 30
0.000000
  70
    32
  0
VERTEX
  8
241
  5
1593
 10
48.3973
 20
30.4781
 30
0.000000
  70
    32
  0
VERTEX
  8
241
  5
1594
 10
48.3950
 20
30.4703
 30
0.000000
  70
    32
  0
VERTEX
  8
241
  5
1595
 10
48.3927
 20
30.4625
 30
0.000000
  70
    32
  0
VERTEX
  8
241
  5
1596
 10
48.3904
 20
30.4547
 30
0.000000
  70
    32
  0
VERTEX
  8
241
  5
1597
 10
48.3881
 20
30.4469
 30
0.000000
  70
    32
  0
VERTEX
  8
241
  5
1598
 10
48.3858
 20
30.4391
 30
0.000000
  70
    32
  0
VERTEX
  8
241
  5
1599
 10
48.3835
 20
30.4312
 30
0.000000
  70
    32
  0
VERTEX
  8
241
  5
159A
 10
48.3812
 20
30.4234
 30
0.000000
  70
    32
  0
VERTEX
  8
241
  5
159B
 10
48.3789
 20
30.4156
 30
0.000000
  70
    32
  0
VERTEX
  8
241
  5
159C
 10
48.3767
 20
30.4078
 30
0.000000
  70
    32
  0
VERTEX
  8
241
  5
159D
 10
48.3744
 20
30.4000
 30
0.000000
  70
    32
  0
VERTEX
  8
241
  5
159E
 10
48.3722
 20
30.3922
 30
0.000000
  70
    32
  0
VERTEX
  8
241
  5
159F
 10
48.3700
 20
30.3844
 30
0.000000
  70
    32
  0
VERTEX
  8
241
  5
15A0
 10
48.3678
 20
30.3766
 30
0.000000
  70
    32
  0
VERTEX
  8
241
  5
15A1
 10
48.3655
 20
30.3688
 30
0.000000
  70
    32
  0
VERTEX
  8
241
  5
15A2
 10
48.3634
 20
30.3611
 30
0.000000
  70
    32
  0
VERTEX
  8
241
  5
15A3
 10
48.3612
 20
30.3533
 30
0.000000
  70
    32
  0
VERTEX
  8
241
  5
15A4
 10
48.3590
 20
30.3455
 30
0.000000
  70
    32
  0
VERTEX
  8
241
  5
15A5
 10
48.3569
 20
30.3377
 30
0.000000
  70
    32
  0
VERTEX
  8
241
  5
15A6
 10
48.3547
 20
30.3300
 30
0.000000
  70
    32
  0
VERTEX
  8
241
  5
15A7
 10
48.3526
 20
30.3222
 30
0.000000
  70
    32
  0
VERTEX
  8
241
  5
15A8
 10
48.3505
 20
30.3145
 30
0.000000
  70
    32
  0
VERTEX
  8
241
  5
15A9
 10
48.3484
 20
30.3068
 30
0.000000
  70
    32
  0
VERTEX
  8
241
  5
15AA
 10
48.3463
 20
30.2991
 30
0.000000
  70
    32
  0
VERTEX
  8
241
  5
15AB
 10
48.3442
 20
30.2914
 30
0.000000
  70
    32
  0
VERTEX
  8
241
  5
15AC
 10
48.3421
 20
30.2837
 30
0.000000
  70
    32
  0
VERTEX
  8
241
  5
15AD
 10
48.3401
 20
30.2760
 30
0.000000
  70
    32
  0
VERTEX
  8
241
  5
15AE
 10
48.3380
 20
30.2684
 30
0.000000
  70
    32
  0
VERTEX
  8
241
  5
15AF
 10
48.3360
 20
30.2608
 30
0.000000
  70
    32
  0
VERTEX
  8
241
  5
15B0
 10
48.3340
 20
30.2531
 30
0.000000
  70
    32
  0
VERTEX
  8
241
  5
15B1
 10
48.3320
 20
30.2455
 30
0.000000
  70
    32
  0
VERTEX
  8
241
  5
15B2
 10
48.3300
 20
30.2380
 30
0.000000
  70
    32
  0
VERTEX
  8
241
  5
15B3
 10
48.3281
 20
30.2304
 30
0.000000
  70
    32
  0
VERTEX
  8
241
  5
15B4
 10
48.3261
 20
30.2229
 30
0.000000
  70
    32
  0
VERTEX
  8
241
  5
15B5
 10
48.3242
 20
30.2153
 30
0.000000
  70
    32
  0
VERTEX
  8
241
  5
15B6
 10
48.3223
 20
30.2078
 30
0.000000
  70
    32
  0
VERTEX
  8
241
  5
15B7
 10
48.3204
 20
30.2004
 30
0.000000
  70
    32
  0
VERTEX
  8
241
  5
15B8
 10
48.3185
 20
30.1929
 30
0.000000
  70
    32
  0
VERTEX
  8
241
  5
15B9
 10
48.3166
 20
30.1855
 30
0.000000
  70
    32
  0
VERTEX
  8
241
  5
15BA
 10
48.3148
 20
30.1781
 30
0.000000
  70
    32
  0
VERTEX
  8
241
  5
15BB
 10
48.3129
 20
30.1707
 30
0.000000
  70
    32
  0
VERTEX
  8
241
  5
15BC
 10
48.3111
 20
30.1633
 30
0.000000
  70
    32
  0
VERTEX
  8
241
  5
15BD
 10
48.3093
 20
30.1560
 30
0.000000
  70
    32
  0
VERTEX
  8
241
  5
15BE
 10
48.3075
 20
30.1487
 30
0.000000
  70
    32
  0
VERTEX
  8
241
  5
15BF
 10
48.3058
 20
30.1415
 30
0.000000
  70
    32
  0
VERTEX
  8
241
  5
15C0
 10
48.3040
 20
30.1342
 30
0.000000
  70
    32
  0
VERTEX
  8
241
  5
15C1
 10
48.3023
 20
30.1270
 30
0.000000
  70
    32
  0
VERTEX
  8
241
  5
15C2
 10
48.3006
 20
30.1198
 30
0.000000
  70
    32
  0
VERTEX
  8
241
  5
15C3
 10
48.2989
 20
30.1127
 30
0.000000
  70
    32
  0
VERTEX
  8
241
  5
15C4
 10
48.2972
 20
30.1056
 30
0.000000
  70
    32
  0
VERTEX
  8
241
  5
15C5
 10
48.2955
 20
30.0985
 30
0.000000
  70
    32
  0
VERTEX
  8
241
  5
15C6
 10
48.2939
 20
30.0914
 30
0.000000
  70
    32
  0
VERTEX
  8
241
  5
15C7
 10
48.2923
 20
30.0844
 30
0.000000
  70
    32
  0
VERTEX
  8
241
  5
15C8
 10
48.2907
 20
30.0774
 30
0.000000
  70
    32
  0
VERTEX
  8
241
  5
15C9
 10
48.2891
 20
30.0705
 30
0.000000
  70
    32
  0
VERTEX
  8
241
  5
15CA
 10
48.2875
 20
30.0636
 30
0.000000
  70
    32
  0
SEQEND
  8
241
  5
15CB
  0
LINE
  5
126C
  8
241
 10
48.286460528117289
 20
30.058809019246741
 30
0.0
 11
48.287538461413931
 21
30.063588345699731
 31
0.0
  0
LINE
  5
126D
  8
241
 10
48.109008487702802
 20
29.944721246365042
 30
0.0
 11
48.28646052811731
 21
30.058809019246741
 31
0.0
  0
LINE
  5
1275
  8
241
 10
49.206699122561012
 20
35.3884025136067
 30
0.0
 11
45.638938408717159
 21
36.646986114965991
 31
0.0
  0
POLYLINE
  5
127B
  8
241
 10
49.206699122561005
 20
35.388402513606678
 30
0.0
 66
     1
 70
     8
  0
VERTEX
  8
241
  5
15CC
 10
49.2067
 20
35.3884
 30
0.000000
  70
    32
  0
VERTEX
  8
241
  5
15CD
 10
49.2061
 20
35.3816
 30
0.000000
  70
    32
  0
VERTEX
  8
241
  5
15CE
 10
49.2055
 20
35.3747
 30
0.000000
  70
    32
  0
VERTEX
  8
241
  5
15CF
 10
49.2049
 20
35.3678
 30
0.000000
  70
    32
  0
VERTEX
  8
241
  5
15D0
 10
49.2043
 20
35.3609
 30
0.000000
  70
    32
  0
VERTEX
  8
241
  5
15D1
 10
49.2038
 20
35.3539
 30
0.000000
  70
    32
  0
VERTEX
  8
241
  5
15D2
 10
49.2032
 20
35.3468
 30
0.000000
  70
    32
  0
VERTEX
  8
241
  5
15D3
 10
49.2026
 20
35.3397
 30
0.000000
  70
    32
  0
VERTEX
  8
241
  5
15D4
 10
49.2021
 20
35.3326
 30
0.000000
  70
    32
  0
VERTEX
  8
241
  5
15D5
 10
49.2015
 20
35.3254
 30
0.000000
  70
    32
  0
VERTEX
  8
241
  5
15D6
 10
49.2010
 20
35.3181
 30
0.000000
  70
    32
  0
VERTEX
  8
241
  5
15D7
 10
49.2004
 20
35.3108
 30
0.000000
  70
    32
  0
VERTEX
  8
241
  5
15D8
 10
49.1999
 20
35.3035
 30
0.000000
  70
    32
  0
VERTEX
  8
241
  5
15D9
 10
49.1994
 20
35.2961
 30
0.000000
  70
    32
  0
VERTEX
  8
241
  5
15DA
 10
49.1989
 20
35.2887
 30
0.000000
  70
    32
  0
VERTEX
  8
241
  5
15DB
 10
49.1984
 20
35.2812
 30
0.000000
  70
    32
  0
VERTEX
  8
241
  5
15DC
 10
49.1979
 20
35.2737
 30
0.000000
  70
    32
  0
VERTEX
  8
241
  5
15DD
 10
49.1974
 20
35.2661
 30
0.000000
  70
    32
  0
VERTEX
  8
241
  5
15DE
 10
49.1969
 20
35.2585
 30
0.000000
  70
    32
  0
VERTEX
  8
241
  5
15DF
 10
49.1964
 20
35.2509
 30
0.000000
  70
    32
  0
VERTEX
  8
241
  5
15E0
 10
49.1960
 20
35.2432
 30
0.000000
  70
    32
  0
VERTEX
  8
241
  5
15E1
 10
49.1955
 20
35.2355
 30
0.000000
  70
    32
  0
VERTEX
  8
241
  5
15E2
 10
49.1951
 20
35.2277
 30
0.000000
  70
    32
  0
VERTEX
  8
241
  5
15E3
 10
49.1946
 20
35.2199
 30
0.000000
  70
    32
  0
VERTEX
  8
241
  5
15E4
 10
49.1942
 20
35.2121
 30
0.000000
  70
    32
  0
VERTEX
  8
241
  5
15E5
 10
49.1938
 20
35.2042
 30
0.000000
  70
    32
  0
VERTEX
  8
241
  5
15E6
 10
49.1933
 20
35.1963
 30
0.000000
  70
    32
  0
VERTEX
  8
241
  5
15E7
 10
49.1929
 20
35.1884
 30
0.000000
  70
    32
  0
VERTEX
  8
241
  5
15E8
 10
49.1925
 20
35.1804
 30
0.000000
  70
    32
  0
VERTEX
  8
241
  5
15E9
 10
49.1921
 20
35.1724
 30
0.000000
  70
    32
  0
VERTEX
  8
241
  5
15EA
 10
49.1917
 20
35.1644
 30
0.000000
  70
    32
  0
VERTEX
  8
241
  5
15EB
 10
49.1913
 20
35.1564
 30
0.000000
  70
    32
  0
VERTEX
  8
241
  5
15EC
 10
49.1910
 20
35.1483
 30
0.000000
  70
    32
  0
VERTEX
  8
241
  5
15ED
 10
49.1906
 20
35.1402
 30
0.000000
  70
    32
  0
VERTEX
  8
241
  5
15EE
 10
49.1903
 20
35.1320
 30
0.000000
  70
    32
  0
VERTEX
  8
241
  5
15EF
 10
49.1899
 20
35.1238
 30
0.000000
  70
    32
  0
VERTEX
  8
241
  5
15F0
 10
49.1896
 20
35.1156
 30
0.000000
  70
    32
  0
VERTEX
  8
241
  5
15F1
 10
49.1892
 20
35.1074
 30
0.000000
  70
    32
  0
VERTEX
  8
241
  5
15F2
 10
49.1889
 20
35.0992
 30
0.000000
  70
    32
  0
VERTEX
  8
241
  5
15F3
 10
49.1886
 20
35.0909
 30
0.000000
  70
    32
  0
VERTEX
  8
241
  5
15F4
 10
49.1883
 20
35.0826
 30
0.000000
  70
    32
  0
VERTEX
  8
241
  5
15F5
 10
49.1880
 20
35.0743
 30
0.000000
  70
    32
  0
VERTEX
  8
241
  5
15F6
 10
49.1877
 20
35.0660
 30
0.000000
  70
    32
  0
VERTEX
  8
241
  5
15F7
 10
49.1874
 20
35.0576
 30
0.000000
  70
    32
  0
VERTEX
  8
241
  5
15F8
 10
49.1872
 20
35.0492
 30
0.000000
  70
    32
  0
VERTEX
  8
241
  5
15F9
 10
49.1869
 20
35.0408
 30
0.000000
  70
    32
  0
VERTEX
  8
241
  5
15FA
 10
49.1866
 20
35.0324
 30
0.000000
  70
    32
  0
VERTEX
  8
241
  5
15FB
 10
49.1864
 20
35.0240
 30
0.000000
  70
    32
  0
VERTEX
  8
241
  5
15FC
 10
49.1862
 20
35.0155
 30
0.000000
  70
    32
  0
VERTEX
  8
241
  5
15FD
 10
49.1859
 20
35.0071
 30
0.000000
  70
    32
  0
VERTEX
  8
241
  5
15FE
 10
49.1857
 20
34.9986
 30
0.000000
  70
    32
  0
VERTEX
  8
241
  5
15FF
 10
49.1855
 20
34.9901
 30
0.000000
  70
    32
  0
VERTEX
  8
241
  5
1600
 10
49.1853
 20
34.9816
 30
0.000000
  70
    32
  0
VERTEX
  8
241
  5
1601
 10
49.1851
 20
34.9731
 30
0.000000
  70
    32
  0
VERTEX
  8
241
  5
1602
 10
49.1849
 20
34.9646
 30
0.000000
  70
    32
  0
VERTEX
  8
241
  5
1603
 10
49.1847
 20
34.9561
 30
0.000000
  70
    32
  0
VERTEX
  8
241
  5
1604
 10
49.1846
 20
34.9475
 30
0.000000
  70
    32
  0
VERTEX
  8
241
  5
1605
 10
49.1844
 20
34.9390
 30
0.000000
  70
    32
  0
VERTEX
  8
241
  5
1606
 10
49.1843
 20
34.9304
 30
0.000000
  70
    32
  0
VERTEX
  8
241
  5
1607
 10
49.1841
 20
34.9218
 30
0.000000
  70
    32
  0
VERTEX
  8
241
  5
1608
 10
49.1840
 20
34.9133
 30
0.000000
  70
    32
  0
VERTEX
  8
241
  5
1609
 10
49.1839
 20
34.9047
 30
0.000000
  70
    32
  0
VERTEX
  8
241
  5
160A
 10
49.1838
 20
34.8961
 30
0.000000
  70
    32
  0
VERTEX
  8
241
  5
160B
 10
49.1837
 20
34.8875
 30
0.000000
  70
    32
  0
VERTEX
  8
241
  5
160C
 10
49.1836
 20
34.8790
 30
0.000000
  70
    32
  0
VERTEX
  8
241
  5
160D
 10
49.1835
 20
34.8704
 30
0.000000
  70
    32
  0
VERTEX
  8
241
  5
160E
 10
49.1834
 20
34.8618
 30
0.000000
  70
    32
  0
VERTEX
  8
241
  5
160F
 10
49.1833
 20
34.8532
 30
0.000000
  70
    32
  0
VERTEX
  8
241
  5
1610
 10
49.1833
 20
34.8446
 30
0.000000
  70
    32
  0
VERTEX
  8
241
  5
1611
 10
49.1832
 20
34.8361
 30
0.000000
  70
    32
  0
VERTEX
  8
241
  5
1612
 10
49.1832
 20
34.8275
 30
0.000000
  70
    32
  0
VERTEX
  8
241
  5
1613
 10
49.1831
 20
34.8189
 30
0.000000
  70
    32
  0
VERTEX
  8
241
  5
1614
 10
49.1831
 20
34.8104
 30
0.000000
  70
    32
  0
VERTEX
  8
241
  5
1615
 10
49.1831
 20
34.8018
 30
0.000000
  70
    32
  0
VERTEX
  8
241
  5
1616
 10
49.1831
 20
34.7932
 30
0.000000
  70
    32
  0
VERTEX
  8
241
  5
1617
 10
49.1831
 20
34.7847
 30
0.000000
  70
    32
  0
VERTEX
  8
241
  5
1618
 10
49.1831
 20
34.7762
 30
0.000000
  70
    32
  0
VERTEX
  8
241
  5
1619
 10
49.1831
 20
34.7676
 30
0.000000
  70
    32
  0
VERTEX
  8
241
  5
161A
 10
49.1832
 20
34.7591
 30
0.000000
  70
    32
  0
VERTEX
  8
241
  5
161B
 10
49.1832
 20
34.7506
 30
0.000000
  70
    32
  0
VERTEX
  8
241
  5
161C
 10
49.1832
 20
34.7421
 30
0.000000
  70
    32
  0
VERTEX
  8
241
  5
161D
 10
49.1833
 20
34.7337
 30
0.000000
  70
    32
  0
VERTEX
  8
241
  5
161E
 10
49.1834
 20
34.7252
 30
0.000000
  70
    32
  0
VERTEX
  8
241
  5
161F
 10
49.1834
 20
34.7167
 30
0.000000
  70
    32
  0
VERTEX
  8
241
  5
1620
 10
49.1835
 20
34.7083
 30
0.000000
  70
    32
  0
VERTEX
  8
241
  5
1621
 10
49.1836
 20
34.6999
 30
0.000000
  70
    32
  0
VERTEX
  8
241
  5
1622
 10
49.1837
 20
34.6915
 30
0.000000
  70
    32
  0
VERTEX
  8
241
  5
1623
 10
49.1838
 20
34.6831
 30
0.000000
  70
    32
  0
VERTEX
  8
241
  5
1624
 10
49.1840
 20
34.6748
 30
0.000000
  70
    32
  0
VERTEX
  8
241
  5
1625
 10
49.1841
 20
34.6664
 30
0.000000
  70
    32
  0
VERTEX
  8
241
  5
1626
 10
49.1842
 20
34.6581
 30
0.000000
  70
    32
  0
VERTEX
  8
241
  5
1627
 10
49.1844
 20
34.6498
 30
0.000000
  70
    32
  0
VERTEX
  8
241
  5
1628
 10
49.1845
 20
34.6415
 30
0.000000
  70
    32
  0
VERTEX
  8
241
  5
1629
 10
49.1847
 20
34.6333
 30
0.000000
  70
    32
  0
VERTEX
  8
241
  5
162A
 10
49.1849
 20
34.6250
 30
0.000000
  70
    32
  0
VERTEX
  8
241
  5
162B
 10
49.1850
 20
34.6168
 30
0.000000
  70
    32
  0
VERTEX
  8
241
  5
162C
 10
49.1852
 20
34.6087
 30
0.000000
  70
    32
  0
VERTEX
  8
241
  5
162D
 10
49.1854
 20
34.6005
 30
0.000000
  70
    32
  0
VERTEX
  8
241
  5
162E
 10
49.1856
 20
34.5924
 30
0.000000
  70
    32
  0
VERTEX
  8
241
  5
162F
 10
49.1859
 20
34.5843
 30
0.000000
  70
    32
  0
VERTEX
  8
241
  5
1630
 10
49.1861
 20
34.5762
 30
0.000000
  70
    32
  0
VERTEX
  8
241
  5
1631
 10
49.1863
 20
34.5682
 30
0.000000
  70
    32
  0
VERTEX
  8
241
  5
1632
 10
49.1866
 20
34.5602
 30
0.000000
  70
    32
  0
VERTEX
  8
241
  5
1633
 10
49.1868
 20
34.5522
 30
0.000000
  70
    32
  0
VERTEX
  8
241
  5
1634
 10
49.1871
 20
34.5443
 30
0.000000
  70
    32
  0
VERTEX
  8
241
  5
1635
 10
49.1873
 20
34.5364
 30
0.000000
  70
    32
  0
VERTEX
  8
241
  5
1636
 10
49.1876
 20
34.5285
 30
0.000000
  70
    32
  0
VERTEX
  8
241
  5
1637
 10
49.1879
 20
34.5207
 30
0.000000
  70
    32
  0
VERTEX
  8
241
  5
1638
 10
49.1882
 20
34.5129
 30
0.000000
  70
    32
  0
VERTEX
  8
241
  5
1639
 10
49.1885
 20
34.5051
 30
0.000000
  70
    32
  0
VERTEX
  8
241
  5
163A
 10
49.1888
 20
34.4974
 30
0.000000
  70
    32
  0
VERTEX
  8
241
  5
163B
 10
49.1891
 20
34.4897
 30
0.000000
  70
    32
  0
VERTEX
  8
241
  5
163C
 10
49.1895
 20
34.4821
 30
0.000000
  70
    32
  0
VERTEX
  8
241
  5
163D
 10
49.1898
 20
34.4745
 30
0.000000
  70
    32
  0
VERTEX
  8
241
  5
163E
 10
49.1901
 20
34.4669
 30
0.000000
  70
    32
  0
VERTEX
  8
241
  5
163F
 10
49.1905
 20
34.4594
 30
0.000000
  70
    32
  0
VERTEX
  8
241
  5
1640
 10
49.1908
 20
34.4519
 30
0.000000
  70
    32
  0
VERTEX
  8
241
  5
1641
 10
49.1912
 20
34.4445
 30
0.000000
  70
    32
  0
VERTEX
  8
241
  5
1642
 10
49.1916
 20
34.4371
 30
0.000000
  70
    32
  0
VERTEX
  8
241
  5
1643
 10
49.1920
 20
34.4297
 30
0.000000
  70
    32
  0
VERTEX
  8
241
  5
1644
 10
49.1924
 20
34.4224
 30
0.000000
  70
    32
  0
VERTEX
  8
241
  5
1645
 10
49.1928
 20
34.4151
 30
0.000000
  70
    32
  0
VERTEX
  8
241
  5
1646
 10
49.1932
 20
34.4079
 30
0.000000
  70
    32
  0
VERTEX
  8
241
  5
1647
 10
49.1936
 20
34.4008
 30
0.000000
  70
    32
  0
VERTEX
  8
241
  5
1648
 10
49.1940
 20
34.3937
 30
0.000000
  70
    32
  0
VERTEX
  8
241
  5
1649
 10
49.1945
 20
34.3866
 30
0.000000
  70
    32
  0
VERTEX
  8
241
  5
164A
 10
49.1949
 20
34.3796
 30
0.000000
  70
    32
  0
VERTEX
  8
241
  5
164B
 10
49.1954
 20
34.3726
 30
0.000000
  70
    32
  0
VERTEX
  8
241
  5
164C
 10
49.1958
 20
34.3657
 30
0.000000
  70
    32
  0
SEQEND
  8
241
  5
164D
  0
LINE
  5
127D
  8
241
 10
49.170299535740547
 20
32.959181873886919
 30
0.0
 11
49.195808692991079
 21
34.365687821223403
 31
0.0
  0
LINE
  5
127F
  8
241
 10
49.206699122561012
 20
35.3884025136067
 30
0.0
 11
49.220672817864767
 21
35.544594000793111
 31
0.0
  0
LINE
  5
1280
  8
240
 10
49.399999999999991
 20
35.774339652991841
 30
0.0
 11
50.000085050000003
 21
36.54314073236749
 31
0.0
  0
LINE
  5
1286
  8
241
 10
43.170214422827137
 20
37.517867256985213
 30
0.0
 11
37.283994754421627
 21
39.594323651582457
 31
0.0
  0
LINE
  5
128A
  8
241
 10
37.15302836
 20
39.02679577
 30
0.0
 11
36.376862729836859
 21
36.700221184208729
 31
0.0
  0
POLYLINE
  5
128D
  8
241
 10
36.432106481714527
 20
34.782443940107278
 30
0.0
 66
     1
 70
     8
  0
VERTEX
  8
241
  5
164E
 10
36.4321
 20
34.7824
 30
0.000000
  70
    32
  0
VERTEX
  8
241
  5
164F
 10
36.4320
 20
34.7867
 30
0.000000
  70
    32
  0
VERTEX
  8
241
  5
1650
 10
36.4319
 20
34.7909
 30
0.000000
  70
    32
  0
VERTEX
  8
241
  5
1651
 10
36.4319
 20
34.7952
 30
0.000000
  70
    32
  0
VERTEX
  8
241
  5
1652
 10
36.4318
 20
34.7994
 30
0.000000
  70
    32
  0
VERTEX
  8
241
  5
1653
 10
36.4316
 20
34.8037
 30
0.000000
  70
    32
  0
VERTEX
  8
241
  5
1654
 10
36.4315
 20
34.8079
 30
0.000000
  70
    32
  0
VERTEX
  8
241
  5
1655
 10
36.4314
 20
34.8122
 30
0.000000
  70
    32
  0
VERTEX
  8
241
  5
1656
 10
36.4313
 20
34.8164
 30
0.000000
  70
    32
  0
VERTEX
  8
241
  5
1657
 10
36.4311
 20
34.8207
 30
0.000000
  70
    32
  0
VERTEX
  8
241
  5
1658
 10
36.4310
 20
34.8249
 30
0.000000
  70
    32
  0
VERTEX
  8
241
  5
1659
 10
36.4308
 20
34.8292
 30
0.000000
  70
    32
  0
VERTEX
  8
241
  5
165A
 10
36.4306
 20
34.8334
 30
0.000000
  70
    32
  0
VERTEX
  8
241
  5
165B
 10
36.4304
 20
34.8377
 30
0.000000
  70
    32
  0
VERTEX
  8
241
  5
165C
 10
36.4302
 20
34.8419
 30
0.000000
  70
    32
  0
VERTEX
  8
241
  5
165D
 10
36.4300
 20
34.8462
 30
0.000000
  70
    32
  0
VERTEX
  8
241
  5
165E
 10
36.4298
 20
34.8504
 30
0.000000
  70
    32
  0
VERTEX
  8
241
  5
165F
 10
36.4296
 20
34.8547
 30
0.000000
  70
    32
  0
VERTEX
  8
241
  5
1660
 10
36.4294
 20
34.8589
 30
0.000000
  70
    32
  0
VERTEX
  8
241
  5
1661
 10
36.4291
 20
34.8632
 30
0.000000
  70
    32
  0
VERTEX
  8
241
  5
1662
 10
36.4289
 20
34.8674
 30
0.000000
  70
    32
  0
VERTEX
  8
241
  5
1663
 10
36.4286
 20
34.8716
 30
0.000000
  70
    32
  0
VERTEX
  8
241
  5
1664
 10
36.4284
 20
34.8759
 30
0.000000
  70
    32
  0
VERTEX
  8
241
  5
1665
 10
36.4281
 20
34.8801
 30
0.000000
  70
    32
  0
VERTEX
  8
241
  5
1666
 10
36.4278
 20
34.8843
 30
0.000000
  70
    32
  0
VERTEX
  8
241
  5
1667
 10
36.4275
 20
34.8886
 30
0.000000
  70
    32
  0
VERTEX
  8
241
  5
1668
 10
36.4272
 20
34.8928
 30
0.000000
  70
    32
  0
VERTEX
  8
241
  5
1669
 10
36.4269
 20
34.8970
 30
0.000000
  70
    32
  0
VERTEX
  8
241
  5
166A
 10
36.4266
 20
34.9012
 30
0.000000
  70
    32
  0
VERTEX
  8
241
  5
166B
 10
36.4263
 20
34.9055
 30
0.000000
  70
    32
  0
VERTEX
  8
241
  5
166C
 10
36.4259
 20
34.9097
 30
0.000000
  70
    32
  0
VERTEX
  8
241
  5
166D
 10
36.4256
 20
34.9139
 30
0.000000
  70
    32
  0
VERTEX
  8
241
  5
166E
 10
36.4252
 20
34.9181
 30
0.000000
  70
    32
  0
VERTEX
  8
241
  5
166F
 10
36.4249
 20
34.9223
 30
0.000000
  70
    32
  0
VERTEX
  8
241
  5
1670
 10
36.4245
 20
34.9265
 30
0.000000
  70
    32
  0
VERTEX
  8
241
  5
1671
 10
36.4241
 20
34.9307
 30
0.000000
  70
    32
  0
VERTEX
  8
241
  5
1672
 10
36.4237
 20
34.9349
 30
0.000000
  70
    32
  0
VERTEX
  8
241
  5
1673
 10
36.4233
 20
34.9391
 30
0.000000
  70
    32
  0
VERTEX
  8
241
  5
1674
 10
36.4229
 20
34.9433
 30
0.000000
  70
    32
  0
VERTEX
  8
241
  5
1675
 10
36.4225
 20
34.9475
 30
0.000000
  70
    32
  0
VERTEX
  8
241
  5
1676
 10
36.4221
 20
34.9517
 30
0.000000
  70
    32
  0
VERTEX
  8
241
  5
1677
 10
36.4216
 20
34.9559
 30
0.000000
  70
    32
  0
VERTEX
  8
241
  5
1678
 10
36.4212
 20
34.9601
 30
0.000000
  70
    32
  0
VERTEX
  8
241
  5
1679
 10
36.4207
 20
34.9642
 30
0.000000
  70
    32
  0
VERTEX
  8
241
  5
167A
 10
36.4203
 20
34.9684
 30
0.000000
  70
    32
  0
VERTEX
  8
241
  5
167B
 10
36.4198
 20
34.9726
 30
0.000000
  70
    32
  0
VERTEX
  8
241
  5
167C
 10
36.4193
 20
34.9767
 30
0.000000
  70
    32
  0
VERTEX
  8
241
  5
167D
 10
36.4188
 20
34.9809
 30
0.000000
  70
    32
  0
VERTEX
  8
241
  5
167E
 10
36.4183
 20
34.9850
 30
0.000000
  70
    32
  0
VERTEX
  8
241
  5
167F
 10
36.4178
 20
34.9892
 30
0.000000
  70
    32
  0
VERTEX
  8
241
  5
1680
 10
36.4173
 20
34.9933
 30
0.000000
  70
    32
  0
VERTEX
  8
241
  5
1681
 10
36.4168
 20
34.9975
 30
0.000000
  70
    32
  0
VERTEX
  8
241
  5
1682
 10
36.4162
 20
35.0016
 30
0.000000
  70
    32
  0
VERTEX
  8
241
  5
1683
 10
36.4157
 20
35.0057
 30
0.000000
  70
    32
  0
VERTEX
  8
241
  5
1684
 10
36.4151
 20
35.0099
 30
0.000000
  70
    32
  0
VERTEX
  8
241
  5
1685
 10
36.4146
 20
35.0140
 30
0.000000
  70
    32
  0
VERTEX
  8
241
  5
1686
 10
36.4140
 20
35.0181
 30
0.000000
  70
    32
  0
VERTEX
  8
241
  5
1687
 10
36.4134
 20
35.0222
 30
0.000000
  70
    32
  0
VERTEX
  8
241
  5
1688
 10
36.4128
 20
35.0263
 30
0.000000
  70
    32
  0
VERTEX
  8
241
  5
1689
 10
36.4123
 20
35.0304
 30
0.000000
  70
    32
  0
VERTEX
  8
241
  5
168A
 10
36.4117
 20
35.0345
 30
0.000000
  70
    32
  0
VERTEX
  8
241
  5
168B
 10
36.4110
 20
35.0386
 30
0.000000
  70
    32
  0
VERTEX
  8
241
  5
168C
 10
36.4104
 20
35.0426
 30
0.000000
  70
    32
  0
VERTEX
  8
241
  5
168D
 10
36.4098
 20
35.0467
 30
0.000000
  70
    32
  0
VERTEX
  8
241
  5
168E
 10
36.4092
 20
35.0508
 30
0.000000
  70
    32
  0
VERTEX
  8
241
  5
168F
 10
36.4085
 20
35.0548
 30
0.000000
  70
    32
  0
VERTEX
  8
241
  5
1690
 10
36.4079
 20
35.0589
 30
0.000000
  70
    32
  0
VERTEX
  8
241
  5
1691
 10
36.4072
 20
35.0630
 30
0.000000
  70
    32
  0
VERTEX
  8
241
  5
1692
 10
36.4065
 20
35.0670
 30
0.000000
  70
    32
  0
VERTEX
  8
241
  5
1693
 10
36.4058
 20
35.0710
 30
0.000000
  70
    32
  0
VERTEX
  8
241
  5
1694
 10
36.4051
 20
35.0751
 30
0.000000
  70
    32
  0
VERTEX
  8
241
  5
1695
 10
36.4044
 20
35.0791
 30
0.000000
  70
    32
  0
VERTEX
  8
241
  5
1696
 10
36.4037
 20
35.0831
 30
0.000000
  70
    32
  0
VERTEX
  8
241
  5
1697
 10
36.4030
 20
35.0871
 30
0.000000
  70
    32
  0
VERTEX
  8
241
  5
1698
 10
36.4023
 20
35.0911
 30
0.000000
  70
    32
  0
VERTEX
  8
241
  5
1699
 10
36.4016
 20
35.0951
 30
0.000000
  70
    32
  0
VERTEX
  8
241
  5
169A
 10
36.4008
 20
35.0991
 30
0.000000
  70
    32
  0
VERTEX
  8
241
  5
169B
 10
36.4001
 20
35.1031
 30
0.000000
  70
    32
  0
VERTEX
  8
241
  5
169C
 10
36.3993
 20
35.1070
 30
0.000000
  70
    32
  0
VERTEX
  8
241
  5
169D
 10
36.3986
 20
35.1110
 30
0.000000
  70
    32
  0
VERTEX
  8
241
  5
169E
 10
36.3978
 20
35.1149
 30
0.000000
  70
    32
  0
VERTEX
  8
241
  5
169F
 10
36.3970
 20
35.1189
 30
0.000000
  70
    32
  0
VERTEX
  8
241
  5
16A0
 10
36.3962
 20
35.1228
 30
0.000000
  70
    32
  0
VERTEX
  8
241
  5
16A1
 10
36.3954
 20
35.1268
 30
0.000000
  70
    32
  0
VERTEX
  8
241
  5
16A2
 10
36.3946
 20
35.1307
 30
0.000000
  70
    32
  0
VERTEX
  8
241
  5
16A3
 10
36.3938
 20
35.1346
 30
0.000000
  70
    32
  0
VERTEX
  8
241
  5
16A4
 10
36.3930
 20
35.1385
 30
0.000000
  70
    32
  0
VERTEX
  8
241
  5
16A5
 10
36.3922
 20
35.1424
 30
0.000000
  70
    32
  0
VERTEX
  8
241
  5
16A6
 10
36.3913
 20
35.1463
 30
0.000000
  70
    32
  0
VERTEX
  8
241
  5
16A7
 10
36.3905
 20
35.1502
 30
0.000000
  70
    32
  0
VERTEX
  8
241
  5
16A8
 10
36.3896
 20
35.1540
 30
0.000000
  70
    32
  0
VERTEX
  8
241
  5
16A9
 10
36.3888
 20
35.1579
 30
0.000000
  70
    32
  0
VERTEX
  8
241
  5
16AA
 10
36.3879
 20
35.1618
 30
0.000000
  70
    32
  0
VERTEX
  8
241
  5
16AB
 10
36.3870
 20
35.1656
 30
0.000000
  70
    32
  0
VERTEX
  8
241
  5
16AC
 10
36.3861
 20
35.1694
 30
0.000000
  70
    32
  0
VERTEX
  8
241
  5
16AD
 10
36.3852
 20
35.1733
 30
0.000000
  70
    32
  0
VERTEX
  8
241
  5
16AE
 10
36.3843
 20
35.1771
 30
0.000000
  70
    32
  0
VERTEX
  8
241
  5
16AF
 10
36.3834
 20
35.1809
 30
0.000000
  70
    32
  0
VERTEX
  8
241
  5
16B0
 10
36.3825
 20
35.1847
 30
0.000000
  70
    32
  0
VERTEX
  8
241
  5
16B1
 10
36.3816
 20
35.1885
 30
0.000000
  70
    32
  0
VERTEX
  8
241
  5
16B2
 10
36.3806
 20
35.1922
 30
0.000000
  70
    32
  0
VERTEX
  8
241
  5
16B3
 10
36.3797
 20
35.1960
 30
0.000000
  70
    32
  0
VERTEX
  8
241
  5
16B4
 10
36.3787
 20
35.1998
 30
0.000000
  70
    32
  0
VERTEX
  8
241
  5
16B5
 10
36.3778
 20
35.2035
 30
0.000000
  70
    32
  0
VERTEX
  8
241
  5
16B6
 10
36.3768
 20
35.2073
 30
0.000000
  70
    32
  0
VERTEX
  8
241
  5
16B7
 10
36.3758
 20
35.2110
 30
0.000000
  70
    32
  0
VERTEX
  8
241
  5
16B8
 10
36.3749
 20
35.2147
 30
0.000000
  70
    32
  0
VERTEX
  8
241
  5
16B9
 10
36.3739
 20
35.2184
 30
0.000000
  70
    32
  0
VERTEX
  8
241
  5
16BA
 10
36.3729
 20
35.2221
 30
0.000000
  70
    32
  0
VERTEX
  8
241
  5
16BB
 10
36.3719
 20
35.2258
 30
0.000000
  70
    32
  0
VERTEX
  8
241
  5
16BC
 10
36.3708
 20
35.2295
 30
0.000000
  70
    32
  0
VERTEX
  8
241
  5
16BD
 10
36.3698
 20
35.2331
 30
0.000000
  70
    32
  0
VERTEX
  8
241
  5
16BE
 10
36.3688
 20
35.2368
 30
0.000000
  70
    32
  0
VERTEX
  8
241
  5
16BF
 10
36.3678
 20
35.2404
 30
0.000000
  70
    32
  0
VERTEX
  8
241
  5
16C0
 10
36.3667
 20
35.2441
 30
0.000000
  70
    32
  0
VERTEX
  8
241
  5
16C1
 10
36.3657
 20
35.2477
 30
0.000000
  70
    32
  0
VERTEX
  8
241
  5
16C2
 10
36.3646
 20
35.2513
 30
0.000000
  70
    32
  0
VERTEX
  8
241
  5
16C3
 10
36.3636
 20
35.2549
 30
0.000000
  70
    32
  0
VERTEX
  8
241
  5
16C4
 10
36.3625
 20
35.2585
 30
0.000000
  70
    32
  0
VERTEX
  8
241
  5
16C5
 10
36.3614
 20
35.2621
 30
0.000000
  70
    32
  0
VERTEX
  8
241
  5
16C6
 10
36.3603
 20
35.2656
 30
0.000000
  70
    32
  0
VERTEX
  8
241
  5
16C7
 10
36.3592
 20
35.2692
 30
0.000000
  70
    32
  0
VERTEX
  8
241
  5
16C8
 10
36.3581
 20
35.2727
 30
0.000000
  70
    32
  0
VERTEX
  8
241
  5
16C9
 10
36.3570
 20
35.2763
 30
0.000000
  70
    32
  0
VERTEX
  8
241
  5
16CA
 10
36.3559
 20
35.2798
 30
0.000000
  70
    32
  0
VERTEX
  8
241
  5
16CB
 10
36.3548
 20
35.2833
 30
0.000000
  70
    32
  0
VERTEX
  8
241
  5
16CC
 10
36.3536
 20
35.2868
 30
0.000000
  70
    32
  0
VERTEX
  8
241
  5
16CD
 10
36.3525
 20
35.2902
 30
0.000000
  70
    32
  0
VERTEX
  8
241
  5
16CE
 10
36.3514
 20
35.2937
 30
0.000000
  70
    32
  0
SEQEND
  8
241
  5
16CF
  0
LINE
  5
128E
  8
241
 10
36.37686272983683
 20
36.700221184208729
 30
0.0
 11
36.351353572586333
 21
35.293715236872281
 31
0.0
  0
POLYLINE
  5
1290
  8
240
 10
37.167574171968013
 20
39.026526403113024
 30
0.0
 66
     1
 70
     8
  0
VERTEX
  8
240
  5
16D0
 10
37.1676
 20
39.0265
 30
0.000000
  70
    32
  0
VERTEX
  8
240
  5
16D1
 10
37.1693
 20
39.0309
 30
0.000000
  70
    32
  0
VERTEX
  8
240
  5
16D2
 10
37.1710
 20
39.0353
 30
0.000000
  70
    32
  0
VERTEX
  8
240
  5
16D3
 10
37.1727
 20
39.0397
 30
0.000000
  70
    32
  0
VERTEX
  8
240
  5
16D4
 10
37.1744
 20
39.0441
 30
0.000000
  70
    32
  0
VERTEX
  8
240
  5
16D5
 10
37.1760
 20
39.0485
 30
0.000000
  70
    32
  0
VERTEX
  8
240
  5
16D6
 10
37.1777
 20
39.0529
 30
0.000000
  70
    32
  0
VERTEX
  8
240
  5
16D7
 10
37.1794
 20
39.0573
 30
0.000000
  70
    32
  0
VERTEX
  8
240
  5
16D8
 10
37.1810
 20
39.0617
 30
0.000000
  70
    32
  0
VERTEX
  8
240
  5
16D9
 10
37.1826
 20
39.0662
 30
0.000000
  70
    32
  0
VERTEX
  8
240
  5
16DA
 10
37.1842
 20
39.0706
 30
0.000000
  70
    32
  0
VERTEX
  8
240
  5
16DB
 10
37.1859
 20
39.0751
 30
0.000000
  70
    32
  0
VERTEX
  8
240
  5
16DC
 10
37.1874
 20
39.0795
 30
0.000000
  70
    32
  0
VERTEX
  8
240
  5
16DD
 10
37.1890
 20
39.0840
 30
0.000000
  70
    32
  0
VERTEX
  8
240
  5
16DE
 10
37.1906
 20
39.0884
 30
0.000000
  70
    32
  0
VERTEX
  8
240
  5
16DF
 10
37.1922
 20
39.0929
 30
0.000000
  70
    32
  0
VERTEX
  8
240
  5
16E0
 10
37.1937
 20
39.0974
 30
0.000000
  70
    32
  0
VERTEX
  8
240
  5
16E1
 10
37.1953
 20
39.1018
 30
0.000000
  70
    32
  0
VERTEX
  8
240
  5
16E2
 10
37.1968
 20
39.1063
 30
0.000000
  70
    32
  0
VERTEX
  8
240
  5
16E3
 10
37.1983
 20
39.1108
 30
0.000000
  70
    32
  0
VERTEX
  8
240
  5
16E4
 10
37.1998
 20
39.1153
 30
0.000000
  70
    32
  0
VERTEX
  8
240
  5
16E5
 10
37.2013
 20
39.1198
 30
0.000000
  70
    32
  0
VERTEX
  8
240
  5
16E6
 10
37.2028
 20
39.1243
 30
0.000000
  70
    32
  0
VERTEX
  8
240
  5
16E7
 10
37.2042
 20
39.1288
 30
0.000000
  70
    32
  0
VERTEX
  8
240
  5
16E8
 10
37.2057
 20
39.1333
 30
0.000000
  70
    32
  0
VERTEX
  8
240
  5
16E9
 10
37.2071
 20
39.1378
 30
0.000000
  70
    32
  0
VERTEX
  8
240
  5
16EA
 10
37.2086
 20
39.1424
 30
0.000000
  70
    32
  0
VERTEX
  8
240
  5
16EB
 10
37.2100
 20
39.1469
 30
0.000000
  70
    32
  0
VERTEX
  8
240
  5
16EC
 10
37.2114
 20
39.1514
 30
0.000000
  70
    32
  0
VERTEX
  8
240
  5
16ED
 10
37.2128
 20
39.1559
 30
0.000000
  70
    32
  0
VERTEX
  8
240
  5
16EE
 10
37.2142
 20
39.1605
 30
0.000000
  70
    32
  0
VERTEX
  8
240
  5
16EF
 10
37.2155
 20
39.1650
 30
0.000000
  70
    32
  0
VERTEX
  8
240
  5
16F0
 10
37.2169
 20
39.1695
 30
0.000000
  70
    32
  0
VERTEX
  8
240
  5
16F1
 10
37.2182
 20
39.1741
 30
0.000000
  70
    32
  0
VERTEX
  8
240
  5
16F2
 10
37.2196
 20
39.1786
 30
0.000000
  70
    32
  0
VERTEX
  8
240
  5
16F3
 10
37.2209
 20
39.1832
 30
0.000000
  70
    32
  0
VERTEX
  8
240
  5
16F4
 10
37.2222
 20
39.1877
 30
0.000000
  70
    32
  0
VERTEX
  8
240
  5
16F5
 10
37.2235
 20
39.1923
 30
0.000000
  70
    32
  0
VERTEX
  8
240
  5
16F6
 10
37.2248
 20
39.1968
 30
0.000000
  70
    32
  0
VERTEX
  8
240
  5
16F7
 10
37.2260
 20
39.2014
 30
0.000000
  70
    32
  0
VERTEX
  8
240
  5
16F8
 10
37.2273
 20
39.2059
 30
0.000000
  70
    32
  0
VERTEX
  8
240
  5
16F9
 10
37.2285
 20
39.2105
 30
0.000000
  70
    32
  0
VERTEX
  8
240
  5
16FA
 10
37.2298
 20
39.2150
 30
0.000000
  70
    32
  0
VERTEX
  8
240
  5
16FB
 10
37.2310
 20
39.2196
 30
0.000000
  70
    32
  0
VERTEX
  8
240
  5
16FC
 10
37.2322
 20
39.2242
 30
0.000000
  70
    32
  0
VERTEX
  8
240
  5
16FD
 10
37.2334
 20
39.2287
 30
0.000000
  70
    32
  0
VERTEX
  8
240
  5
16FE
 10
37.2346
 20
39.2333
 30
0.000000
  70
    32
  0
VERTEX
  8
240
  5
16FF
 10
37.2357
 20
39.2378
 30
0.000000
  70
    32
  0
VERTEX
  8
240
  5
1700
 10
37.2369
 20
39.2424
 30
0.000000
  70
    32
  0
VERTEX
  8
240
  5
1701
 10
37.2380
 20
39.2470
 30
0.000000
  70
    32
  0
VERTEX
  8
240
  5
1702
 10
37.2391
 20
39.2515
 30
0.000000
  70
    32
  0
VERTEX
  8
240
  5
1703
 10
37.2403
 20
39.2561
 30
0.000000
  70
    32
  0
VERTEX
  8
240
  5
1704
 10
37.2414
 20
39.2607
 30
0.000000
  70
    32
  0
VERTEX
  8
240
  5
1705
 10
37.2424
 20
39.2652
 30
0.000000
  70
    32
  0
VERTEX
  8
240
  5
1706
 10
37.2435
 20
39.2698
 30
0.000000
  70
    32
  0
VERTEX
  8
240
  5
1707
 10
37.2446
 20
39.2743
 30
0.000000
  70
    32
  0
VERTEX
  8
240
  5
1708
 10
37.2456
 20
39.2789
 30
0.000000
  70
    32
  0
VERTEX
  8
240
  5
1709
 10
37.2467
 20
39.2834
 30
0.000000
  70
    32
  0
VERTEX
  8
240
  5
170A
 10
37.2477
 20
39.2880
 30
0.000000
  70
    32
  0
VERTEX
  8
240
  5
170B
 10
37.2487
 20
39.2926
 30
0.000000
  70
    32
  0
VERTEX
  8
240
  5
170C
 10
37.2497
 20
39.2971
 30
0.000000
  70
    32
  0
VERTEX
  8
240
  5
170D
 10
37.2507
 20
39.3017
 30
0.000000
  70
    32
  0
VERTEX
  8
240
  5
170E
 10
37.2516
 20
39.3062
 30
0.000000
  70
    32
  0
VERTEX
  8
240
  5
170F
 10
37.2526
 20
39.3108
 30
0.000000
  70
    32
  0
VERTEX
  8
240
  5
1710
 10
37.2535
 20
39.3153
 30
0.000000
  70
    32
  0
VERTEX
  8
240
  5
1711
 10
37.2544
 20
39.3198
 30
0.000000
  70
    32
  0
VERTEX
  8
240
  5
1712
 10
37.2554
 20
39.3244
 30
0.000000
  70
    32
  0
VERTEX
  8
240
  5
1713
 10
37.2563
 20
39.3289
 30
0.000000
  70
    32
  0
VERTEX
  8
240
  5
1714
 10
37.2571
 20
39.3335
 30
0.000000
  70
    32
  0
VERTEX
  8
240
  5
1715
 10
37.2580
 20
39.3380
 30
0.000000
  70
    32
  0
VERTEX
  8
240
  5
1716
 10
37.2589
 20
39.3425
 30
0.000000
  70
    32
  0
VERTEX
  8
240
  5
1717
 10
37.2597
 20
39.3470
 30
0.000000
  70
    32
  0
VERTEX
  8
240
  5
1718
 10
37.2605
 20
39.3516
 30
0.000000
  70
    32
  0
VERTEX
  8
240
  5
1719
 10
37.2613
 20
39.3561
 30
0.000000
  70
    32
  0
VERTEX
  8
240
  5
171A
 10
37.2621
 20
39.3606
 30
0.000000
  70
    32
  0
VERTEX
  8
240
  5
171B
 10
37.2629
 20
39.3651
 30
0.000000
  70
    32
  0
VERTEX
  8
240
  5
171C
 10
37.2637
 20
39.3696
 30
0.000000
  70
    32
  0
VERTEX
  8
240
  5
171D
 10
37.2645
 20
39.3741
 30
0.000000
  70
    32
  0
VERTEX
  8
240
  5
171E
 10
37.2652
 20
39.3786
 30
0.000000
  70
    32
  0
VERTEX
  8
240
  5
171F
 10
37.2659
 20
39.3831
 30
0.000000
  70
    32
  0
VERTEX
  8
240
  5
1720
 10
37.2667
 20
39.3876
 30
0.000000
  70
    32
  0
VERTEX
  8
240
  5
1721
 10
37.2674
 20
39.3921
 30
0.000000
  70
    32
  0
VERTEX
  8
240
  5
1722
 10
37.2680
 20
39.3966
 30
0.000000
  70
    32
  0
VERTEX
  8
240
  5
1723
 10
37.2687
 20
39.4010
 30
0.000000
  70
    32
  0
VERTEX
  8
240
  5
1724
 10
37.2694
 20
39.4055
 30
0.000000
  70
    32
  0
VERTEX
  8
240
  5
1725
 10
37.2700
 20
39.4100
 30
0.000000
  70
    32
  0
VERTEX
  8
240
  5
1726
 10
37.2706
 20
39.4144
 30
0.000000
  70
    32
  0
VERTEX
  8
240
  5
1727
 10
37.2713
 20
39.4189
 30
0.000000
  70
    32
  0
VERTEX
  8
240
  5
1728
 10
37.2719
 20
39.4233
 30
0.000000
  70
    32
  0
VERTEX
  8
240
  5
1729
 10
37.2725
 20
39.4277
 30
0.000000
  70
    32
  0
VERTEX
  8
240
  5
172A
 10
37.2730
 20
39.4322
 30
0.000000
  70
    32
  0
VERTEX
  8
240
  5
172B
 10
37.2736
 20
39.4366
 30
0.000000
  70
    32
  0
VERTEX
  8
240
  5
172C
 10
37.2741
 20
39.4410
 30
0.000000
  70
    32
  0
VERTEX
  8
240
  5
172D
 10
37.2747
 20
39.4454
 30
0.000000
  70
    32
  0
VERTEX
  8
240
  5
172E
 10
37.2752
 20
39.4498
 30
0.000000
  70
    32
  0
VERTEX
  8
240
  5
172F
 10
37.2757
 20
39.4542
 30
0.000000
  70
    32
  0
VERTEX
  8
240
  5
1730
 10
37.2762
 20
39.4586
 30
0.000000
  70
    32
  0
VERTEX
  8
240
  5
1731
 10
37.2766
 20
39.4630
 30
0.000000
  70
    32
  0
VERTEX
  8
240
  5
1732
 10
37.2771
 20
39.4674
 30
0.000000
  70
    32
  0
VERTEX
  8
240
  5
1733
 10
37.2775
 20
39.4717
 30
0.000000
  70
    32
  0
VERTEX
  8
240
  5
1734
 10
37.2780
 20
39.4761
 30
0.000000
  70
    32
  0
VERTEX
  8
240
  5
1735
 10
37.2784
 20
39.4804
 30
0.000000
  70
    32
  0
VERTEX
  8
240
  5
1736
 10
37.2788
 20
39.4848
 30
0.000000
  70
    32
  0
VERTEX
  8
240
  5
1737
 10
37.2792
 20
39.4891
 30
0.000000
  70
    32
  0
VERTEX
  8
240
  5
1738
 10
37.2795
 20
39.4934
 30
0.000000
  70
    32
  0
VERTEX
  8
240
  5
1739
 10
37.2799
 20
39.4978
 30
0.000000
  70
    32
  0
VERTEX
  8
240
  5
173A
 10
37.2802
 20
39.5021
 30
0.000000
  70
    32
  0
VERTEX
  8
240
  5
173B
 10
37.2805
 20
39.5064
 30
0.000000
  70
    32
  0
VERTEX
  8
240
  5
173C
 10
37.2809
 20
39.5107
 30
0.000000
  70
    32
  0
VERTEX
  8
240
  5
173D
 10
37.2812
 20
39.5149
 30
0.000000
  70
    32
  0
VERTEX
  8
240
  5
173E
 10
37.2814
 20
39.5192
 30
0.000000
  70
    32
  0
VERTEX
  8
240
  5
173F
 10
37.2817
 20
39.5235
 30
0.000000
  70
    32
  0
VERTEX
  8
240
  5
1740
 10
37.2820
 20
39.5277
 30
0.000000
  70
    32
  0
VERTEX
  8
240
  5
1741
 10
37.2822
 20
39.5320
 30
0.000000
  70
    32
  0
VERTEX
  8
240
  5
1742
 10
37.2824
 20
39.5362
 30
0.000000
  70
    32
  0
VERTEX
  8
240
  5
1743
 10
37.2826
 20
39.5404
 30
0.000000
  70
    32
  0
VERTEX
  8
240
  5
1744
 10
37.2828
 20
39.5446
 30
0.000000
  70
    32
  0
VERTEX
  8
240
  5
1745
 10
37.2830
 20
39.5488
 30
0.000000
  70
    32
  0
VERTEX
  8
240
  5
1746
 10
37.2832
 20
39.5530
 30
0.000000
  70
    32
  0
VERTEX
  8
240
  5
1747
 10
37.2833
 20
39.5572
 30
0.000000
  70
    32
  0
VERTEX
  8
240
  5
1748
 10
37.2834
 20
39.5614
 30
0.000000
  70
    32
  0
VERTEX
  8
240
  5
1749
 10
37.2836
 20
39.5655
 30
0.000000
  70
    32
  0
VERTEX
  8
240
  5
174A
 10
37.2837
 20
39.5697
 30
0.000000
  70
    32
  0
VERTEX
  8
240
  5
174B
 10
37.2838
 20
39.5738
 30
0.000000
  70
    32
  0
VERTEX
  8
240
  5
174C
 10
37.2838
 20
39.5779
 30
0.000000
  70
    32
  0
VERTEX
  8
240
  5
174D
 10
37.2839
 20
39.5821
 30
0.000000
  70
    32
  0
VERTEX
  8
240
  5
174E
 10
37.2839
 20
39.5862
 30
0.000000
  70
    32
  0
VERTEX
  8
240
  5
174F
 10
37.2840
 20
39.5902
 30
0.000000
  70
    32
  0
VERTEX
  8
240
  5
1750
 10
37.2840
 20
39.5943
 30
0.000000
  70
    32
  0
SEQEND
  8
240
  5
1751
  0
LINE
  5
1291
  8
241
 10
37.284005776639589
 20
39.599168253672353
 30
0.0
 11
37.283994754421627
 21
39.594323651582428
 31
0.0
  0
LINE
  5
1303
  8
240
 10
37.283994754421627
 20
40.0
 30
0.0
 11
50.000085050000003
 21
40.0
 31
0.0
  0
LINE
  5
130D
  8
240
 10
50.000085050000003
 20
40.0
 30
0.0
 11
50.000085050000003
 21
36.54314073236749
 31
0.0
  0
LINE
  5
1311
  8
241
 10
36.432106481714527
 20
34.782443940107278
 30
0.0
 11
35.333692325367188
 21
33.46761154213425
 31
0.0
  0
LINE
  5
1318
  8
240
 10
37.283994754421627
 20
40.0
 30
0.0
 11
37.283994754421627
 21
39.594323651582457
 31
0.0
  0
LINE
  5
1340
  8
241
 10
43.22997126348578
 20
32.076668029923979
 30
0.0
 11
48.287538461413931
 21
30.063588345699731
 31
0.0
  0
LINE
  5
1341
  8
240
 10
49.399999999999999
 20
-35.774339652991841
 30
0.0
 11
50.000085050000003
 21
-36.54314073236749
 31
0.0
  0
POLYLINE
  5
1342
  8
240
 10
37.167574172048802
 20
-39.026526403318179
 30
0.0
 66
     1
 70
     8
  0
VERTEX
  8
240
  5
1752
 10
37.1676
 20
-39.0265
 30
0.000000
  70
    32
  0
VERTEX
  8
240
  5
1753
 10
37.1693
 20
-39.0309
 30
0.000000
  70
    32
  0
VERTEX
  8
240
  5
1754
 10
37.1710
 20
-39.0353
 30
0.000000
  70
    32
  0
VERTEX
  8
240
  5
1755
 10
37.1727
 20
-39.0397
 30
0.000000
  70
    32
  0
VERTEX
  8
240
  5
1756
 10
37.1744
 20
-39.0441
 30
0.000000
  70
    32
  0
VERTEX
  8
240
  5
1757
 10
37.1760
 20
-39.0485
 30
0.000000
  70
    32
  0
VERTEX
  8
240
  5
1758
 10
37.1777
 20
-39.0529
 30
0.000000
  70
    32
  0
VERTEX
  8
240
  5
1759
 10
37.1794
 20
-39.0573
 30
0.000000
  70
    32
  0
VERTEX
  8
240
  5
175A
 10
37.1810
 20
-39.0617
 30
0.000000
  70
    32
  0
VERTEX
  8
240
  5
175B
 10
37.1826
 20
-39.0662
 30
0.000000
  70
    32
  0
VERTEX
  8
240
  5
175C
 10
37.1842
 20
-39.0706
 30
0.000000
  70
    32
  0
VERTEX
  8
240
  5
175D
 10
37.1859
 20
-39.0751
 30
0.000000
  70
    32
  0
VERTEX
  8
240
  5
175E
 10
37.1874
 20
-39.0795
 30
0.000000
  70
    32
  0
VERTEX
  8
240
  5
175F
 10
37.1890
 20
-39.0840
 30
0.000000
  70
    32
  0
VERTEX
  8
240
  5
1760
 10
37.1906
 20
-39.0884
 30
0.000000
  70
    32
  0
VERTEX
  8
240
  5
1761
 10
37.1922
 20
-39.0929
 30
0.000000
  70
    32
  0
VERTEX
  8
240
  5
1762
 10
37.1937
 20
-39.0974
 30
0.000000
  70
    32
  0
VERTEX
  8
240
  5
1763
 10
37.1953
 20
-39.1018
 30
0.000000
  70
    32
  0
VERTEX
  8
240
  5
1764
 10
37.1968
 20
-39.1063
 30
0.000000
  70
    32
  0
VERTEX
  8
240
  5
1765
 10
37.1983
 20
-39.1108
 30
0.000000
  70
    32
  0
VERTEX
  8
240
  5
1766
 10
37.1998
 20
-39.1153
 30
0.000000
  70
    32
  0
VERTEX
  8
240
  5
1767
 10
37.2013
 20
-39.1198
 30
0.000000
  70
    32
  0
VERTEX
  8
240
  5
1768
 10
37.2028
 20
-39.1243
 30
0.000000
  70
    32
  0
VERTEX
  8
240
  5
1769
 10
37.2042
 20
-39.1288
 30
0.000000
  70
    32
  0
VERTEX
  8
240
  5
176A
 10
37.2057
 20
-39.1333
 30
0.000000
  70
    32
  0
VERTEX
  8
240
  5
176B
 10
37.2071
 20
-39.1378
 30
0.000000
  70
    32
  0
VERTEX
  8
240
  5
176C
 10
37.2086
 20
-39.1424
 30
0.000000
  70
    32
  0
VERTEX
  8
240
  5
176D
 10
37.2100
 20
-39.1469
 30
0.000000
  70
    32
  0
VERTEX
  8
240
  5
176E
 10
37.2114
 20
-39.1514
 30
0.000000
  70
    32
  0
VERTEX
  8
240
  5
176F
 10
37.2128
 20
-39.1559
 30
0.000000
  70
    32
  0
VERTEX
  8
240
  5
1770
 10
37.2142
 20
-39.1605
 30
0.000000
  70
    32
  0
VERTEX
  8
240
  5
1771
 10
37.2155
 20
-39.1650
 30
0.000000
  70
    32
  0
VERTEX
  8
240
  5
1772
 10
37.2169
 20
-39.1695
 30
0.000000
  70
    32
  0
VERTEX
  8
240
  5
1773
 10
37.2182
 20
-39.1741
 30
0.000000
  70
    32
  0
VERTEX
  8
240
  5
1774
 10
37.2196
 20
-39.1786
 30
0.000000
  70
    32
  0
VERTEX
  8
240
  5
1775
 10
37.2209
 20
-39.1832
 30
0.000000
  70
    32
  0
VERTEX
  8
240
  5
1776
 10
37.2222
 20
-39.1877
 30
0.000000
  70
    32
  0
VERTEX
  8
240
  5
1777
 10
37.2235
 20
-39.1923
 30
0.000000
  70
    32
  0
VERTEX
  8
240
  5
1778
 10
37.2248
 20
-39.1968
 30
0.000000
  70
    32
  0
VERTEX
  8
240
  5
1779
 10
37.2260
 20
-39.2014
 30
0.000000
  70
    32
  0
VERTEX
  8
240
  5
177A
 10
37.2273
 20
-39.2059
 30
0.000000
  70
    32
  0
VERTEX
  8
240
  5
177B
 10
37.2285
 20
-39.2105
 30
0.000000
  70
    32
  0
VERTEX
  8
240
  5
177C
 10
37.2298
 20
-39.2150
 30
0.000000
  70
    32
  0
VERTEX
  8
240
  5
177D
 10
37.2310
 20
-39.2196
 30
0.000000
  70
    32
  0
VERTEX
  8
240
  5
177E
 10
37.2322
 20
-39.2242
 30
0.000000
  70
    32
  0
VERTEX
  8
240
  5
177F
 10
37.2334
 20
-39.2287
 30
0.000000
  70
    32
  0
VERTEX
  8
240
  5
1780
 10
37.2346
 20
-39.2333
 30
0.000000
  70
    32
  0
VERTEX
  8
240
  5
1781
 10
37.2357
 20
-39.2378
 30
0.000000
  70
    32
  0
VERTEX
  8
240
  5
1782
 10
37.2369
 20
-39.2424
 30
0.000000
  70
    32
  0
VERTEX
  8
240
  5
1783
 10
37.2380
 20
-39.2470
 30
0.000000
  70
    32
  0
VERTEX
  8
240
  5
1784
 10
37.2391
 20
-39.2515
 30
0.000000
  70
    32
  0
VERTEX
  8
240
  5
1785
 10
37.2403
 20
-39.2561
 30
0.000000
  70
    32
  0
VERTEX
  8
240
  5
1786
 10
37.2414
 20
-39.2607
 30
0.000000
  70
    32
  0
VERTEX
  8
240
  5
1787
 10
37.2424
 20
-39.2652
 30
0.000000
  70
    32
  0
VERTEX
  8
240
  5
1788
 10
37.2435
 20
-39.2698
 30
0.000000
  70
    32
  0
VERTEX
  8
240
  5
1789
 10
37.2446
 20
-39.2743
 30
0.000000
  70
    32
  0
VERTEX
  8
240
  5
178A
 10
37.2456
 20
-39.2789
 30
0.000000
  70
    32
  0
VERTEX
  8
240
  5
178B
 10
37.2467
 20
-39.2834
 30
0.000000
  70
    32
  0
VERTEX
  8
240
  5
178C
 10
37.2477
 20
-39.2880
 30
0.000000
  70
    32
  0
VERTEX
  8
240
  5
178D
 10
37.2487
 20
-39.2926
 30
0.000000
  70
    32
  0
VERTEX
  8
240
  5
178E
 10
37.2497
 20
-39.2971
 30
0.000000
  70
    32
  0
VERTEX
  8
240
  5
178F
 10
37.2507
 20
-39.3017
 30
0.000000
  70
    32
  0
VERTEX
  8
240
  5
1790
 10
37.2516
 20
-39.3062
 30
0.000000
  70
    32
  0
VERTEX
  8
240
  5
1791
 10
37.2526
 20
-39.3108
 30
0.000000
  70
    32
  0
VERTEX
  8
240
  5
1792
 10
37.2535
 20
-39.3153
 30
0.000000
  70
    32
  0
VERTEX
  8
240
  5
1793
 10
37.2544
 20
-39.3198
 30
0.000000
  70
    32
  0
VERTEX
  8
240
  5
1794
 10
37.2554
 20
-39.3244
 30
0.000000
  70
    32
  0
VERTEX
  8
240
  5
1795
 10
37.2563
 20
-39.3289
 30
0.000000
  70
    32
  0
VERTEX
  8
240
  5
1796
 10
37.2571
 20
-39.3335
 30
0.000000
  70
    32
  0
VERTEX
  8
240
  5
1797
 10
37.2580
 20
-39.3380
 30
0.000000
  70
    32
  0
VERTEX
  8
240
  5
1798
 10
37.2589
 20
-39.3425
 30
0.000000
  70
    32
  0
VERTEX
  8
240
  5
1799
 10
37.2597
 20
-39.3470
 30
0.000000
  70
    32
  0
VERTEX
  8
240
  5
179A
 10
37.2605
 20
-39.3516
 30
0.000000
  70
    32
  0
VERTEX
  8
240
  5
179B
 10
37.2613
 20
-39.3561
 30
0.000000
  70
    32
  0
VERTEX
  8
240
  5
179C
 10
37.2621
 20
-39.3606
 30
0.000000
  70
    32
  0
VERTEX
  8
240
  5
179D
 10
37.2629
 20
-39.3651
 30
0.000000
  70
    32
  0
VERTEX
  8
240
  5
179E
 10
37.2637
 20
-39.3696
 30
0.000000
  70
    32
  0
VERTEX
  8
240
  5
179F
 10
37.2645
 20
-39.3741
 30
0.000000
  70
    32
  0
VERTEX
  8
240
  5
17A0
 10
37.2652
 20
-39.3786
 30
0.000000
  70
    32
  0
VERTEX
  8
240
  5
17A1
 10
37.2659
 20
-39.3831
 30
0.000000
  70
    32
  0
VERTEX
  8
240
  5
17A2
 10
37.2667
 20
-39.3876
 30
0.000000
  70
    32
  0
VERTEX
  8
240
  5
17A3
 10
37.2674
 20
-39.3921
 30
0.000000
  70
    32
  0
VERTEX
  8
240
  5
17A4
 10
37.2680
 20
-39.3966
 30
0.000000
  70
    32
  0
VERTEX
  8
240
  5
17A5
 10
37.2687
 20
-39.4010
 30
0.000000
  70
    32
  0
VERTEX
  8
240
  5
17A6
 10
37.2694
 20
-39.4055
 30
0.000000
  70
    32
  0
VERTEX
  8
240
  5
17A7
 10
37.2700
 20
-39.4100
 30
0.000000
  70
    32
  0
VERTEX
  8
240
  5
17A8
 10
37.2706
 20
-39.4144
 30
0.000000
  70
    32
  0
VERTEX
  8
240
  5
17A9
 10
37.2713
 20
-39.4189
 30
0.000000
  70
    32
  0
VERTEX
  8
240
  5
17AA
 10
37.2719
 20
-39.4233
 30
0.000000
  70
    32
  0
VERTEX
  8
240
  5
17AB
 10
37.2725
 20
-39.4277
 30
0.000000
  70
    32
  0
VERTEX
  8
240
  5
17AC
 10
37.2730
 20
-39.4322
 30
0.000000
  70
    32
  0
VERTEX
  8
240
  5
17AD
 10
37.2736
 20
-39.4366
 30
0.000000
  70
    32
  0
VERTEX
  8
240
  5
17AE
 10
37.2741
 20
-39.4410
 30
0.000000
  70
    32
  0
VERTEX
  8
240
  5
17AF
 10
37.2747
 20
-39.4454
 30
0.000000
  70
    32
  0
VERTEX
  8
240
  5
17B0
 10
37.2752
 20
-39.4498
 30
0.000000
  70
    32
  0
VERTEX
  8
240
  5
17B1
 10
37.2757
 20
-39.4542
 30
0.000000
  70
    32
  0
VERTEX
  8
240
  5
17B2
 10
37.2762
 20
-39.4586
 30
0.000000
  70
    32
  0
VERTEX
  8
240
  5
17B3
 10
37.2766
 20
-39.4630
 30
0.000000
  70
    32
  0
VERTEX
  8
240
  5
17B4
 10
37.2771
 20
-39.4674
 30
0.000000
  70
    32
  0
VERTEX
  8
240
  5
17B5
 10
37.2775
 20
-39.4717
 30
0.000000
  70
    32
  0
VERTEX
  8
240
  5
17B6
 10
37.2780
 20
-39.4761
 30
0.000000
  70
    32
  0
VERTEX
  8
240
  5
17B7
 10
37.2784
 20
-39.4804
 30
0.000000
  70
    32
  0
VERTEX
  8
240
  5
17B8
 10
37.2788
 20
-39.4848
 30
0.000000
  70
    32
  0
VERTEX
  8
240
  5
17B9
 10
37.2792
 20
-39.4891
 30
0.000000
  70
    32
  0
VERTEX
  8
240
  5
17BA
 10
37.2795
 20
-39.4934
 30
0.000000
  70
    32
  0
VERTEX
  8
240
  5
17BB
 10
37.2799
 20
-39.4978
 30
0.000000
  70
    32
  0
VERTEX
  8
240
  5
17BC
 10
37.2802
 20
-39.5021
 30
0.000000
  70
    32
  0
VERTEX
  8
240
  5
17BD
 10
37.2805
 20
-39.5064
 30
0.000000
  70
    32
  0
VERTEX
  8
240
  5
17BE
 10
37.2809
 20
-39.5107
 30
0.000000
  70
    32
  0
VERTEX
  8
240
  5
17BF
 10
37.2812
 20
-39.5149
 30
0.000000
  70
    32
  0
VERTEX
  8
240
  5
17C0
 10
37.2814
 20
-39.5192
 30
0.000000
  70
    32
  0
VERTEX
  8
240
  5
17C1
 10
37.2817
 20
-39.5235
 30
0.000000
  70
    32
  0
VERTEX
  8
240
  5
17C2
 10
37.2820
 20
-39.5277
 30
0.000000
  70
    32
  0
VERTEX
  8
240
  5
17C3
 10
37.2822
 20
-39.5320
 30
0.000000
  70
    32
  0
VERTEX
  8
240
  5
17C4
 10
37.2824
 20
-39.5362
 30
0.000000
  70
    32
  0
VERTEX
  8
240
  5
17C5
 10
37.2826
 20
-39.5404
 30
0.000000
  70
    32
  0
VERTEX
  8
240
  5
17C6
 10
37.2828
 20
-39.5446
 30
0.000000
  70
    32
  0
VERTEX
  8
240
  5
17C7
 10
37.2830
 20
-39.5488
 30
0.000000
  70
    32
  0
VERTEX
  8
240
  5
17C8
 10
37.2832
 20
-39.5530
 30
0.000000
  70
    32
  0
VERTEX
  8
240
  5
17C9
 10
37.2833
 20
-39.5572
 30
0.000000
  70
    32
  0
VERTEX
  8
240
  5
17CA
 10
37.2834
 20
-39.5614
 30
0.000000
  70
    32
  0
VERTEX
  8
240
  5
17CB
 10
37.2836
 20
-39.5655
 30
0.000000
  70
    32
  0
VERTEX
  8
240
  5
17CC
 10
37.2837
 20
-39.5697
 30
0.000000
  70
    32
  0
VERTEX
  8
240
  5
17CD
 10
37.2838
 20
-39.5738
 30
0.000000
  70
    32
  0
VERTEX
  8
240
  5
17CE
 10
37.2838
 20
-39.5779
 30
0.000000
  70
    32
  0
VERTEX
  8
240
  5
17CF
 10
37.2839
 20
-39.5821
 30
0.000000
  70
    32
  0
VERTEX
  8
240
  5
17D0
 10
37.2839
 20
-39.5862
 30
0.000000
  70
    32
  0
VERTEX
  8
240
  5
17D1
 10
37.2840
 20
-39.5902
 30
0.000000
  70
    32
  0
VERTEX
  8
240
  5
17D2
 10
37.2840
 20
-39.5943
 30
0.000000
  70
    32
  0
SEQEND
  8
240
  5
17D3
  0
LINE
  5
1343
  8
240
 10
37.283994754421627
 20
-40.0
 30
0.0
 11
50.000085050000003
 21
-40.0
 31
0.0
  0
LINE
  5
1344
  8
240
 10
50.000085050000003
 20
-40.0
 30
0.0
 11
50.000085050000003
 21
-36.54314073236749
 31
0.0
  0
LINE
  5
1345
  8
240
 10
37.283994754421627
 20
-40.0
 30
0.0
 11
37.283994754421627
 21
-39.594323651582457
 31
0.0
  0
POLYLINE
  8
241
  5
17D4
  66
     1
 10
0.000000
 20
0.000000
 30
0.000000
  70
     8
  0
VERTEX
  8
241
  5
17D5
 10
33.0314
 20
33.9808
 30
0.000000
  70
    32
  0
VERTEX
  8
241
  5
17D6
 10
33.0020
 20
33.9882
 30
0.000000
  70
    32
  0
VERTEX
  8
241
  5
17D7
 10
32.9725
 20
33.9957
 30
0.000000
  70
    32
  0
VERTEX
  8
241
  5
17D8
 10
32.9431
 20
34.0031
 30
0.000000
  70
    32
  0
VERTEX
  8
241
  5
17D9
 10
32.9136
 20
34.0105
 30
0.000000
  70
    32
  0
VERTEX
  8
241
  5
17DA
 10
32.8842
 20
34.0180
 30
0.000000
  70
    32
  0
VERTEX
  8
241
  5
17DB
 10
32.8547
 20
34.0254
 30
0.000000
  70
    32
  0
VERTEX
  8
241
  5
17DC
 10
32.8253
 20
34.0329
 30
0.000000
  70
    32
  0
VERTEX
  8
241
  5
17DD
 10
32.7959
 20
34.0403
 30
0.000000
  70
    32
  0
VERTEX
  8
241
  5
17DE
 10
32.7665
 20
34.0478
 30
0.000000
  70
    32
  0
VERTEX
  8
241
  5
17DF
 10
32.7371
 20
34.0553
 30
0.000000
  70
    32
  0
VERTEX
  8
241
  5
17E0
 10
32.7077
 20
34.0629
 30
0.000000
  70
    32
  0
VERTEX
  8
241
  5
17E1
 10
32.6784
 20
34.0704
 30
0.000000
  70
    32
  0
VERTEX
  8
241
  5
17E2
 10
32.6491
 20
34.0780
 30
0.000000
  70
    32
  0
VERTEX
  8
241
  5
17E3
 10
32.6198
 20
34.0856
 30
0.000000
  70
    32
  0
VERTEX
  8
241
  5
17E4
 10
32.5905
 20
34.0932
 30
0.000000
  70
    32
  0
VERTEX
  8
241
  5
17E5
 10
32.5612
 20
34.1009
 30
0.000000
  70
    32
  0
VERTEX
  8
241
  5
17E6
 10
32.5320
 20
34.1086
 30
0.000000
  70
    32
  0
VERTEX
  8
241
  5
17E7
 10
32.5028
 20
34.1163
 30
0.000000
  70
    32
  0
VERTEX
  8
241
  5
17E8
 10
32.4736
 20
34.1241
 30
0.000000
  70
    32
  0
VERTEX
  8
241
  5
17E9
 10
32.4445
 20
34.1319
 30
0.000000
  70
    32
  0
VERTEX
  8
241
  5
17EA
 10
32.4154
 20
34.1397
 30
0.000000
  70
    32
  0
VERTEX
  8
241
  5
17EB
 10
32.3863
 20
34.1476
 30
0.000000
  70
    32
  0
VERTEX
  8
241
  5
17EC
 10
32.3573
 20
34.1555
 30
0.000000
  70
    32
  0
VERTEX
  8
241
  5
17ED
 10
32.3283
 20
34.1635
 30
0.000000
  70
    32
  0
VERTEX
  8
241
  5
17EE
 10
32.2994
 20
34.1715
 30
0.000000
  70
    32
  0
VERTEX
  8
241
  5
17EF
 10
32.2705
 20
34.1796
 30
0.000000
  70
    32
  0
VERTEX
  8
241
  5
17F0
 10
32.2416
 20
34.1877
 30
0.000000
  70
    32
  0
VERTEX
  8
241
  5
17F1
 10
32.2128
 20
34.1959
 30
0.000000
  70
    32
  0
VERTEX
  8
241
  5
17F2
 10
32.1840
 20
34.2041
 30
0.000000
  70
    32
  0
VERTEX
  8
241
  5
17F3
 10
32.1553
 20
34.2124
 30
0.000000
  70
    32
  0
VERTEX
  8
241
  5
17F4
 10
32.1266
 20
34.2207
 30
0.000000
  70
    32
  0
VERTEX
  8
241
  5
17F5
 10
32.0980
 20
34.2291
 30
0.000000
  70
    32
  0
VERTEX
  8
241
  5
17F6
 10
32.0695
 20
34.2376
 30
0.000000
  70
    32
  0
VERTEX
  8
241
  5
17F7
 10
32.0410
 20
34.2461
 30
0.000000
  70
    32
  0
VERTEX
  8
241
  5
17F8
 10
32.0125
 20
34.2547
 30
0.000000
  70
    32
  0
VERTEX
  8
241
  5
17F9
 10
31.9842
 20
34.2634
 30
0.000000
  70
    32
  0
VERTEX
  8
241
  5
17FA
 10
31.9558
 20
34.2722
 30
0.000000
  70
    32
  0
VERTEX
  8
241
  5
17FB
 10
31.9276
 20
34.2810
 30
0.000000
  70
    32
  0
VERTEX
  8
241
  5
17FC
 10
31.8994
 20
34.2899
 30
0.000000
  70
    32
  0
VERTEX
  8
241
  5
17FD
 10
31.8713
 20
34.2988
 30
0.000000
  70
    32
  0
VERTEX
  8
241
  5
17FE
 10
31.8432
 20
34.3079
 30
0.000000
  70
    32
  0
VERTEX
  8
241
  5
17FF
 10
31.8152
 20
34.3170
 30
0.000000
  70
    32
  0
VERTEX
  8
241
  5
1800
 10
31.7873
 20
34.3263
 30
0.000000
  70
    32
  0
VERTEX
  8
241
  5
1801
 10
31.7595
 20
34.3356
 30
0.000000
  70
    32
  0
VERTEX
  8
241
  5
1802
 10
31.7317
 20
34.3450
 30
0.000000
  70
    32
  0
VERTEX
  8
241
  5
1803
 10
31.7040
 20
34.3544
 30
0.000000
  70
    32
  0
VERTEX
  8
241
  5
1804
 10
31.6764
 20
34.3640
 30
0.000000
  70
    32
  0
VERTEX
  8
241
  5
1805
 10
31.6489
 20
34.3737
 30
0.000000
  70
    32
  0
VERTEX
  8
241
  5
1806
 10
31.6214
 20
34.3834
 30
0.000000
  70
    32
  0
VERTEX
  8
241
  5
1807
 10
31.5940
 20
34.3933
 30
0.000000
  70
    32
  0
VERTEX
  8
241
  5
1808
 10
31.5668
 20
34.4033
 30
0.000000
  70
    32
  0
VERTEX
  8
241
  5
1809
 10
31.5396
 20
34.4133
 30
0.000000
  70
    32
  0
VERTEX
  8
241
  5
180A
 10
31.5125
 20
34.4235
 30
0.000000
  70
    32
  0
VERTEX
  8
241
  5
180B
 10
31.4855
 20
34.4338
 30
0.000000
  70
    32
  0
VERTEX
  8
241
  5
180C
 10
31.4585
 20
34.4441
 30
0.000000
  70
    32
  0
VERTEX
  8
241
  5
180D
 10
31.4317
 20
34.4546
 30
0.000000
  70
    32
  0
VERTEX
  8
241
  5
180E
 10
31.4050
 20
34.4652
 30
0.000000
  70
    32
  0
VERTEX
  8
241
  5
180F
 10
31.3784
 20
34.4759
 30
0.000000
  70
    32
  0
VERTEX
  8
241
  5
1810
 10
31.3518
 20
34.4868
 30
0.000000
  70
    32
  0
VERTEX
  8
241
  5
1811
 10
31.3254
 20
34.4977
 30
0.000000
  70
    32
  0
VERTEX
  8
241
  5
1812
 10
31.2991
 20
34.5088
 30
0.000000
  70
    32
  0
VERTEX
  8
241
  5
1813
 10
31.2728
 20
34.5200
 30
0.000000
  70
    32
  0
VERTEX
  8
241
  5
1814
 10
31.2467
 20
34.5313
 30
0.000000
  70
    32
  0
VERTEX
  8
241
  5
1815
 10
31.2207
 20
34.5427
 30
0.000000
  70
    32
  0
VERTEX
  8
241
  5
1816
 10
31.1948
 20
34.5543
 30
0.000000
  70
    32
  0
VERTEX
  8
241
  5
1817
 10
31.1690
 20
34.5660
 30
0.000000
  70
    32
  0
VERTEX
  8
241
  5
1818
 10
31.1433
 20
34.5778
 30
0.000000
  70
    32
  0
VERTEX
  8
241
  5
1819
 10
31.1178
 20
34.5898
 30
0.000000
  70
    32
  0
VERTEX
  8
241
  5
181A
 10
31.0923
 20
34.6019
 30
0.000000
  70
    32
  0
VERTEX
  8
241
  5
181B
 10
31.0670
 20
34.6141
 30
0.000000
  70
    32
  0
VERTEX
  8
241
  5
181C
 10
31.0418
 20
34.6265
 30
0.000000
  70
    32
  0
VERTEX
  8
241
  5
181D
 10
31.0167
 20
34.6390
 30
0.000000
  70
    32
  0
VERTEX
  8
241
  5
181E
 10
30.9917
 20
34.6516
 30
0.000000
  70
    32
  0
VERTEX
  8
241
  5
181F
 10
30.9669
 20
34.6644
 30
0.000000
  70
    32
  0
VERTEX
  8
241
  5
1820
 10
30.9422
 20
34.6774
 30
0.000000
  70
    32
  0
VERTEX
  8
241
  5
1821
 10
30.9176
 20
34.6905
 30
0.000000
  70
    32
  0
VERTEX
  8
241
  5
1822
 10
30.8931
 20
34.7037
 30
0.000000
  70
    32
  0
VERTEX
  8
241
  5
1823
 10
30.8688
 20
34.7171
 30
0.000000
  70
    32
  0
VERTEX
  8
241
  5
1824
 10
30.8446
 20
34.7307
 30
0.000000
  70
    32
  0
VERTEX
  8
241
  5
1825
 10
30.8206
 20
34.7444
 30
0.000000
  70
    32
  0
VERTEX
  8
241
  5
1826
 10
30.7967
 20
34.7583
 30
0.000000
  70
    32
  0
VERTEX
  8
241
  5
1827
 10
30.7729
 20
34.7723
 30
0.000000
  70
    32
  0
VERTEX
  8
241
  5
1828
 10
30.7492
 20
34.7865
 30
0.000000
  70
    32
  0
VERTEX
  8
241
  5
1829
 10
30.7257
 20
34.8009
 30
0.000000
  70
    32
  0
VERTEX
  8
241
  5
182A
 10
30.7024
 20
34.8154
 30
0.000000
  70
    32
  0
VERTEX
  8
241
  5
182B
 10
30.6792
 20
34.8301
 30
0.000000
  70
    32
  0
VERTEX
  8
241
  5
182C
 10
30.6561
 20
34.8450
 30
0.000000
  70
    32
  0
VERTEX
  8
241
  5
182D
 10
30.6332
 20
34.8601
 30
0.000000
  70
    32
  0
VERTEX
  8
241
  5
182E
 10
30.6104
 20
34.8753
 30
0.000000
  70
    32
  0
VERTEX
  8
241
  5
182F
 10
30.5878
 20
34.8907
 30
0.000000
  70
    32
  0
VERTEX
  8
241
  5
1830
 10
30.5654
 20
34.9063
 30
0.000000
  70
    32
  0
VERTEX
  8
241
  5
1831
 10
30.5431
 20
34.9220
 30
0.000000
  70
    32
  0
VERTEX
  8
241
  5
1832
 10
30.5209
 20
34.9380
 30
0.000000
  70
    32
  0
VERTEX
  8
241
  5
1833
 10
30.4990
 20
34.9541
 30
0.000000
  70
    32
  0
VERTEX
  8
241
  5
1834
 10
30.4771
 20
34.9704
 30
0.000000
  70
    32
  0
VERTEX
  8
241
  5
1835
 10
30.4555
 20
34.9869
 30
0.000000
  70
    32
  0
VERTEX
  8
241
  5
1836
 10
30.4340
 20
35.0036
 30
0.000000
  70
    32
  0
VERTEX
  8
241
  5
1837
 10
30.4127
 20
35.0205
 30
0.000000
  70
    32
  0
VERTEX
  8
241
  5
1838
 10
30.3915
 20
35.0376
 30
0.000000
  70
    32
  0
VERTEX
  8
241
  5
1839
 10
30.3705
 20
35.0549
 30
0.000000
  70
    32
  0
VERTEX
  8
241
  5
183A
 10
30.3497
 20
35.0724
 30
0.000000
  70
    32
  0
VERTEX
  8
241
  5
183B
 10
30.3290
 20
35.0900
 30
0.000000
  70
    32
  0
VERTEX
  8
241
  5
183C
 10
30.3086
 20
35.1079
 30
0.000000
  70
    32
  0
VERTEX
  8
241
  5
183D
 10
30.2883
 20
35.1260
 30
0.000000
  70
    32
  0
VERTEX
  8
241
  5
183E
 10
30.2681
 20
35.1443
 30
0.000000
  70
    32
  0
VERTEX
  8
241
  5
183F
 10
30.2482
 20
35.1628
 30
0.000000
  70
    32
  0
VERTEX
  8
241
  5
1840
 10
30.2284
 20
35.1816
 30
0.000000
  70
    32
  0
VERTEX
  8
241
  5
1841
 10
30.2089
 20
35.2005
 30
0.000000
  70
    32
  0
VERTEX
  8
241
  5
1842
 10
30.1895
 20
35.2196
 30
0.000000
  70
    32
  0
VERTEX
  8
241
  5
1843
 10
30.1703
 20
35.2390
 30
0.000000
  70
    32
  0
VERTEX
  8
241
  5
1844
 10
30.1513
 20
35.2586
 30
0.000000
  70
    32
  0
VERTEX
  8
241
  5
1845
 10
30.1324
 20
35.2784
 30
0.000000
  70
    32
  0
VERTEX
  8
241
  5
1846
 10
30.1138
 20
35.2984
 30
0.000000
  70
    32
  0
VERTEX
  8
241
  5
1847
 10
30.0954
 20
35.3187
 30
0.000000
  70
    32
  0
VERTEX
  8
241
  5
1848
 10
30.0771
 20
35.3392
 30
0.000000
  70
    32
  0
VERTEX
  8
241
  5
1849
 10
30.0590
 20
35.3599
 30
0.000000
  70
    32
  0
VERTEX
  8
241
  5
184A
 10
30.0412
 20
35.3808
 30
0.000000
  70
    32
  0
VERTEX
  8
241
  5
184B
 10
30.0235
 20
35.4019
 30
0.000000
  70
    32
  0
VERTEX
  8
241
  5
184C
 10
30.0060
 20
35.4232
 30
0.000000
  70
    32
  0
VERTEX
  8
241
  5
184D
 10
29.9886
 20
35.4447
 30
0.000000
  70
    32
  0
VERTEX
  8
241
  5
184E
 10
29.9714
 20
35.4665
 30
0.000000
  70
    32
  0
VERTEX
  8
241
  5
184F
 10
29.9544
 20
35.4884
 30
0.000000
  70
    32
  0
VERTEX
  8
241
  5
1850
 10
29.9375
 20
35.5105
 30
0.000000
  70
    32
  0
VERTEX
  8
241
  5
1851
 10
29.9208
 20
35.5328
 30
0.000000
  70
    32
  0
VERTEX
  8
241
  5
1852
 10
29.9043
 20
35.5552
 30
0.000000
  70
    32
  0
VERTEX
  8
241
  5
1853
 10
29.8879
 20
35.5778
 30
0.000000
  70
    32
  0
VERTEX
  8
241
  5
1854
 10
29.8716
 20
35.6006
 30
0.000000
  70
    32
  0
VERTEX
  8
241
  5
1855
 10
29.8555
 20
35.6236
 30
0.000000
  70
    32
  0
VERTEX
  8
241
  5
1856
 10
29.8395
 20
35.6467
 30
0.000000
  70
    32
  0
VERTEX
  8
241
  5
1857
 10
29.8236
 20
35.6699
 30
0.000000
  70
    32
  0
VERTEX
  8
241
  5
1858
 10
29.8079
 20
35.6933
 30
0.000000
  70
    32
  0
VERTEX
  8
241
  5
1859
 10
29.7922
 20
35.7168
 30
0.000000
  70
    32
  0
VERTEX
  8
241
  5
185A
 10
29.7767
 20
35.7405
 30
0.000000
  70
    32
  0
VERTEX
  8
241
  5
185B
 10
29.7613
 20
35.7643
 30
0.000000
  70
    32
  0
VERTEX
  8
241
  5
185C
 10
29.7460
 20
35.7882
 30
0.000000
  70
    32
  0
VERTEX
  8
241
  5
185D
 10
29.7308
 20
35.8123
 30
0.000000
  70
    32
  0
VERTEX
  8
241
  5
185E
 10
29.7157
 20
35.8364
 30
0.000000
  70
    32
  0
VERTEX
  8
241
  5
185F
 10
29.7007
 20
35.8607
 30
0.000000
  70
    32
  0
VERTEX
  8
241
  5
1860
 10
29.6858
 20
35.8851
 30
0.000000
  70
    32
  0
VERTEX
  8
241
  5
1861
 10
29.6710
 20
35.9095
 30
0.000000
  70
    32
  0
VERTEX
  8
241
  5
1862
 10
29.6563
 20
35.9341
 30
0.000000
  70
    32
  0
VERTEX
  8
241
  5
1863
 10
29.6416
 20
35.9588
 30
0.000000
  70
    32
  0
VERTEX
  8
241
  5
1864
 10
29.6270
 20
35.9835
 30
0.000000
  70
    32
  0
VERTEX
  8
241
  5
1865
 10
29.6125
 20
36.0083
 30
0.000000
  70
    32
  0
VERTEX
  8
241
  5
1866
 10
29.5980
 20
36.0332
 30
0.000000
  70
    32
  0
VERTEX
  8
241
  5
1867
 10
29.5837
 20
36.0582
 30
0.000000
  70
    32
  0
VERTEX
  8
241
  5
1868
 10
29.5693
 20
36.0832
 30
0.000000
  70
    32
  0
VERTEX
  8
241
  5
1869
 10
29.5550
 20
36.1083
 30
0.000000
  70
    32
  0
VERTEX
  8
241
  5
186A
 10
29.5408
 20
36.1335
 30
0.000000
  70
    32
  0
VERTEX
  8
241
  5
186B
 10
29.5266
 20
36.1586
 30
0.000000
  70
    32
  0
VERTEX
  8
241
  5
186C
 10
29.5124
 20
36.1839
 30
0.000000
  70
    32
  0
VERTEX
  8
241
  5
186D
 10
29.4983
 20
36.2092
 30
0.000000
  70
    32
  0
VERTEX
  8
241
  5
186E
 10
29.4842
 20
36.2345
 30
0.000000
  70
    32
  0
VERTEX
  8
241
  5
186F
 10
29.4701
 20
36.2598
 30
0.000000
  70
    32
  0
VERTEX
  8
241
  5
1870
 10
29.4561
 20
36.2852
 30
0.000000
  70
    32
  0
VERTEX
  8
241
  5
1871
 10
29.4420
 20
36.3106
 30
0.000000
  70
    32
  0
VERTEX
  8
241
  5
1872
 10
29.4280
 20
36.3360
 30
0.000000
  70
    32
  0
VERTEX
  8
241
  5
1873
 10
29.4140
 20
36.3614
 30
0.000000
  70
    32
  0
VERTEX
  8
241
  5
1874
 10
29.4000
 20
36.3868
 30
0.000000
  70
    32
  0
SEQEND
  8
241
  5
1875
  0
LINE
  5
1394
  8
240
 10
49.399999999999999
 20
-19.790973974490061
 30
0.0
 11
49.399999999999999
 21
-35.774339652991841
 31
0.0
  0
LINE
  5
1395
  8
240
 10
49.399999999999991
 20
20.20902455666161
 30
0.0
 11
49.400000000000013
 21
-14.29995920148793
 31
0.0
  0
LINE
  5
1398
  8
241
 10
36.39425888636012
 20
-15.057271334552921
 30
0.0
 11
49.399999999999999
 21
-19.790973974490061
 31
0.0
  0
LINE
  5
1399
  8
241
 10
49.399999999999991
 20
20.20902455666161
 30
0.0
 11
36.39425888636012
 21
24.942727196598749
 31
0.0
  0
LINE
  5
13A4
  8
240
 10
49.399999999999977
 20
25.700039329663909
 30
0.0
 11
50.000085050000003
 21
19.99061146043346
 31
0.0
1001
GRPNAME
1000
PASTMD01
  0
LINE
  5
13B2
  8
240
 10
49.400000000000013
 20
-14.29995920148793
 30
0.0
 11
50.000085050000003
 21
-20.009387070718208
 31
0.0
1001
GRPNAME
1000
PASTMD01
  0
LINE
  5
13C3
  8
241
 10
49.399999999999991
 20
35.774339652991841
 30
0.0
 11
49.220672817864767
 21
35.544594000793111
 31
0.0
  0
LINE
  5
13C4
  8
241
 10
37.167574172048802
 20
-39.026526403318172
 30
0.0
 11
49.399999999999999
 21
-38.799999999999997
 31
0.0
  0
LINE
  5
13C5
  8
241
 10
49.399999999999999
 20
-35.774339652991841
 30
0.0
 11
49.399999999999999
 21
-38.799999999999997
 31
0.0
  0
LINE
  5
13FB
  8
250
 10
0.0
 20
30.5
 30
0.0
 11
0.0000000000000017
 21
57.0
 31
0.0
  0
LINE
  5
13FC
  8
250
 10
50.000085050000003
 20
40.499999999999993
 30
0.0
 11
50.000085050000003
 21
57.0
 31
0.0
  0
LINE
  5
13FD
  8
250
 10
2.2300000000000009
 20
56.0
 30
0.0
 11
47.770085049999999
 21
56.0
 31
0.0
  0
LINE
  5
1401
  8
250
 10
39.000085050000003
 20
40.499999999999993
 30
0.0
 11
39.000085050000003
 21
50.0
 31
0.0
  0
LINE
  5
1402
  8
250
 10
50.000085050000003
 20
40.499999999999993
 30
0.0
 11
50.000085050000003
 21
50.0
 31
0.0
  0
LINE
  5
1403
  8
250
 10
41.23008505
 20
49.0
 30
0.0
 11
47.770085049999999
 21
49.0
 31
0.0
  0
LINE
  5
1407
  8
250
 10
50.500085050000003
 20
-40.0
 30
0.0
 11
64.0
 21
-40.0
 31
0.0
  0
LINE
  5
1408
  8
250
 10
50.500085050000003
 20
40.0
 30
0.0
 11
64.0
 21
40.0
 31
0.0
  0
LINE
  5
1409
  8
250
 10
63.0
 20
-37.77000000000001
 30
0.0
 11
63.0
 21
37.77000000000001
 31
0.0
  0
LINE
  5
140D
  8
250
 10
-0.5
 20
13.5
 30
0.0
 11
-18.5
 21
13.5
 31
0.0
  0
LINE
  5
140E
  8
250
 10
-17.5
 20
-11.27
 30
0.0
 11
-17.5
 21
11.27
 31
0.0
  0
INSERT
  5
140F
  8
250
  6
CONTINUOUS
  2
矢印なし
 10
-17.5
 20
-13.5
 30
0.0
 41
2.2299999999999991
 42
2.2299999999999991
 43
2.2299999999999991
 50
270.0
  0
LINE
  5
1412
  8
250
 10
-0.5
 20
-30.0
 30
0.0
 11
-25.5
 21
-30.0
 31
0.0
  0
LINE
  5
1413
  8
250
 10
-0.5
 20
30.0
 30
0.0
 11
-25.5
 21
30.0
 31
0.0
  0
LINE
  5
1414
  8
250
 10
-24.5
 20
-27.77
 30
0.0
 11
-24.5
 21
27.77
 31
0.0
  0
LINE
  5
1418
  8
250
 10
-0.5
 20
-6.2000000000000002
 30
0.0
 11
-11.5
 21
-6.2000000000000002
 31
0.0
  0
LINE
  5
1419
  8
250
 10
-0.5
 20
6.2000000000000002
 30
0.0
 11
-11.5
 21
6.2000000000000002
 31
0.0
  0
LINE
  5
141A
  8
250
 10
-10.5
 20
-3.9700000000000002
 30
0.0
 11
-10.5
 21
3.9700000000000002
 31
0.0
  0
TEXT
  5
141E
  8
250
 10
22.333375858333341
 20
57.0
 30
0.0
 40
2.7999999999999989
  1
50
  0
LINE
  5
141F
  8
250
 10
47.770085049999999
 20
56.37166666666667
 30
0.0
 11
50.000085050000003
 21
56.0
 31
0.0
  0
LINE
  5
1420
  8
250
 10
47.770085049999999
 20
55.62833333333333
 30
0.0
 11
50.000085050000003
 21
56.0
 31
0.0
  0
LINE
  5
1421
  8
250
 10
50.000085050000003
 20
56.0
 30
0.0
 11
47.770085049999999
 21
56.0
 31
0.0
  0
LINE
  5
1422
  8
250
 10
2.2300000000000009
 20
55.62833333333333
 30
0.0
 11
0.0000000000000016
 21
56.0
 31
0.0
  0
LINE
  5
1423
  8
250
 10
2.2300000000000009
 20
56.37166666666667
 30
0.0
 11
0.0000000000000016
 21
56.0
 31
0.0
  0
LINE
  5
1424
  8
250
 10
0.0000000000000016
 20
56.0
 30
0.0
 11
2.2300000000000009
 21
56.0
 31
0.0
  0
TEXT
  5
1425
  8
250
 10
42.033418383333341
 20
50.0
 30
0.0
 40
2.7999999999999989
  1
11
  0
LINE
  5
1426
  8
250
 10
47.770085049999999
 20
49.37166666666667
 30
0.0
 11
50.000085050000003
 21
49.0
 31
0.0
  0
LINE
  5
1427
  8
250
 10
47.770085049999999
 20
48.62833333333333
 30
0.0
 11
50.000085050000003
 21
49.0
 31
0.0
  0
LINE
  5
1428
  8
250
 10
50.000085050000003
 20
49.0
 30
0.0
 11
47.770085049999999
 21
49.0
 31
0.0
  0
LINE
  5
1429
  8
250
 10
41.23008505
 20
48.62833333333333
 30
0.0
 11
39.000085050000003
 21
49.0
 31
0.0
  0
LINE
  5
142A
  8
250
 10
41.23008505
 20
49.37166666666667
 30
0.0
 11
39.000085050000003
 21
49.0
 31
0.0
  0
LINE
  5
142B
  8
250
 10
39.000085050000003
 20
49.0
 30
0.0
 11
41.23008505
 21
49.0
 31
0.0
  0
TEXT
  5
142C
  8
250
 10
62.0
 20
-3.7999999999999989
 30
0.0
 40
2.7999999999999989
  1
\U+2205
 50
90.0
1001
ACAD
1000
MTEXTBEGIN
1070
    73
1070
     1
1070
    44
1040
1.0
1070
    74
1070
     0
1000
MTEXTEND
  0
TEXT
  5
142D
  8
250
 10
62.0
 20
-1.2666666666666671
 30
0.0
 40
2.7999999999999989
  1
80
 50
90.0
1001
ACAD
1000
MTEXTBEGIN
1070
    73
1070
     1
1070
    44
1040
1.0
1070
    74
1070
     0
1000
MTEXTEND
  0
LINE
  5
142E
  8
250
 10
62.62833333333333
 20
37.77000000000001
 30
0.0
 11
63.0
 21
40.0
 31
0.0
  0
LINE
  5
142F
  8
250
 10
63.37166666666667
 20
37.77000000000001
 30
0.0
 11
63.0
 21
40.0
 31
0.0
  0
LINE
  5
1430
  8
250
 10
63.0
 20
40.0
 30
0.0
 11
63.0
 21
37.77000000000001
 31
0.0
  0
LINE
  5
1431
  8
250
 10
63.37166666666667
 20
-37.77000000000001
 30
0.0
 11
63.0
 21
-40.0
 31
0.0
  0
LINE
  5
1432
  8
250
 10
62.62833333333333
 20
-37.77000000000001
 30
0.0
 11
63.0
 21
-40.0
 31
0.0
  0
LINE
  5
1433
  8
250
 10
63.0
 20
-40.0
 30
0.0
 11
63.0
 21
-37.77000000000001
 31
0.0
  0
TEXT
  5
1434
  8
250
 10
-18.5
 20
-3.7999999999999989
 30
0.0
 40
2.7999999999999989
  1
\U+2205
 50
90.0
  0
TEXT
  5
1435
  8
250
 10
-18.5
 20
-1.2666666666666671
 30
0.0
 40
2.7999999999999989
  1
27
 50
90.0
  0
LINE
  5
1436
  8
250
 10
-17.871666666666659
 20
11.27
 30
0.0
 11
-17.5
 21
13.5
 31
0.0
  0
LINE
  5
1437
  8
250
 10
-17.12833333333333
 20
11.27
 30
0.0
 11
-17.5
 21
13.5
 31
0.0
  0
LINE
  5
1438
  8
250
 10
-17.5
 20
13.5
 30
0.0
 11
-17.5
 21
11.27
 31
0.0
  0
TEXT
  5
1439
  8
250
 10
-25.5
 20
-3.7999999999999989
 30
0.0
 40
2.7999999999999989
  1
\U+2205
 50
90.0
1001
ACAD
1000
MTEXTBEGIN
1070
    73
1070
     1
1070
    44
1040
1.0
1070
    74
1070
     0
1000
MTEXTEND
  0
TEXT
  5
143A
  8
250
 10
-25.5
 20
-1.2666666666666671
 30
0.0
 40
2.7999999999999989
  1
60
 50
90.0
1001
ACAD
1000
MTEXTBEGIN
1070
    73
1070
     1
1070
    44
1040
1.0
1070
    74
1070
     0
1000
MTEXTEND
  0
LINE
  5
143B
  8
250
 10
-24.87166666666667
 20
27.77
 30
0.0
 11
-24.5
 21
30.0
 31
0.0
  0
LINE
  5
143C
  8
250
 10
-24.12833333333333
 20
27.77
 30
0.0
 11
-24.5
 21
30.0
 31
0.0
  0
LINE
  5
143D
  8
250
 10
-24.5
 20
30.0
 30
0.0
 11
-24.5
 21
27.77
 31
0.0
  0
LINE
  5
143E
  8
250
 10
-24.12833333333333
 20
-27.77
 30
0.0
 11
-24.5
 21
-30.0
 31
0.0
  0
LINE
  5
143F
  8
250
 10
-24.87166666666667
 20
-27.77
 30
0.0
 11
-24.5
 21
-30.0
 31
0.0
  0
LINE
  5
1440
  8
250
 10
-24.5
 20
-30.0
 30
0.0
 11
-24.5
 21
-27.77
 31
0.0
  0
TEXT
  5
1441
  8
250
 10
-11.5
 20
-4.9333333333333318
 30
0.0
 40
2.7999999999999989
  1
12.4
 50
90.0
1001
ACAD
1000
MTEXTBEGIN
1070
    73
1070
     1
1070
    44
1040
1.0
1070
    74
1070
     0
1000
MTEXTEND
  0
LINE
  5
1442
  8
250
 10
-10.871666666666661
 20
3.9700000000000002
 30
0.0
 11
-10.5
 21
6.2000000000000002
 31
0.0
  0
LINE
  5
1443
  8
250
 10
-10.12833333333333
 20
3.9700000000000002
 30
0.0
 11
-10.5
 21
6.2000000000000002
 31
0.0
  0
LINE
  5
1444
  8
250
 10
-10.5
 20
6.2000000000000002
 30
0.0
 11
-10.5
 21
3.9700000000000002
 31
0.0
  0
LINE
  5
1445
  8
250
 10
-10.12833333333333
 20
-3.9700000000000002
 30
0.0
 11
-10.5
 21
-6.2000000000000002
 31
0.0
  0
LINE
  5
1446
  8
250
 10
-10.871666666666661
 20
-3.9700000000000002
 30
0.0
 11
-10.5
 21
-6.2000000000000002
 31
0.0
  0
LINE
  5
1447
  8
250
 10
-10.5
 20
-6.2000000000000002
 30
0.0
 11
-10.5
 21
-3.9700000000000002
 31
0.0
  0
VIEWPORT
  5
22
 67
     1
  8
0
 10
261.51769911999997
 20
148.5
 30
0.0
 40
523.03539823000006
 41
297.0
 68
     1
 69
     1
1001
ACAD
1000
MVIEW
1002
{
1070
    16
1010
0.0
1020
0.0
1030
0.0
1010
0.0
1020
0.0
1030
1.0
1040
0.0
1040
297.0
1040
261.51769911999997
1040
148.5
1040
50.0
1040
0.0
1040
0.0
1070
     0
1070
   100
1070
     1
1070
     1
1070
     0
1070
     0
1070
     0
1070
     0
1040
0.0
1040
0.0
1040
0.0
1040
1.0
1040
1.0
1040
10.0
1040
10.0
1070
     0
1002
{
1002
}
1002
}
1001
GENIUS_GENODEF_13
1002
{
1000
HIER
1070
     0
1002
}
1002
{
1000
MANEDIT
1070
     0
1002
}
1002
{
1000
NOSEL
1070
     0
1002
}
1002
{
1000
BEHIND
1070
     0
1002
}
1002
{
1000
OTHER
1070
     0
1002
}
1002
{
1000
REACTOR
1002
}
1001
GENIUS_GENOBJ-N-SDF_13
1002
{
1000
OWNER
1000
GEN
1002
}
1001
GENIUS_GENSCREG_15
1000
PF
1040
1.0
1000
DF
1040
1.0
1000
MIN
1011
0.0000000049999471
1021
0.0
1031
-0.0
1021
0.0
1031
0.0
1000
MAX
1011
523.035398235
1021
0.0
1031
-0.0
1021
297.0
1031
0.0
1000
FLAGS
1070
     2
  0
ENDSEC
  0
EOF
