  0
SECTION
  2
HEADER
  9
$ACADVER
  1
AC1009
  9
$INSBASE
 10
0.0
 20
0.0
 30
0.0
  9
$EXTMIN
 10
-34.108418288247783
 20
-31.62832166702265
 30
-0.0000000000000051
  9
$EXTMAX
 10
57.142421957742037
 20
68.128008680097992
 30
0.0000000000000102
  9
$LIMMIN
 10
0.0
 20
0.0
  9
$LIMMAX
 10
420.0
 20
297.0
  9
$ORTHOMODE
 70
     0
  9
$REGENMODE
 70
     1
  9
$FILLMODE
 70
     1
  9
$QTEXTMODE
 70
     0
  9
$MIRRTEXT
 70
     1
  9
$DRAGMODE
 70
     2
  9
$LTSCALE
 40
10.0
  9
$OSMODE
 70
    39
  9
$ATTMODE
 70
     1
  9
$TEXTSIZE
 40
3.0
  9
$TRACEWID
 40
1.0
  9
$TEXTSTYLE
  7
YOKO
  9
$CLAYER
  8
240
  9
$CELTYPE
  6
BYLAYER
  9
$CECOLOR
 62
   256
  9
$DIMSCALE
 40
1.0
  9
$DIMASZ
 40
2.2299999999999991
  9
$DIMEXO
 40
0.5
  9
$DIMDLI
 40
2.5
  9
$DIMRND
 40
0.0
  9
$DIMDLE
 40
0.0
  9
$DIMEXE
 40
1.0
  9
$DIMTP
 40
0.0
  9
$DIMTM
 40
0.0
  9
$DIMTXT
 40
2.7999999999999989
  9
$DIMCEN
 40
0.0
  9
$DIMTSZ
 40
0.0
  9
$DIMTOL
 70
     0
  9
$DIMLIM
 70
     0
  9
$DIMTIH
 70
     0
  9
$DIMTOH
 70
     0
  9
$DIMSE1
 70
     0
  9
$DIMSE2
 70
     0
  9
$DIMTAD
 70
     3
  9
$DIMZIN
 70
     8
  9
$DIMBLK
  1

  9
$DIMASO
 70
     1
  9
$DIMSHO
 70
     1
  9
$DIMPOST
  1

  9
$DIMAPOST
  1

  9
$DIMALT
 70
     0
  9
$DIMALTD
 70
     2
  9
$DIMALTF
 40
25.399999999999999
  9
$DIMLFAC
 40
1.0
  9
$DIMTOFL
 70
     1
  9
$DIMTVP
 40
0.0
  9
$DIMTIX
 70
     1
  9
$DIMSOXD
 70
     0
  9
$DIMSAH
 70
     1
  9
$DIMBLK1
  1
OPEN
  9
$DIMBLK2
  1
OPEN
  9
$DIMSTYLE
  2
BIGT
  9
$DIMCLRD
 70
   256
  9
$DIMCLRE
 70
   256
  9
$DIMCLRT
 70
    40
  9
$DIMTFAC
 40
1.0
  9
$DIMGAP
 40
1.0
  9
$LUNITS
 70
     2
  9
$LUPREC
 70
     3
  9
$SKETCHINC
 40
1.0
  9
$FILLETRAD
 40
0.0
  9
$AUNITS
 70
     0
  9
$AUPREC
 70
     3
  9
$MENU
  1
.
  9
$ELEVATION
 40
0.0
  9
$PELEVATION
 40
0.0
  9
$THICKNESS
 40
0.0
  9
$LIMCHECK
 70
     0
  9
$BLIPMODE
 70
     0
  9
$CHAMFERA
 40
10.0
  9
$CHAMFERB
 40
10.0
  9
$SKPOLY
 70
     0
  9
$TDCREATE
 40
2455379.7186964699
  9
$TDUPDATE
 40
2456115.4469704628
  9
$TDINDWG
 40
0.0532100926
  9
$TDUSRTIMER
 40
0.0532099074
  9
$USRTIMER
 70
     1
  9
$ANGBASE
 50
0.0
  9
$ANGDIR
 70
     0
  9
$PDMODE
 70
     1
  9
$PDSIZE
 40
-5.0
  9
$PLINEWID
 40
0.0
  9
$COORDS
 70
     1
  9
$SPLFRAME
 70
     0
  9
$SPLINETYPE
 70
     6
  9
$SPLINESEGS
 70
     8
  9
$ATTDIA
 70
     1
  9
$ATTREQ
 70
     1
  9
$HANDLING
 70
     1
  9
$HANDSEED
  5
1615
  9
$SURFTAB1
 70
     6
  9
$SURFTAB2
 70
     6
  9
$SURFTYPE
 70
     6
  9
$SURFU
 70
     6
  9
$SURFV
 70
     6
  9
$UCSNAME
  2

  9
$UCSORG
 10
0.0
 20
0.0
 30
0.0
  9
$UCSXDIR
 10
1.0
 20
0.0
 30
0.0
  9
$UCSYDIR
 10
0.0
 20
1.0
 30
0.0
  9
$PUCSNAME
  2

  9
$PUCSORG
 10
0.0
 20
0.0
 30
0.0
  9
$PUCSXDIR
 10
1.0
 20
0.0
 30
0.0
  9
$PUCSYDIR
 10
0.0
 20
1.0
 30
0.0
  9
$USERI1
 70
     1
  9
$USERI2
 70
     0
  9
$USERI3
 70
     0
  9
$USERI4
 70
     0
  9
$USERI5
 70
     0
  9
$USERR1
 40
0.0
  9
$USERR2
 40
0.0
  9
$USERR3
 40
0.0
  9
$USERR4
 40
0.0
  9
$USERR5
 40
0.0
  9
$WORLDVIEW
 70
     1
  9
$SHADEDGE
 70
     3
  9
$SHADEDIF
 70
    70
  9
$TILEMODE
 70
     1
  9
$MAXACTVP
 70
    16
  9
$PLIMCHECK
 70
     0
  9
$PEXTMIN
 10
1.0000000000000000E+020
 20
1.0000000000000000E+020
 30
1.0000000000000000E+020
  9
$PEXTMAX
 10
-1.0000000000000000E+020
 20
-1.0000000000000000E+020
 30
-1.0000000000000000E+020
  9
$PLIMMIN
 10
0.0
 20
0.0
  9
$PLIMMAX
 10
420.0
 20
297.0
  9
$UNITMODE
 70
     0
  9
$VISRETAIN
 70
     0
  9
$PLINEGEN
 70
     0
  9
$PSLTSCALE
 70
     1
  0
ENDSEC
  0
SECTION
  2
TABLES
  0
TABLE
  2
VPORT
 70
   312
  0
VPORT
  2
*ACTIVE
 70
     0
 10
0.0
 20
0.0
 11
1.0
 21
1.0
 12
11.517001834747139
 22
18.249843506537658
 13
0.0
 23
0.0
 14
7.0
 24
7.0
 15
7.0
 25
7.0
 16
0.0
 26
0.0
 36
1.0
 17
0.0
 27
0.0
 37
0.0
 40
100.4104702182493
 41
1.5459518599562361
 42
50.0
 43
0.0
 44
0.0
 50
0.0
 51
0.0
 71
     0
 72
  2000
 73
     1
 74
     0
 75
     0
 76
     1
 77
     0
 78
     0
  0
ENDTAB
  0
TABLE
  2
LTYPE
 70
    13
  0
LTYPE
  2
CONTINUOUS
 70
     0
  3
Solid line
 72
    65
 73
     0
 40
0.0
  0
LTYPE
  2
CENTER2
 70
     0
  3
___ _ ___ _ ___ _ ___ _ ___ _ ___ _ ___ _ ___ _
 72
    65
 73
     4
 40
1.125
 49
0.75
 49
-0.125
 49
0.125
 49
-0.125
  0
LTYPE
  2
HIDDEN2
 70
     0
  3
_ _ _ _ _ _ _ _ _ _ _ _ _ _ _ _ _ _ _ _ _ _ _ _
 72
    65
 73
     2
 40
0.1875
 49
0.125
 49
-0.0625
  0
LTYPE
  2
PHANTOM2
 70
     0
  3
___ _ _ ___ _ _ ___ _ _ ___ _ _ ___ _ _ ___ _ _
 72
    65
 73
     6
 40
1.25
 49
0.625
 49
-0.125
 49
0.125
 49
-0.125
 49
0.125
 49
-0.125
  0
LTYPE
  2
AMCONSTR
 70
     0
  3
_______________________
 72
    65
 73
     2
 40
9999.0
 49
9999.0
 49
0.0
  0
LTYPE
  2
AM_ISO02W050
 70
     0
  3
__ __ __ __ __ __ __ __ __ __ __ __ __ __ __
 72
    65
 73
     2
 40
7.5
 49
6.0
 49
-1.5
  0
LTYPE
  2
HIDDEN
 70
     0
  3
Hidden __ __ __ __ __ __ __ __ __ __ __ __ __ _
 72
    65
 73
     2
 40
9.5249999999999986
 49
6.3499999999999988
 49
-3.1749999999999989
  0
LTYPE
  2
CENTER
 70
     0
  3
____ _ ____ _ ____ _ ____ _ ____ _ ____ _ ____ 
 72
    65
 73
     4
 40
2.0
 49
1.25
 49
-0.25
 49
0.25
 49
-0.25
  0
LTYPE
  2
ACJISTGB
 70
     0
  3
__ . . __ . .
 72
    65
 73
     6
 40
9.0
 49
4.0
 49
-1.0
 49
1.0
 49
-1.0
 49
1.0
 49
-1.0
  0
LTYPE
  2
ACJISTGL
 70
     0
  3
_ _ _ _ _
 72
    65
 73
     2
 40
3.0
 49
2.0
 49
-1.0
  0
LTYPE
  2
ACISOWELD
 70
     0
  3
_ _ _ _ _
 72
    65
 73
     2
 40
2.0
 49
2.0
 49
-1.0
  0
LTYPE
  2
ACISOTGB
 70
     0
  3
__ . . __ . .
 72
    65
 73
     6
 40
9.0
 49
4.0
 49
-1.0
 49
1.0
 49
-1.0
 49
1.0
 49
-1.0
  0
LTYPE
  2
ACISOTGL
 70
     0
  3
_ _ _ _ _
 72
    65
 73
     2
 40
3.0
 49
2.0
 49
-1.0
  0
ENDTAB
  0
TABLE
  2
LAYER
 70
    11
  0
LAYER
  2
0
 70
     0
 62
     7
  6
CONTINUOUS
  0
LAYER
  2
240
 70
     0
 62
     4
  6
CONTINUOUS
  0
LAYER
  2
241
 70
     0
 62
   211
  6
CONTINUOUS
  0
LAYER
  2
242
 70
     0
 62
     3
  6
CONTINUOUS
  0
LAYER
  2
245
 70
     0
 62
     2
  6
CENTER2
  0
LAYER
  2
250
 70
     0
 62
     3
  6
CONTINUOUS
  0
LAYER
  2
DEFPOINTS
 70
     0
 62
     7
  6
CONTINUOUS
  0
ENDTAB
  0
TABLE
  2
STYLE
 70
     6
  0
STYLE
  2
STANDARD
 70
     0
 40
0.0
 41
1.0
 50
0.0
 71
     0
 42
3.0
  3
romans.shx
  4
BIGFONT.SHX
  0
STYLE
  2
YOKO
 70
     0
 40
0.0
 41
1.0
 50
0.0
 71
     0
 42
3.0
  3
romans.shx
  4
extfont.shx
  0
STYLE
  2
ACJISGDT
 70
     0
 40
0.0
 41
1.0
 50
0.0
 71
     0
 42
3.0
  3
amgdt.shx
  4
extfont.shx
  0
STYLE
  2
ACJISTS
 70
     0
 40
1.0
 41
1.0
 50
0.0
 71
     0
 42
3.0
  3
amgdt.shx
  4
extfont.shx
  0
STYLE
  2
ACISOTS
 70
     0
 40
1.0
 41
1.0
 50
0.0
 71
     0
 42
3.0
  3
amgdt.shx
  4
extfont.shx
  0
STYLE
  2
ACISOGDT
 70
     0
 40
0.0
 41
1.0
 50
0.0
 71
     0
 42
3.0
  3
amgdt.shx
  4
extfont.shx
  0
ENDTAB
  0
TABLE
  2
VIEW
 70
     0
  0
ENDTAB
  0
TABLE
  2
UCS
 70
     0
  0
ENDTAB
  0
TABLE
  2
APPID
 70
    33
  0
APPID
  2
ACAD
 70
     0
  0
APPID
  2
GLOBAL
 70
     0
  0
APPID
  2
DETAIL
 70
     0
  0
APPID
  2
GRPNAME
 70
     0
  0
APPID
  2
GPARA
 70
     0
  0
APPID
  2
DCO15
 70
     0
  0
APPID
  2
ITEMNAME
 70
     0
  0
APPID
  2
GRADE_0
 70
     0
  0
APPID
  2
ACAD_PSEXT
 70
     0
  0
APPID
  2
CONTENTBLOCKICON
 70
     0
  0
APPID
  2
MCAD_NO_VIS
 70
     0
  0
APPID
  2
ACAD_TEMP_GRAPHIC
 70
     0
  0
APPID
  2
ACATTRIBSERVICES
 70
     0
  0
APPID
  2
GENIUS_GENSCREG_15
 70
     0
  0
APPID
  2
GENIUS_GENODEF_13
 70
     0
  0
APPID
  2
GENIUS_GENOBJ-N-SDF_13
 70
     0
  0
APPID
  2
GENIUS_GENREC_14
 70
     0
  0
APPID
  2
GENIUS_GENOBJ-N-REC_13
 70
     0
  0
APPID
  2
GENIUS_GENDIMSH_14
 70
     0
  0
APPID
  2
GENIUS_GENOBJ-N-DIM_13
 70
     0
  0
APPID
  2
GENIUS_GENDIM_13
 70
     0
  0
APPID
  2
GENIUS_GENDTOL_13
 70
     0
  0
APPID
  2
GENIUS_GENOLIS_13
 70
     0
  0
APPID
  2
GENIUS_GENOENT_13
 70
     0
  0
APPID
  2
GENIUS_GENOBJ-F-FEM_13
 70
     0
  0
APPID
  2
GENIUS_GENOREF_13
 70
     0
  0
APPID
  2
GENIUS_GEFFEM_13
 70
     0
  0
APPID
  2
GENIUS_GEFFEMP_13
 70
     0
  0
APPID
  2
AD_DRAW
 70
     0
  0
APPID
  2
DESIGNERASSEMBLIES
 70
     0
  0
APPID
  2
ACADM_DIM_EDIT
 70
     0
  0
APPID
  2
AMDT_DM_ADJ
 70
     0
  0
APPID
  2
LAYER_SCALE
 70
     0
  0
ENDTAB
  0
TABLE
  2
DIMSTYLE
 70
    25
  0
DIMSTYLE
  2
BIGT
 70
     0
  3

  4

  5
OPEN
  6

  7

 40
1.0
 41
2.2299999999999991
 42
0.5
 43
7.0
 44
1.0
 45
0.0
 46
0.0
 47
0.0
 48
0.01
140
2.7999999999999989
141
0.0
142
0.0
143
25.399999999999999
144
1.0
145
0.0
146
1.0
147
1.0
 71
     0
 72
     0
 73
     0
 74
     0
 75
     0
 76
     0
 77
     3
 78
     9
170
     0
171
     2
172
     1
173
     0
174
     1
175
     0
176
   256
177
   256
178
    40
  0
DIMSTYLE
  2
BIGT$0
 70
     0
  3

  4

  5
OPEN
  6

  7

 40
1.0
 41
2.2299999999999991
 42
0.5
 43
7.0
 44
1.0
 45
0.0
 46
0.0
 47
0.0
 48
0.01
140
2.7999999999999989
141
0.0
142
0.0
143
25.399999999999999
144
1.0
145
0.0
146
1.0
147
1.0
 71
     0
 72
     0
 73
     0
 74
     0
 75
     0
 76
     0
 77
     3
 78
     9
170
     0
171
     2
172
     1
173
     0
174
     0
175
     0
176
   256
177
   256
178
    40
  0
DIMSTYLE
  2
BIGT$2
 70
     0
  3

  4

  5
OPEN
  6

  7

 40
1.0
 41
2.2299999999999991
 42
0.5
 43
7.0
 44
1.0
 45
0.0
 46
0.0
 47
0.0
 48
0.01
140
2.7999999999999989
141
0.0
142
0.0
143
25.399999999999999
144
1.0
145
0.0
146
1.0
147
1.0
 71
     0
 72
     0
 73
     0
 74
     0
 75
     0
 76
     0
 77
     3
 78
     9
170
     0
171
     2
172
     1
173
     0
174
     0
175
     0
176
   256
177
   256
178
    40
  0
DIMSTYLE
  2
BIGT$3
 70
     0
  3

  4

  5
OPEN
  6

  7

 40
1.0
 41
2.2299999999999991
 42
0.5
 43
2.5
 44
1.0
 45
0.0
 46
0.0
 47
0.0
 48
0.01
140
2.7999999999999989
141
0.0
142
0.0
143
25.399999999999999
144
1.0
145
0.0
146
1.0
147
1.0
 71
     0
 72
     0
 73
     0
 74
     0
 75
     0
 76
     0
 77
     3
 78
     9
170
     0
171
     2
172
     1
173
     0
174
     0
175
     0
176
   256
177
   256
178
    40
  0
DIMSTYLE
  2
BIGT$4
 70
     0
  3

  4

  5
OPEN
  6

  7

 40
1.0
 41
2.2299999999999991
 42
0.5
 43
2.5
 44
1.0
 45
0.0
 46
0.0
 47
0.0
 48
0.01
140
2.7999999999999989
141
0.0
142
0.0
143
25.399999999999999
144
1.0
145
0.0
146
1.0
147
1.0
 71
     0
 72
     0
 73
     0
 74
     0
 75
     0
 76
     0
 77
     3
 78
     9
170
     0
171
     2
172
     1
173
     0
174
     0
175
     0
176
   256
177
   256
178
    40
  0
DIMSTYLE
  2
BIGT$6
 70
     0
  3

  4

  5
OPEN
  6

  7

 40
1.0
 41
2.2299999999999991
 42
0.5
 43
2.5
 44
1.0
 45
0.0
 46
0.0
 47
0.0
 48
0.01
140
2.7999999999999989
141
0.0
142
0.0
143
25.399999999999999
144
1.0
145
0.0
146
1.0
147
1.0
 71
     0
 72
     0
 73
     0
 74
     0
 75
     0
 76
     0
 77
     3
 78
     9
170
     0
171
     2
172
     1
173
     0
174
     0
175
     0
176
   256
177
   256
178
    40
  0
DIMSTYLE
  2
BIGT$7
 70
     0
  3

  4

  5
OPEN
  6

  7

 40
0.0
 41
2.2299999999999991
 42
0.5
 43
7.0
 44
1.0
 45
0.0
 46
0.0
 47
0.0
 48
0.01
140
2.7999999999999989
141
0.0
142
0.0
143
25.399999999999999
144
1.0
145
0.0
146
1.0
147
1.0
 71
     0
 72
     0
 73
     0
 74
     0
 75
     0
 76
     0
 77
     3
 78
     9
170
     0
171
     2
172
     0
173
     0
174
     0
175
     0
176
   256
177
   256
178
    40
  0
DIMSTYLE
  2
BIGT$SF
 70
     0
  3

  4

  5
OPEN
  6

  7

 40
1.0
 41
2.2299999999999991
 42
0.5
 43
7.0
 44
1.0
 45
0.0
 46
0.0
 47
0.0
 48
0.0
140
2.7999999999999989
141
0.0
142
0.0
143
25.399999999999999
144
1.0
145
0.0
146
1.0
147
1.0
 71
     0
 72
     0
 73
     0
 74
     0
 75
     0
 76
     0
 77
     3
 78
     9
170
     0
171
     2
172
     1
173
     0
174
     0
175
     0
176
   256
177
   256
178
    40
  0
DIMSTYLE
  2
BIGT$SH
 70
     0
  3

  4

  5
OPEN
  6

  7

 40
1.0
 41
2.2299999999999991
 42
0.5
 43
7.0
 44
1.0
 45
0.0
 46
0.0
 47
0.0
 48
0.0
140
2.7999999999999989
141
0.0
142
0.0
143
25.399999999999999
144
1.0
145
0.0
146
1.0
147
1.0
 71
     0
 72
     0
 73
     0
 74
     0
 75
     0
 76
     0
 77
     3
 78
     9
170
     0
171
     2
172
     1
173
     0
174
     0
175
     0
176
   256
177
   256
178
    40
  0
DIMSTYLE
  2
AM_ISO
 70
     0
  3

  4
"
  5

  6

  7

 40
1.0
 41
2.5
 42
1.0
 43
10.0
 44
1.0
 45
0.0
 46
0.0
 47
0.1
 48
0.1
140
3.5
141
0.0
142
0.0
143
0.0393701
144
1.0
145
0.0
146
0.71
147
1.5
 71
     0
 72
     0
 73
     0
 74
     0
 75
     0
 76
     0
 77
     1
 78
     8
170
     0
171
     2
172
     1
173
     0
174
     0
175
     0
176
   256
177
   256
178
     2
  0
DIMSTYLE
  2
AM_ISO$3
 70
     0
  3

  4
"
  5

  6

  7

 40
1.0
 41
2.5
 42
1.0
 43
10.0
 44
1.0
 45
0.0
 46
0.0
 47
0.1
 48
0.1
140
3.5
141
0.0
142
0.0
143
0.0393701
144
1.0
145
0.0
146
0.71
147
1.5
 71
     0
 72
     0
 73
     0
 74
     1
 75
     0
 76
     0
 77
     1
 78
     8
170
     0
171
     2
172
     0
173
     0
174
     0
175
     0
176
   256
177
   256
178
     2
  0
DIMSTYLE
  2
AM_ISO$4
 70
     0
  3

  4
"
  5

  6

  7

 40
1.0
 41
2.5
 42
1.0
 43
10.0
 44
1.0
 45
0.0
 46
0.0
 47
0.1
 48
0.1
140
3.5
141
0.0
142
0.0
143
0.0393701
144
1.0
145
0.0
146
0.71
147
1.5
 71
     0
 72
     0
 73
     0
 74
     1
 75
     0
 76
     0
 77
     1
 78
     8
170
     0
171
     2
172
     0
173
     0
174
     0
175
     0
176
   256
177
   256
178
     2
  0
DIMSTYLE
  2
AM_ISO$6
 70
     0
  3

  4
"
  5

  6

  7

 40
1.0
 41
2.5
 42
1.0
 43
10.0
 44
1.0
 45
0.0
 46
0.0
 47
0.1
 48
0.1
140
3.5
141
0.0
142
0.0
143
0.0393701
144
1.0
145
0.0
146
0.71
147
1.5
 71
     0
 72
     0
 73
     0
 74
     0
 75
     0
 76
     0
 77
     0
 78
     8
170
     0
171
     2
172
     1
173
     0
174
     0
175
     0
176
   256
177
   256
178
     2
  0
DIMSTYLE
  2
AM_ISO$7
 70
     0
  3

  4
"
  5

  6

  7

 40
1.0
 41
2.5
 42
1.0
 43
10.0
 44
1.0
 45
0.0
 46
0.0
 47
0.1
 48
0.1
140
5.0
141
0.0
142
0.0
143
0.0393701
144
1.0
145
0.0
146
0.71
147
1.5
 71
     0
 72
     0
 73
     0
 74
     0
 75
     0
 76
     0
 77
     1
 78
     8
170
     0
171
     2
172
     1
173
     0
174
     0
175
     0
176
   256
177
   256
178
     2
  0
DIMSTYLE
  2
AM_ISO$SF
 70
     0
  3

  4
"
  5

  6

  7

 40
1.0
 41
2.5
 42
1.0
 43
10.0
 44
1.0
 45
0.0
 46
0.0
 47
0.1
 48
0.1
140
3.5
141
0.0
142
0.0
143
0.0393701
144
1.0
145
0.0
146
0.71
147
1.5
 71
     0
 72
     0
 73
     0
 74
     0
 75
     1
 76
     1
 77
     1
 78
     8
170
     0
171
     2
172
     1
173
     0
174
     0
175
     0
176
   256
177
   256
178
     2
  0
DIMSTYLE
  2
AM_ISO$SH
 70
     0
  3

  4
"
  5

  6
GENAXEH
  7

 40
1.0
 41
2.5
 42
1.0
 43
10.0
 44
1.0
 45
0.0
 46
0.0
 47
0.1
 48
0.1
140
3.5
141
0.0
142
0.0
143
0.0393701
144
2.0
145
0.0
146
0.71
147
1.5
 71
     0
 72
     0
 73
     0
 74
     0
 75
     1
 76
     1
 77
     1
 78
     8
170
     0
171
     2
172
     1
173
     1
174
     0
175
     0
176
   256
177
   256
178
     2
  0
DIMSTYLE
  2
TECHNICAL_OSAKA
 70
     0
  3

  4
"
  5
OPEN30
  6

  7

 40
1.0
 41
2.5
 42
1.0
 43
10.0
 44
1.0
 45
0.0
 46
0.0
 47
0.1
 48
0.1
140
2.7999999999999989
141
0.0
142
0.0
143
0.0393701
144
1.0
145
0.0
146
0.71
147
1.5
 71
     0
 72
     0
 73
     0
 74
     0
 75
     0
 76
     0
 77
     3
 78
     8
170
     0
171
     2
172
     1
173
     0
174
     0
175
     0
176
   256
177
   256
178
    40
  0
DIMSTYLE
  2
TECHNICAL_OSAKA$3
 70
     0
  3

  4
"
  5
OPEN30
  6

  7

 40
1.0
 41
2.5
 42
1.0
 43
10.0
 44
1.0
 45
0.0
 46
0.0
 47
0.1
 48
0.1
140
2.7999999999999989
141
0.0
142
0.0
143
0.0393701
144
1.0
145
0.0
146
0.71
147
1.5
 71
     0
 72
     0
 73
     0
 74
     1
 75
     0
 76
     0
 77
     3
 78
     8
170
     0
171
     2
172
     0
173
     0
174
     0
175
     0
176
   256
177
   256
178
    40
  0
DIMSTYLE
  2
TECHNICAL_OSAKA$4
 70
     0
  3

  4
"
  5
OPEN30
  6

  7

 40
1.0
 41
2.5
 42
1.0
 43
10.0
 44
1.0
 45
0.0
 46
0.0
 47
0.1
 48
0.1
140
2.7999999999999989
141
0.0
142
0.0
143
0.0393701
144
1.0
145
0.0
146
0.71
147
1.5
 71
     0
 72
     0
 73
     0
 74
     1
 75
     0
 76
     0
 77
     3
 78
     8
170
     0
171
     2
172
     0
173
     0
174
     0
175
     0
176
   256
177
   256
178
    40
  0
DIMSTYLE
  2
TECHNICAL_OSAKA$6
 70
     0
  3

  4
"
  5
OPEN30
  6

  7

 40
1.0
 41
2.5
 42
1.0
 43
10.0
 44
1.0
 45
0.0
 46
0.0
 47
0.1
 48
0.1
140
2.7999999999999989
141
0.0
142
0.0
143
0.0393701
144
1.0
145
0.0
146
0.71
147
1.5
 71
     0
 72
     0
 73
     0
 74
     0
 75
     0
 76
     0
 77
     0
 78
     8
170
     0
171
     2
172
     1
173
     0
174
     0
175
     0
176
   256
177
   256
178
    40
  0
DIMSTYLE
  2
TECHNICAL_OSAKA$7
 70
     0
  3

  4
"
  5
OPEN30
  6

  7

 40
1.0
 41
2.5
 42
1.0
 43
10.0
 44
1.0
 45
0.0
 46
0.0
 47
0.1
 48
0.1
140
2.7999999999999989
141
0.0
142
0.0
143
0.0393701
144
1.0
145
0.0
146
0.71
147
1.5
 71
     0
 72
     0
 73
     0
 74
     0
 75
     0
 76
     0
 77
     3
 78
     8
170
     0
171
     2
172
     1
173
     0
174
     0
175
     0
176
   256
177
   256
178
    40
  0
DIMSTYLE
  2
TECHNICAL_OSAKA$SF
 70
     0
  3

  4
"
  5
OPEN30
  6
OPEN30
  7
OPEN30
 40
1.0
 41
2.5
 42
1.0
 43
10.0
 44
1.0
 45
0.0
 46
0.0
 47
0.1
 48
0.1
140
3.5
141
0.0
142
0.0
143
0.0393701
144
1.0
145
0.0
146
0.71
147
1.5
 71
     0
 72
     0
 73
     0
 74
     0
 75
     1
 76
     1
 77
     3
 78
     8
170
     0
171
     2
172
     1
173
     0
174
     0
175
     0
176
   256
177
   256
178
    40
  0
DIMSTYLE
  2
TECHNICAL_OSAKA$SH
 70
     0
  3

  4
"
  5
OPEN30
  6
GENAXEH
  7
OPEN30
 40
1.0
 41
2.5
 42
1.0
 43
10.0
 44
1.0
 45
0.0
 46
0.0
 47
0.1
 48
0.1
140
3.5
141
0.0
142
0.0
143
0.0393701
144
2.0
145
0.0
146
0.71
147
1.5
 71
     0
 72
     0
 73
     0
 74
     0
 75
     1
 76
     1
 77
     3
 78
     8
170
     0
171
     2
172
     1
173
     1
174
     0
175
     0
176
   256
177
   256
178
    40
  0
DIMSTYLE
  2
STANDARD
 70
     0
  3

  4

  5

  6

  7

 40
1.0
 41
0.18
 42
0.0625
 43
0.38
 44
0.18
 45
0.0
 46
0.0
 47
0.0
 48
0.0
140
0.18
141
0.09
142
0.0
143
25.399999999999999
144
1.0
145
0.0
146
1.0
147
0.09
 71
     0
 72
     0
 73
     1
 74
     1
 75
     0
 76
     0
 77
     0
 78
     0
170
     0
171
     2
172
     0
173
     0
174
     0
175
     0
176
     0
177
     0
178
     0
  0
ENDTAB
  0
ENDSEC
  0
SECTION
  2
BLOCKS
  0
BLOCK
  8
0
  2
$MODEL_SPACE
 70
     0
 10
0.0
 20
0.0
 30
0.0
  3
$MODEL_SPACE
  1

  0
ENDBLK
  5
1C
  8
0
  0
BLOCK
 67
     1
  8
0
  2
$PAPER_SPACE
 70
     0
 10
0.0
 20
0.0
 30
0.0
  3
$PAPER_SPACE
  1

  0
ENDBLK
  5
19
 67
     1
  8
0
  0
BLOCK
  8
0
  2
_OPEN
 70
     0
 10
0.0
 20
0.0
 30
0.0
  3
_OPEN
  1

  0
LINE
  5
BC8
  8
0
  6
BYBLOCK
 62
     0
 10
-1.0
 20
0.1666666666666666
 30
0.0
 11
0.0
 21
0.0
 31
0.0
  0
LINE
  5
BC9
  8
0
  6
BYBLOCK
 62
     0
 10
-1.0
 20
-0.1666666666666666
 30
0.0
 11
0.0
 21
0.0
 31
0.0
  0
LINE
  5
BCA
  8
0
  6
BYBLOCK
 62
     0
 10
0.0
 20
0.0
 30
0.0
 11
-1.0
 21
0.0
 31
0.0
  0
ENDBLK
  5
BCB
  8
0
  0
BLOCK
  8
0
  2
矢印なし
 70
     0
 10
0.0
 20
0.0
 30
0.0
  3
矢印なし
  1

  0
ENDBLK
  5
6E5
  8
0
  0
BLOCK
  8
0
  2
GENAXEH
 70
     0
 10
0.0
 20
0.0
 30
0.0
  3
GENAXEH
  1

  0
LINE
  5
BF3
  8
0
 10
-1.0
 20
0.0
 30
0.0
 11
1.0
 21
0.0
 31
0.0
  0
ENDBLK
  5
BF4
  8
0
  0
BLOCK
  8
0
  2
_OPEN30
 70
     0
 10
0.0
 20
0.0
 30
0.0
  3
_OPEN30
  1

  0
LINE
  5
C18
  8
0
  6
BYBLOCK
 62
     0
 10
-1.0
 20
0.26794919
 30
0.0
 11
0.0
 21
0.0
 31
0.0
  0
LINE
  5
C19
  8
0
  6
BYBLOCK
 62
     0
 10
0.0
 20
0.0
 30
0.0
 11
-1.0
 21
-0.26794919
 31
0.0
  0
LINE
  5
C1A
  8
0
  6
BYBLOCK
 62
     0
 10
0.0
 20
0.0
 30
0.0
 11
-1.0
 21
0.0
 31
0.0
  0
ENDBLK
  5
C1B
  8
0
  0
BLOCK
  8
0
  2
*U22
 70
     1
 10
0.0
 20
0.0
 30
0.0
  3
*U22
  1

  0
TEXT
  5
13D6
  8
250
 62
    40
 10
-25.5
 20
-3.7999999999999989
 30
0.0
 40
2.7999999999999989
  1
\U+2205
 50
90.0
  0
TEXT
  5
13D7
  8
250
 62
    40
 10
-25.5
 20
-1.2666666666666671
 30
0.0
 40
2.7999999999999989
  1
47
 50
90.0
  0
ENDBLK
  5
13D9
  8
0
  0
BLOCK
  8
0
  2
*U23
 70
     1
 10
0.0
 20
0.0
 30
0.0
  3
*U23
  1

  0
TEXT
  5
13DB
  8
250
 62
    40
 10
-11.5
 20
-4.9333333333333318
 30
0.0
 40
2.7999999999999989
  1
10.4
 50
90.0
  0
ENDBLK
  5
13DD
  8
0
  0
BLOCK
  8
0
  2
*U24
 70
     1
 10
0.0
 20
0.0
 30
0.0
  3
*U24
  1

  0
TEXT
  5
13DF
  8
250
 62
    40
 10
17.33348333333333
 20
50.0
 30
0.0
 40
2.7999999999999989
  1
40
  0
ENDBLK
  5
13E1
  8
0
  0
BLOCK
  8
0
  2
*U25
 70
     1
 10
0.0
 20
0.0
 30
0.0
  3
*U25
  1

  0
TEXT
  5
13E3
  8
250
 62
    40
 10
32.033633333333341
 20
43.0
 30
0.0
 40
2.7999999999999989
  1
11
  0
ENDBLK
  5
13E5
  8
0
  0
BLOCK
  8
0
  2
*U26
 70
     1
 10
0.0
 20
0.0
 30
0.0
  3
*U26
  1

  0
TEXT
  5
13E7
  8
250
 62
    40
 10
-18.5
 20
-3.7999999999999989
 30
0.0
 40
2.7999999999999989
  1
\U+2205
 50
90.0
  0
TEXT
  5
13E8
  8
250
 62
    40
 10
-18.5
 20
-1.2666666666666659
 30
0.0
 40
2.7999999999999989
  1
22
 50
90.0
  0
ENDBLK
  5
13EA
  8
0
  0
BLOCK
  8
0
  2
*U27
 70
     1
 10
0.0
 20
0.0
 30
0.0
  3
*U27
  1

  0
TEXT
  5
13FD
  8
250
 62
    40
 10
307.00791211111653
 20
47.27609248227558
 30
0.0
 40
2.7999999999999989
  1
37°
 50
359.00000000000011
  0
ENDBLK
  5
13FF
  8
0
  0
BLOCK
  8
0
  2
*U28
 70
     1
 10
0.0
 20
0.0
 30
0.0
  3
*U28
  1

  0
TEXT
  5
1401
  8
250
 62
    40
 10
313.09987719093039
 20
57.639051796143193
 30
0.0
 40
2.7999999999999989
  1
17.466°
 50
357.77178967148939
  0
ENDBLK
  5
1403
  8
0
  0
BLOCK
  8
0
  2
*U29
 70
     1
 10
0.0
 20
0.0
 30
0.0
  3
*U29
  1

  0
TEXT
  5
1405
  8
250
 62
    40
 10
-4.3061511283156326
 20
-17.768300032157381
 30
-0.0000000000000004
 40
3.0
  1
刃先
  7
YOKO
  0
ENDBLK
  5
1407
  8
0
  0
BLOCK
  8
0
  2
*U30
 70
     1
 10
0.0
 20
0.0
 30
0.0
  3
*U30
  1

  0
TEXT
  5
1409
  8
250
 62
    40
 10
55.0
 20
-3.7999999999999918
 30
0.0
 40
2.7999999999999989
  1
\U+2205
 50
90.0
  0
TEXT
  5
140A
  8
250
 62
    40
 10
55.0
 20
-1.2666666666666591
 30
0.0
 40
2.7999999999999989
  1
63
 50
90.0
  0
ENDBLK
  5
140C
  8
0
  0
ENDSEC
  0
SECTION
  2
ENTITIES
  0
INSERT
  5
6E6
  8
245
  2
矢印なし
 10
175.62382697000001
 20
90.551235719999994
 30
0.0
  0
TEXT
  5
A5F
  8
241
 10
-35.0
 20
63.0
 30
0.0
 40
5.0
  1
FMH22-FCM63116-40
  7
YOKO
 11
-35.0
 21
63.0
 31
0.0
 73
     1
  0
LINE
  5
DB4
  8
240
  6
CONTINUOUS
 10
10.27414052
 20
25.5
 30
0.0
 11
16.989852880000001
 21
25.5
 31
0.0
  0
LINE
  5
DB5
  8
241
  6
HIDDEN2
 10
17.699999999999999
 20
11.0
 30
0.0
 11
0.0
 21
11.0
 31
0.0
  0
LINE
  5
DB6
  8
240
  6
CONTINUOUS
 10
10.27414052
 20
-25.5
 30
0.0
 11
16.989852880000001
 21
-25.5
 31
0.0
  0
LINE
  5
DB7
  8
245
 10
-1.0
 20
0.0
 30
0.0
 11
41.000300000000003
 21
0.0
 31
0.0
  0
LINE
  5
DB8
  8
240
  6
CONTINUOUS
 10
0.0
 20
23.5
 30
0.0
 11
0.0
 21
5.2000000000000002
 31
0.0
  0
LINE
  5
DB9
  8
241
  6
CONTINUOUS
 10
8.0673846799999982
 20
23.5
 30
0.0
 11
8.0673846799999982
 21
0.0
 31
0.0
  0
LINE
  5
DBA
  8
241
  6
CONTINUOUS
 10
9.0
 20
25.041611469999999
 30
0.0
 11
9.0
 21
0.0
 31
0.0
  0
LINE
  5
DBB
  8
241
  6
CONTINUOUS
 10
9.0
 20
-25.041611469999999
 30
0.0
 11
9.0
 21
0.0
 31
0.0
  0
LINE
  5
DBC
  8
241
  6
CONTINUOUS
 10
8.0673846799999982
 20
-23.5
 30
0.0
 11
8.0673846799999982
 21
0.0
 31
0.0
  0
LINE
  5
DBD
  8
240
  6
CONTINUOUS
 10
0.0
 20
-23.5
 30
0.0
 11
0.0
 21
-5.2000000000000002
 31
0.0
  0
ARC
  5
DBE
  8
240
  6
CONTINUOUS
 10
10.27414052
 20
-23.5
 30
0.0
 40
2.0
 50
205.0
 51
270.0
  0
LINE
  5
DBF
  8
240
  6
CONTINUOUS
 10
0.0
 20
-23.5
 30
0.0
 11
8.0673846799999982
 21
-23.5
 31
0.0
  0
LINE
  5
DC0
  8
240
  6
CONTINUOUS
 10
8.0673846799999982
 20
-23.5
 30
0.0
 11
8.4615249499999994
 21
-24.34523652
 31
0.0
  0
LINE
  5
DC1
  8
240
 10
6.0
 20
5.2000000000000002
 30
0.0
 11
6.0
 21
-5.2000000000000002
 31
0.0
  0
LINE
  5
DC2
  8
240
 10
0.0
 20
-5.2000000000000002
 30
0.0
 11
6.0
 21
-5.2000000000000002
 31
0.0
  0
LINE
  5
DC3
  8
240
 10
0.0
 20
5.2000000000000002
 30
0.0
 11
6.0
 21
5.2000000000000002
 31
0.0
  0
LINE
  5
DC4
  8
240
  6
CONTINUOUS
 10
0.0
 20
23.5
 30
0.0
 11
8.0673846799999982
 21
23.5
 31
0.0
  0
ARC
  5
DC5
  8
240
  6
CONTINUOUS
 10
10.27414052
 20
23.5
 30
0.0
 40
2.0
 50
90.0
 51
155.0
  0
LINE
  5
DC6
  8
240
  6
CONTINUOUS
 10
8.0673846799999982
 20
23.5
 30
0.0
 11
8.4615249499999994
 21
24.34523652
 31
0.0
  0
LINE
  5
DC8
  8
241
  6
CONTINUOUS
 10
19.0
 20
25.921866260000002
 30
0.0
 11
19.0
 21
0.0
 31
0.0
  0
LINE
  5
DCC
  8
240
 10
39.400300000000001
 20
-27.765769729166021
 30
0.0
 11
39.400300000000001
 21
-15.60529470777616
 31
0.0
  0
LINE
  5
DCD
  8
241
  6
CONTINUOUS
 10
19.0
 20
-25.921866260000002
 30
0.0
 11
19.0
 21
0.0
 31
0.0
  0
LINE
  5
DD0
  8
241
 10
27.027477816404652
 20
-30.637715550685179
 30
0.0
 11
39.400300000000001
 21
-30.442
 31
0.0
  0
LINE
  5
DD1
  8
242
  6
PHANTOM2
 10
40.000300000000003
 20
-31.5
 30
0.0
 11
29.000299999999999
 21
-31.5
 31
0.0
  0
ARC
  5
DD2
  8
240
  6
CONTINUOUS
 10
16.989852880000001
 20
-30.5
 30
0.0
 40
4.9999999999999831
 50
46.196843029999997
 51
90.0
  0
LINE
  5
DD3
  8
240
  6
CONTINUOUS
 10
20.450767580000001
 20
-26.89138955
 30
0.0
 11
23.806689970000001
 21
-30.109958389999999
 31
0.0
  0
ARC
  5
DD4
  8
240
  6
CONTINUOUS
 10
25.191055859999999
 20
-28.666514209999999
 30
0.0
 40
2.0000000000000022
 50
226.19684303
 51
270.90623948000001
  0
LINE
  5
DDB
  8
240
  6
CONTINUOUS
 10
39.400300000000001
 20
-1.046889189999999
 30
0.0
 11
39.384826500000003
 21
-1.0441607900000001
 31
0.0
  0
LINE
  5
DDC
  8
240
  6
CONTINUOUS
 10
25.222688260000002
 20
30.666264040000002
 30
0.0
 11
27.027477816404641
 21
30.637715550685169
 31
0.0
  0
LINE
  5
DDD
  8
242
  6
PHANTOM2
 10
40.000300000000003
 20
31.5
 30
0.0
 11
29.000299999999999
 21
31.5
 31
0.0
  0
LINE
  5
DDE
  8
240
  6
CONTINUOUS
 10
20.450767580000001
 20
26.89138955
 30
0.0
 11
23.806689970000001
 21
30.109958389999999
 31
0.0
  0
ARC
  5
DDF
  8
240
  6
CONTINUOUS
 10
16.989852880000001
 20
30.5
 30
0.0
 40
4.9999999999999831
 50
270.0
 51
313.80315696999997
  0
ARC
  5
DE0
  8
240
  6
CONTINUOUS
 10
25.191055859999999
 20
28.666514209999999
 30
0.0
 40
2.0000000000000022
 50
89.093760520000004
 51
133.80315697
  0
LINE
  5
DEE
  8
241
 10
38.67881069752454
 20
21.162727235514922
 30
0.0
 11
21.442432596450029
 21
27.84246699907823
 31
0.0
  0
ARC
  5
DEF
  8
241
 10
38.400300000016223
 20
20.202294108549069
 30
0.0
 40
1.0
 50
0.0
 51
45.57297839909706
  0
ARC
  5
DF0
  8
241
 10
38.400300000016223
 20
20.202294108549069
 30
0.0
 40
1.0
 50
45.57297839909706
 51
73.828661421819049
  0
LINE
  5
110B
  8
241
 10
26.394473836360021
 20
-10.87156111217061
 30
0.0
 11
39.400300000000001
 21
-15.60529470777616
 31
0.0
  0
LINE
  5
110C
  8
241
 10
39.384826498252458
 20
-9.9678376407933715
 30
0.0
 11
39.400300000000001
 21
-10.115058175802419
 31
0.0
  0
LINE
  5
110D
  8
241
  6
CONTINUOUS
 10
39.400299999999987
 20
-9.9705660366375142
 30
0.0
 11
27.829050732814249
 21
-7.9302425903295726
 31
0.0
  0
LINE
  5
110E
  8
241
 10
27.829050732814249
 20
-7.9302425903295726
 30
0.0
 11
26.394473836360021
 21
-10.87156111217061
 31
0.0
  0
LINE
  5
1110
  8
241
 10
24.95894426318571
 20
-10.60484817288966
 30
0.0
 11
26.394473836360021
 21
-10.87156111217061
 31
0.0
  0
LINE
  5
1111
  8
241
 10
23.31407578391164
 20
-20.111439127496521
 30
0.0
 11
39.400300000000023
 21
-21.505880314661169
 31
0.0
  0
ARC
  5
1112
  8
241
 10
24.238475118795691
 20
-15.375786059754921
 30
0.0
 40
4.8250309955838073
 50
81.412532217702775
 51
258.95475370585632
  0
LINE
  5
1113
  8
241
 10
22.316663226999001
 20
-19.801569963301642
 30
0.0
 11
39.400300000000023
 21
-27.309984056480861
 31
0.0
  0
LINE
  5
1158
  8
241
 10
26.394473836360021
 20
18.528319150594388
 30
0.0
 11
39.400300000000001
 21
13.79458555498884
 31
0.0
  0
LINE
  5
1159
  8
241
 10
39.384826498252458
 20
19.432042621971629
 30
0.0
 11
39.400300000000001
 21
19.284822086962532
 31
0.0
  0
LINE
  5
115A
  8
241
  6
CONTINUOUS
 10
39.400299999999987
 20
19.429314226127492
 30
0.0
 11
27.829050732814249
 21
21.469637672435429
 31
0.0
  0
LINE
  5
115B
  8
241
 10
27.829050732814249
 20
21.469637672435429
 30
0.0
 11
26.394473836360021
 21
18.528319150594388
 31
0.0
  0
LINE
  5
115C
  8
241
 10
24.95894426318571
 20
18.795032089875338
 30
0.0
 11
26.394473836360021
 21
18.528319150594388
 31
0.0
  0
LINE
  5
115D
  8
241
 10
23.31407578391164
 20
9.2884411352684815
 30
0.0
 11
39.400300000000023
 21
5.8939999481038354
 31
0.0
  0
ARC
  5
115E
  8
241
 10
24.238475118795691
 20
14.02409420301008
 30
0.0
 40
4.8250309955838073
 50
81.412532217702648
 51
258.95475370585621
  0
LINE
  5
115F
  8
241
 10
22.316663226999001
 20
9.5983102994633587
 30
0.0
 11
39.400300000000023
 21
-2.0902363332897478
 31
0.0
  0
LINE
  5
126C
  8
241
 10
38.715054262634837
 20
23.036470936644928
 30
0.0
 11
39.277424887513597
 21
25.023548922242199
 31
0.0
  0
LINE
  5
126F
  8
241
 10
26.451020550124579
 20
26.109944525815781
 30
0.0
 11
31.917747716212968
 21
24.288227412770059
 31
0.0
  0
POLYLINE
  5
1270
  8
241
 10
38.715054262634844
 20
23.03647093664495
 30
0.0
 66
     1
 70
     8
  0
VERTEX
  8
241
  5
140D
 10
38.7151
 20
23.0365
 30
0.000000
  70
    32
  0
VERTEX
  8
241
  5
140E
 10
38.7129
 20
23.0310
 30
0.000000
  70
    32
  0
VERTEX
  8
241
  5
140F
 10
38.7107
 20
23.0255
 30
0.000000
  70
    32
  0
VERTEX
  8
241
  5
1410
 10
38.7085
 20
23.0199
 30
0.000000
  70
    32
  0
VERTEX
  8
241
  5
1411
 10
38.7063
 20
23.0143
 30
0.000000
  70
    32
  0
VERTEX
  8
241
  5
1412
 10
38.7041
 20
23.0086
 30
0.000000
  70
    32
  0
VERTEX
  8
241
  5
1413
 10
38.7019
 20
23.0029
 30
0.000000
  70
    32
  0
VERTEX
  8
241
  5
1414
 10
38.6997
 20
22.9971
 30
0.000000
  70
    32
  0
VERTEX
  8
241
  5
1415
 10
38.6974
 20
22.9913
 30
0.000000
  70
    32
  0
VERTEX
  8
241
  5
1416
 10
38.6952
 20
22.9854
 30
0.000000
  70
    32
  0
VERTEX
  8
241
  5
1417
 10
38.6929
 20
22.9795
 30
0.000000
  70
    32
  0
VERTEX
  8
241
  5
1418
 10
38.6907
 20
22.9735
 30
0.000000
  70
    32
  0
VERTEX
  8
241
  5
1419
 10
38.6884
 20
22.9674
 30
0.000000
  70
    32
  0
VERTEX
  8
241
  5
141A
 10
38.6862
 20
22.9613
 30
0.000000
  70
    32
  0
VERTEX
  8
241
  5
141B
 10
38.6839
 20
22.9552
 30
0.000000
  70
    32
  0
VERTEX
  8
241
  5
141C
 10
38.6816
 20
22.9490
 30
0.000000
  70
    32
  0
VERTEX
  8
241
  5
141D
 10
38.6793
 20
22.9427
 30
0.000000
  70
    32
  0
VERTEX
  8
241
  5
141E
 10
38.6771
 20
22.9364
 30
0.000000
  70
    32
  0
VERTEX
  8
241
  5
141F
 10
38.6748
 20
22.9301
 30
0.000000
  70
    32
  0
VERTEX
  8
241
  5
1420
 10
38.6725
 20
22.9237
 30
0.000000
  70
    32
  0
VERTEX
  8
241
  5
1421
 10
38.6702
 20
22.9173
 30
0.000000
  70
    32
  0
VERTEX
  8
241
  5
1422
 10
38.6679
 20
22.9108
 30
0.000000
  70
    32
  0
VERTEX
  8
241
  5
1423
 10
38.6656
 20
22.9043
 30
0.000000
  70
    32
  0
VERTEX
  8
241
  5
1424
 10
38.6632
 20
22.8977
 30
0.000000
  70
    32
  0
VERTEX
  8
241
  5
1425
 10
38.6609
 20
22.8911
 30
0.000000
  70
    32
  0
VERTEX
  8
241
  5
1426
 10
38.6586
 20
22.8844
 30
0.000000
  70
    32
  0
VERTEX
  8
241
  5
1427
 10
38.6563
 20
22.8777
 30
0.000000
  70
    32
  0
VERTEX
  8
241
  5
1428
 10
38.6539
 20
22.8710
 30
0.000000
  70
    32
  0
VERTEX
  8
241
  5
1429
 10
38.6516
 20
22.8642
 30
0.000000
  70
    32
  0
VERTEX
  8
241
  5
142A
 10
38.6493
 20
22.8574
 30
0.000000
  70
    32
  0
VERTEX
  8
241
  5
142B
 10
38.6470
 20
22.8506
 30
0.000000
  70
    32
  0
VERTEX
  8
241
  5
142C
 10
38.6446
 20
22.8437
 30
0.000000
  70
    32
  0
VERTEX
  8
241
  5
142D
 10
38.6423
 20
22.8367
 30
0.000000
  70
    32
  0
VERTEX
  8
241
  5
142E
 10
38.6399
 20
22.8298
 30
0.000000
  70
    32
  0
VERTEX
  8
241
  5
142F
 10
38.6376
 20
22.8228
 30
0.000000
  70
    32
  0
VERTEX
  8
241
  5
1430
 10
38.6353
 20
22.8157
 30
0.000000
  70
    32
  0
VERTEX
  8
241
  5
1431
 10
38.6329
 20
22.8086
 30
0.000000
  70
    32
  0
VERTEX
  8
241
  5
1432
 10
38.6306
 20
22.8015
 30
0.000000
  70
    32
  0
VERTEX
  8
241
  5
1433
 10
38.6282
 20
22.7944
 30
0.000000
  70
    32
  0
VERTEX
  8
241
  5
1434
 10
38.6259
 20
22.7872
 30
0.000000
  70
    32
  0
VERTEX
  8
241
  5
1435
 10
38.6235
 20
22.7800
 30
0.000000
  70
    32
  0
VERTEX
  8
241
  5
1436
 10
38.6212
 20
22.7728
 30
0.000000
  70
    32
  0
VERTEX
  8
241
  5
1437
 10
38.6189
 20
22.7655
 30
0.000000
  70
    32
  0
VERTEX
  8
241
  5
1438
 10
38.6165
 20
22.7582
 30
0.000000
  70
    32
  0
VERTEX
  8
241
  5
1439
 10
38.6142
 20
22.7509
 30
0.000000
  70
    32
  0
VERTEX
  8
241
  5
143A
 10
38.6118
 20
22.7435
 30
0.000000
  70
    32
  0
VERTEX
  8
241
  5
143B
 10
38.6095
 20
22.7361
 30
0.000000
  70
    32
  0
VERTEX
  8
241
  5
143C
 10
38.6072
 20
22.7287
 30
0.000000
  70
    32
  0
VERTEX
  8
241
  5
143D
 10
38.6048
 20
22.7213
 30
0.000000
  70
    32
  0
VERTEX
  8
241
  5
143E
 10
38.6025
 20
22.7138
 30
0.000000
  70
    32
  0
VERTEX
  8
241
  5
143F
 10
38.6002
 20
22.7063
 30
0.000000
  70
    32
  0
VERTEX
  8
241
  5
1440
 10
38.5979
 20
22.6988
 30
0.000000
  70
    32
  0
VERTEX
  8
241
  5
1441
 10
38.5955
 20
22.6913
 30
0.000000
  70
    32
  0
VERTEX
  8
241
  5
1442
 10
38.5932
 20
22.6838
 30
0.000000
  70
    32
  0
VERTEX
  8
241
  5
1443
 10
38.5909
 20
22.6762
 30
0.000000
  70
    32
  0
VERTEX
  8
241
  5
1444
 10
38.5886
 20
22.6686
 30
0.000000
  70
    32
  0
VERTEX
  8
241
  5
1445
 10
38.5863
 20
22.6610
 30
0.000000
  70
    32
  0
VERTEX
  8
241
  5
1446
 10
38.5840
 20
22.6533
 30
0.000000
  70
    32
  0
VERTEX
  8
241
  5
1447
 10
38.5817
 20
22.6457
 30
0.000000
  70
    32
  0
VERTEX
  8
241
  5
1448
 10
38.5794
 20
22.6380
 30
0.000000
  70
    32
  0
VERTEX
  8
241
  5
1449
 10
38.5771
 20
22.6303
 30
0.000000
  70
    32
  0
VERTEX
  8
241
  5
144A
 10
38.5748
 20
22.6226
 30
0.000000
  70
    32
  0
VERTEX
  8
241
  5
144B
 10
38.5725
 20
22.6149
 30
0.000000
  70
    32
  0
VERTEX
  8
241
  5
144C
 10
38.5703
 20
22.6072
 30
0.000000
  70
    32
  0
VERTEX
  8
241
  5
144D
 10
38.5680
 20
22.5994
 30
0.000000
  70
    32
  0
VERTEX
  8
241
  5
144E
 10
38.5657
 20
22.5917
 30
0.000000
  70
    32
  0
VERTEX
  8
241
  5
144F
 10
38.5635
 20
22.5839
 30
0.000000
  70
    32
  0
VERTEX
  8
241
  5
1450
 10
38.5612
 20
22.5761
 30
0.000000
  70
    32
  0
VERTEX
  8
241
  5
1451
 10
38.5590
 20
22.5684
 30
0.000000
  70
    32
  0
VERTEX
  8
241
  5
1452
 10
38.5568
 20
22.5606
 30
0.000000
  70
    32
  0
VERTEX
  8
241
  5
1453
 10
38.5545
 20
22.5528
 30
0.000000
  70
    32
  0
VERTEX
  8
241
  5
1454
 10
38.5523
 20
22.5449
 30
0.000000
  70
    32
  0
VERTEX
  8
241
  5
1455
 10
38.5501
 20
22.5371
 30
0.000000
  70
    32
  0
VERTEX
  8
241
  5
1456
 10
38.5479
 20
22.5293
 30
0.000000
  70
    32
  0
VERTEX
  8
241
  5
1457
 10
38.5457
 20
22.5215
 30
0.000000
  70
    32
  0
VERTEX
  8
241
  5
1458
 10
38.5435
 20
22.5136
 30
0.000000
  70
    32
  0
VERTEX
  8
241
  5
1459
 10
38.5414
 20
22.5058
 30
0.000000
  70
    32
  0
VERTEX
  8
241
  5
145A
 10
38.5392
 20
22.4979
 30
0.000000
  70
    32
  0
VERTEX
  8
241
  5
145B
 10
38.5370
 20
22.4901
 30
0.000000
  70
    32
  0
VERTEX
  8
241
  5
145C
 10
38.5349
 20
22.4823
 30
0.000000
  70
    32
  0
VERTEX
  8
241
  5
145D
 10
38.5327
 20
22.4744
 30
0.000000
  70
    32
  0
VERTEX
  8
241
  5
145E
 10
38.5306
 20
22.4666
 30
0.000000
  70
    32
  0
VERTEX
  8
241
  5
145F
 10
38.5285
 20
22.4587
 30
0.000000
  70
    32
  0
VERTEX
  8
241
  5
1460
 10
38.5264
 20
22.4509
 30
0.000000
  70
    32
  0
VERTEX
  8
241
  5
1461
 10
38.5243
 20
22.4430
 30
0.000000
  70
    32
  0
VERTEX
  8
241
  5
1462
 10
38.5222
 20
22.4352
 30
0.000000
  70
    32
  0
VERTEX
  8
241
  5
1463
 10
38.5201
 20
22.4274
 30
0.000000
  70
    32
  0
VERTEX
  8
241
  5
1464
 10
38.5181
 20
22.4195
 30
0.000000
  70
    32
  0
VERTEX
  8
241
  5
1465
 10
38.5160
 20
22.4117
 30
0.000000
  70
    32
  0
VERTEX
  8
241
  5
1466
 10
38.5140
 20
22.4039
 30
0.000000
  70
    32
  0
VERTEX
  8
241
  5
1467
 10
38.5119
 20
22.3961
 30
0.000000
  70
    32
  0
VERTEX
  8
241
  5
1468
 10
38.5099
 20
22.3883
 30
0.000000
  70
    32
  0
VERTEX
  8
241
  5
1469
 10
38.5079
 20
22.3805
 30
0.000000
  70
    32
  0
VERTEX
  8
241
  5
146A
 10
38.5059
 20
22.3727
 30
0.000000
  70
    32
  0
VERTEX
  8
241
  5
146B
 10
38.5039
 20
22.3650
 30
0.000000
  70
    32
  0
VERTEX
  8
241
  5
146C
 10
38.5020
 20
22.3572
 30
0.000000
  70
    32
  0
VERTEX
  8
241
  5
146D
 10
38.5000
 20
22.3495
 30
0.000000
  70
    32
  0
VERTEX
  8
241
  5
146E
 10
38.4981
 20
22.3417
 30
0.000000
  70
    32
  0
VERTEX
  8
241
  5
146F
 10
38.4961
 20
22.3340
 30
0.000000
  70
    32
  0
VERTEX
  8
241
  5
1470
 10
38.4942
 20
22.3263
 30
0.000000
  70
    32
  0
VERTEX
  8
241
  5
1471
 10
38.4923
 20
22.3186
 30
0.000000
  70
    32
  0
VERTEX
  8
241
  5
1472
 10
38.4904
 20
22.3110
 30
0.000000
  70
    32
  0
VERTEX
  8
241
  5
1473
 10
38.4885
 20
22.3033
 30
0.000000
  70
    32
  0
VERTEX
  8
241
  5
1474
 10
38.4867
 20
22.2957
 30
0.000000
  70
    32
  0
VERTEX
  8
241
  5
1475
 10
38.4848
 20
22.2881
 30
0.000000
  70
    32
  0
VERTEX
  8
241
  5
1476
 10
38.4830
 20
22.2805
 30
0.000000
  70
    32
  0
VERTEX
  8
241
  5
1477
 10
38.4812
 20
22.2729
 30
0.000000
  70
    32
  0
VERTEX
  8
241
  5
1478
 10
38.4794
 20
22.2653
 30
0.000000
  70
    32
  0
VERTEX
  8
241
  5
1479
 10
38.4776
 20
22.2578
 30
0.000000
  70
    32
  0
VERTEX
  8
241
  5
147A
 10
38.4758
 20
22.2503
 30
0.000000
  70
    32
  0
VERTEX
  8
241
  5
147B
 10
38.4741
 20
22.2428
 30
0.000000
  70
    32
  0
VERTEX
  8
241
  5
147C
 10
38.4723
 20
22.2354
 30
0.000000
  70
    32
  0
VERTEX
  8
241
  5
147D
 10
38.4706
 20
22.2279
 30
0.000000
  70
    32
  0
VERTEX
  8
241
  5
147E
 10
38.4689
 20
22.2205
 30
0.000000
  70
    32
  0
VERTEX
  8
241
  5
147F
 10
38.4672
 20
22.2131
 30
0.000000
  70
    32
  0
VERTEX
  8
241
  5
1480
 10
38.4656
 20
22.2058
 30
0.000000
  70
    32
  0
VERTEX
  8
241
  5
1481
 10
38.4639
 20
22.1984
 30
0.000000
  70
    32
  0
VERTEX
  8
241
  5
1482
 10
38.4623
 20
22.1911
 30
0.000000
  70
    32
  0
VERTEX
  8
241
  5
1483
 10
38.4606
 20
22.1839
 30
0.000000
  70
    32
  0
VERTEX
  8
241
  5
1484
 10
38.4590
 20
22.1766
 30
0.000000
  70
    32
  0
VERTEX
  8
241
  5
1485
 10
38.4574
 20
22.1694
 30
0.000000
  70
    32
  0
VERTEX
  8
241
  5
1486
 10
38.4559
 20
22.1623
 30
0.000000
  70
    32
  0
VERTEX
  8
241
  5
1487
 10
38.4543
 20
22.1551
 30
0.000000
  70
    32
  0
VERTEX
  8
241
  5
1488
 10
38.4528
 20
22.1480
 30
0.000000
  70
    32
  0
VERTEX
  8
241
  5
1489
 10
38.4513
 20
22.1409
 30
0.000000
  70
    32
  0
VERTEX
  8
241
  5
148A
 10
38.4498
 20
22.1339
 30
0.000000
  70
    32
  0
VERTEX
  8
241
  5
148B
 10
38.4483
 20
22.1269
 30
0.000000
  70
    32
  0
VERTEX
  8
241
  5
148C
 10
38.4468
 20
22.1199
 30
0.000000
  70
    32
  0
VERTEX
  8
241
  5
148D
 10
38.4454
 20
22.1130
 30
0.000000
  70
    32
  0
SEQEND
  8
241
  5
148E
  0
LINE
  5
1271
  8
241
 10
38.444394949516997
 20
22.108176695816969
 30
0.0
 11
38.445389216087328
 21
22.11297412741958
 31
0.0
  0
LINE
  5
1272
  8
241
 10
38.332497126205162
 20
22.033440188314909
 30
0.0
 11
38.444394949516969
 21
22.108176695816969
 31
0.0
  0
LINE
  5
1273
  8
241
 10
38.268963290789451
 20
21.99100596728498
 30
0.0
 11
38.33249712620519
 21
22.033440188314909
 31
0.0
  0
POLYLINE
  5
1274
  8
241
 10
36.558232626495283
 20
21.984530376507241
 30
0.0000000000000021
 66
     1
 70
     8
  0
VERTEX
  8
241
  5
148F
 10
36.5582
 20
21.9845
 30
2.11551e-015
  70
    32
  0
VERTEX
  8
241
  5
1490
 10
36.5718
 20
21.9845
 30
2.11630e-015
  70
    32
  0
VERTEX
  8
241
  5
1491
 10
36.5853
 20
21.9845
 30
2.11709e-015
  70
    32
  0
VERTEX
  8
241
  5
1492
 10
36.5988
 20
21.9844
 30
2.11788e-015
  70
    32
  0
VERTEX
  8
241
  5
1493
 10
36.6123
 20
21.9844
 30
2.11867e-015
  70
    32
  0
VERTEX
  8
241
  5
1494
 10
36.6258
 20
21.9844
 30
2.11946e-015
  70
    32
  0
VERTEX
  8
241
  5
1495
 10
36.6393
 20
21.9843
 30
2.12024e-015
  70
    32
  0
VERTEX
  8
241
  5
1496
 10
36.6528
 20
21.9843
 30
2.12103e-015
  70
    32
  0
VERTEX
  8
241
  5
1497
 10
36.6663
 20
21.9843
 30
2.12182e-015
  70
    32
  0
VERTEX
  8
241
  5
1498
 10
36.6798
 20
21.9843
 30
2.12261e-015
  70
    32
  0
VERTEX
  8
241
  5
1499
 10
36.6933
 20
21.9842
 30
2.12340e-015
  70
    32
  0
VERTEX
  8
241
  5
149A
 10
36.7068
 20
21.9842
 30
2.12419e-015
  70
    32
  0
VERTEX
  8
241
  5
149B
 10
36.7203
 20
21.9842
 30
2.12498e-015
  70
    32
  0
VERTEX
  8
241
  5
149C
 10
36.7338
 20
21.9842
 30
2.12576e-015
  70
    32
  0
VERTEX
  8
241
  5
149D
 10
36.7473
 20
21.9842
 30
2.12655e-015
  70
    32
  0
VERTEX
  8
241
  5
149E
 10
36.7608
 20
21.9842
 30
2.12734e-015
  70
    32
  0
VERTEX
  8
241
  5
149F
 10
36.7743
 20
21.9841
 30
2.12813e-015
  70
    32
  0
VERTEX
  8
241
  5
14A0
 10
36.7878
 20
21.9841
 30
2.12891e-015
  70
    32
  0
VERTEX
  8
241
  5
14A1
 10
36.8013
 20
21.9841
 30
2.12970e-015
  70
    32
  0
VERTEX
  8
241
  5
14A2
 10
36.8147
 20
21.9841
 30
2.13049e-015
  70
    32
  0
VERTEX
  8
241
  5
14A3
 10
36.8282
 20
21.9841
 30
2.13128e-015
  70
    32
  0
VERTEX
  8
241
  5
14A4
 10
36.8417
 20
21.9841
 30
2.13206e-015
  70
    32
  0
VERTEX
  8
241
  5
14A5
 10
36.8552
 20
21.9841
 30
2.13285e-015
  70
    32
  0
VERTEX
  8
241
  5
14A6
 10
36.8686
 20
21.9841
 30
2.13364e-015
  70
    32
  0
VERTEX
  8
241
  5
14A7
 10
36.8821
 20
21.9841
 30
2.13442e-015
  70
    32
  0
VERTEX
  8
241
  5
14A8
 10
36.8955
 20
21.9841
 30
2.13521e-015
  70
    32
  0
VERTEX
  8
241
  5
14A9
 10
36.9090
 20
21.9841
 30
2.13600e-015
  70
    32
  0
VERTEX
  8
241
  5
14AA
 10
36.9225
 20
21.9841
 30
2.13678e-015
  70
    32
  0
VERTEX
  8
241
  5
14AB
 10
36.9359
 20
21.9841
 30
2.13757e-015
  70
    32
  0
VERTEX
  8
241
  5
14AC
 10
36.9494
 20
21.9841
 30
2.13835e-015
  70
    32
  0
VERTEX
  8
241
  5
14AD
 10
36.9628
 20
21.9841
 30
2.13914e-015
  70
    32
  0
VERTEX
  8
241
  5
14AE
 10
36.9763
 20
21.9841
 30
2.13992e-015
  70
    32
  0
VERTEX
  8
241
  5
14AF
 10
36.9897
 20
21.9841
 30
2.14071e-015
  70
    32
  0
VERTEX
  8
241
  5
14B0
 10
37.0032
 20
21.9841
 30
2.14150e-015
  70
    32
  0
VERTEX
  8
241
  5
14B1
 10
37.0166
 20
21.9841
 30
2.14228e-015
  70
    32
  0
VERTEX
  8
241
  5
14B2
 10
37.0300
 20
21.9841
 30
2.14307e-015
  70
    32
  0
VERTEX
  8
241
  5
14B3
 10
37.0435
 20
21.9841
 30
2.14385e-015
  70
    32
  0
VERTEX
  8
241
  5
14B4
 10
37.0569
 20
21.9842
 30
2.14464e-015
  70
    32
  0
VERTEX
  8
241
  5
14B5
 10
37.0703
 20
21.9842
 30
2.14542e-015
  70
    32
  0
VERTEX
  8
241
  5
14B6
 10
37.0838
 20
21.9842
 30
2.14621e-015
  70
    32
  0
VERTEX
  8
241
  5
14B7
 10
37.0972
 20
21.9842
 30
2.14699e-015
  70
    32
  0
VERTEX
  8
241
  5
14B8
 10
37.1106
 20
21.9842
 30
2.14777e-015
  70
    32
  0
VERTEX
  8
241
  5
14B9
 10
37.1240
 20
21.9842
 30
2.14856e-015
  70
    32
  0
VERTEX
  8
241
  5
14BA
 10
37.1375
 20
21.9843
 30
2.14934e-015
  70
    32
  0
VERTEX
  8
241
  5
14BB
 10
37.1509
 20
21.9843
 30
2.15013e-015
  70
    32
  0
VERTEX
  8
241
  5
14BC
 10
37.1643
 20
21.9843
 30
2.15091e-015
  70
    32
  0
VERTEX
  8
241
  5
14BD
 10
37.1777
 20
21.9843
 30
2.15169e-015
  70
    32
  0
VERTEX
  8
241
  5
14BE
 10
37.1911
 20
21.9844
 30
2.15248e-015
  70
    32
  0
VERTEX
  8
241
  5
14BF
 10
37.2045
 20
21.9844
 30
2.15326e-015
  70
    32
  0
VERTEX
  8
241
  5
14C0
 10
37.2179
 20
21.9844
 30
2.15404e-015
  70
    32
  0
VERTEX
  8
241
  5
14C1
 10
37.2313
 20
21.9845
 30
2.15483e-015
  70
    32
  0
VERTEX
  8
241
  5
14C2
 10
37.2447
 20
21.9845
 30
2.15561e-015
  70
    32
  0
VERTEX
  8
241
  5
14C3
 10
37.2581
 20
21.9845
 30
2.15639e-015
  70
    32
  0
VERTEX
  8
241
  5
14C4
 10
37.2715
 20
21.9846
 30
2.15718e-015
  70
    32
  0
VERTEX
  8
241
  5
14C5
 10
37.2849
 20
21.9846
 30
2.15796e-015
  70
    32
  0
VERTEX
  8
241
  5
14C6
 10
37.2983
 20
21.9846
 30
2.15874e-015
  70
    32
  0
VERTEX
  8
241
  5
14C7
 10
37.3117
 20
21.9847
 30
2.15952e-015
  70
    32
  0
VERTEX
  8
241
  5
14C8
 10
37.3251
 20
21.9847
 30
2.16030e-015
  70
    32
  0
VERTEX
  8
241
  5
14C9
 10
37.3385
 20
21.9848
 30
2.16109e-015
  70
    32
  0
VERTEX
  8
241
  5
14CA
 10
37.3518
 20
21.9848
 30
2.16187e-015
  70
    32
  0
VERTEX
  8
241
  5
14CB
 10
37.3652
 20
21.9848
 30
2.16265e-015
  70
    32
  0
VERTEX
  8
241
  5
14CC
 10
37.3786
 20
21.9849
 30
2.16343e-015
  70
    32
  0
VERTEX
  8
241
  5
14CD
 10
37.3920
 20
21.9849
 30
2.16421e-015
  70
    32
  0
VERTEX
  8
241
  5
14CE
 10
37.4053
 20
21.9850
 30
2.16499e-015
  70
    32
  0
VERTEX
  8
241
  5
14CF
 10
37.4187
 20
21.9850
 30
2.16578e-015
  70
    32
  0
VERTEX
  8
241
  5
14D0
 10
37.4321
 20
21.9851
 30
2.16656e-015
  70
    32
  0
VERTEX
  8
241
  5
14D1
 10
37.4454
 20
21.9851
 30
2.16734e-015
  70
    32
  0
VERTEX
  8
241
  5
14D2
 10
37.4588
 20
21.9852
 30
2.16812e-015
  70
    32
  0
VERTEX
  8
241
  5
14D3
 10
37.4721
 20
21.9852
 30
2.16890e-015
  70
    32
  0
VERTEX
  8
241
  5
14D4
 10
37.4855
 20
21.9853
 30
2.16968e-015
  70
    32
  0
VERTEX
  8
241
  5
14D5
 10
37.4988
 20
21.9854
 30
2.17046e-015
  70
    32
  0
VERTEX
  8
241
  5
14D6
 10
37.5122
 20
21.9854
 30
2.17124e-015
  70
    32
  0
VERTEX
  8
241
  5
14D7
 10
37.5255
 20
21.9855
 30
2.17202e-015
  70
    32
  0
VERTEX
  8
241
  5
14D8
 10
37.5389
 20
21.9855
 30
2.17280e-015
  70
    32
  0
VERTEX
  8
241
  5
14D9
 10
37.5522
 20
21.9856
 30
2.17358e-015
  70
    32
  0
VERTEX
  8
241
  5
14DA
 10
37.5656
 20
21.9857
 30
2.17436e-015
  70
    32
  0
VERTEX
  8
241
  5
14DB
 10
37.5789
 20
21.9857
 30
2.17514e-015
  70
    32
  0
VERTEX
  8
241
  5
14DC
 10
37.5922
 20
21.9858
 30
2.17592e-015
  70
    32
  0
VERTEX
  8
241
  5
14DD
 10
37.6056
 20
21.9859
 30
2.17670e-015
  70
    32
  0
VERTEX
  8
241
  5
14DE
 10
37.6189
 20
21.9859
 30
2.17748e-015
  70
    32
  0
VERTEX
  8
241
  5
14DF
 10
37.6322
 20
21.9860
 30
2.17826e-015
  70
    32
  0
VERTEX
  8
241
  5
14E0
 10
37.6455
 20
21.9861
 30
2.17904e-015
  70
    32
  0
VERTEX
  8
241
  5
14E1
 10
37.6589
 20
21.9862
 30
2.17982e-015
  70
    32
  0
VERTEX
  8
241
  5
14E2
 10
37.6722
 20
21.9862
 30
2.18059e-015
  70
    32
  0
VERTEX
  8
241
  5
14E3
 10
37.6855
 20
21.9863
 30
2.18137e-015
  70
    32
  0
VERTEX
  8
241
  5
14E4
 10
37.6988
 20
21.9864
 30
2.18215e-015
  70
    32
  0
VERTEX
  8
241
  5
14E5
 10
37.7121
 20
21.9865
 30
2.18293e-015
  70
    32
  0
VERTEX
  8
241
  5
14E6
 10
37.7254
 20
21.9865
 30
2.18371e-015
  70
    32
  0
VERTEX
  8
241
  5
14E7
 10
37.7387
 20
21.9866
 30
2.18449e-015
  70
    32
  0
VERTEX
  8
241
  5
14E8
 10
37.7521
 20
21.9867
 30
2.18526e-015
  70
    32
  0
VERTEX
  8
241
  5
14E9
 10
37.7654
 20
21.9868
 30
2.18604e-015
  70
    32
  0
VERTEX
  8
241
  5
14EA
 10
37.7787
 20
21.9869
 30
2.18682e-015
  70
    32
  0
VERTEX
  8
241
  5
14EB
 10
37.7920
 20
21.9870
 30
2.18760e-015
  70
    32
  0
VERTEX
  8
241
  5
14EC
 10
37.8052
 20
21.9871
 30
2.18837e-015
  70
    32
  0
VERTEX
  8
241
  5
14ED
 10
37.8185
 20
21.9871
 30
2.18915e-015
  70
    32
  0
VERTEX
  8
241
  5
14EE
 10
37.8318
 20
21.9872
 30
2.18993e-015
  70
    32
  0
VERTEX
  8
241
  5
14EF
 10
37.8451
 20
21.9873
 30
2.19070e-015
  70
    32
  0
VERTEX
  8
241
  5
14F0
 10
37.8584
 20
21.9874
 30
2.19148e-015
  70
    32
  0
VERTEX
  8
241
  5
14F1
 10
37.8717
 20
21.9875
 30
2.19226e-015
  70
    32
  0
VERTEX
  8
241
  5
14F2
 10
37.8850
 20
21.9876
 30
2.19303e-015
  70
    32
  0
VERTEX
  8
241
  5
14F3
 10
37.8982
 20
21.9877
 30
2.19381e-015
  70
    32
  0
VERTEX
  8
241
  5
14F4
 10
37.9115
 20
21.9878
 30
2.19459e-015
  70
    32
  0
VERTEX
  8
241
  5
14F5
 10
37.9248
 20
21.9879
 30
2.19536e-015
  70
    32
  0
VERTEX
  8
241
  5
14F6
 10
37.9381
 20
21.9880
 30
2.19614e-015
  70
    32
  0
VERTEX
  8
241
  5
14F7
 10
37.9513
 20
21.9881
 30
2.19691e-015
  70
    32
  0
VERTEX
  8
241
  5
14F8
 10
37.9646
 20
21.9882
 30
2.19769e-015
  70
    32
  0
VERTEX
  8
241
  5
14F9
 10
37.9778
 20
21.9883
 30
2.19847e-015
  70
    32
  0
VERTEX
  8
241
  5
14FA
 10
37.9911
 20
21.9884
 30
2.19924e-015
  70
    32
  0
VERTEX
  8
241
  5
14FB
 10
38.0044
 20
21.9886
 30
2.20002e-015
  70
    32
  0
VERTEX
  8
241
  5
14FC
 10
38.0176
 20
21.9887
 30
2.20079e-015
  70
    32
  0
VERTEX
  8
241
  5
14FD
 10
38.0309
 20
21.9888
 30
2.20157e-015
  70
    32
  0
VERTEX
  8
241
  5
14FE
 10
38.0441
 20
21.9889
 30
2.20234e-015
  70
    32
  0
VERTEX
  8
241
  5
14FF
 10
38.0574
 20
21.9890
 30
2.20312e-015
  70
    32
  0
VERTEX
  8
241
  5
1500
 10
38.0706
 20
21.9891
 30
2.20389e-015
  70
    32
  0
VERTEX
  8
241
  5
1501
 10
38.0838
 20
21.9892
 30
2.20467e-015
  70
    32
  0
VERTEX
  8
241
  5
1502
 10
38.0971
 20
21.9893
 30
2.20544e-015
  70
    32
  0
VERTEX
  8
241
  5
1503
 10
38.1103
 20
21.9895
 30
2.20621e-015
  70
    32
  0
VERTEX
  8
241
  5
1504
 10
38.1236
 20
21.9896
 30
2.20699e-015
  70
    32
  0
VERTEX
  8
241
  5
1505
 10
38.1368
 20
21.9897
 30
2.20776e-015
  70
    32
  0
VERTEX
  8
241
  5
1506
 10
38.1500
 20
21.9898
 30
2.20854e-015
  70
    32
  0
VERTEX
  8
241
  5
1507
 10
38.1632
 20
21.9900
 30
2.20931e-015
  70
    32
  0
VERTEX
  8
241
  5
1508
 10
38.1765
 20
21.9901
 30
2.21008e-015
  70
    32
  0
VERTEX
  8
241
  5
1509
 10
38.1897
 20
21.9902
 30
2.21086e-015
  70
    32
  0
VERTEX
  8
241
  5
150A
 10
38.2029
 20
21.9903
 30
2.21163e-015
  70
    32
  0
VERTEX
  8
241
  5
150B
 10
38.2161
 20
21.9905
 30
2.21240e-015
  70
    32
  0
VERTEX
  8
241
  5
150C
 10
38.2293
 20
21.9906
 30
2.21318e-015
  70
    32
  0
VERTEX
  8
241
  5
150D
 10
38.2425
 20
21.9907
 30
2.21395e-015
  70
    32
  0
VERTEX
  8
241
  5
150E
 10
38.2558
 20
21.9909
 30
2.21472e-015
  70
    32
  0
VERTEX
  8
241
  5
150F
 10
38.2690
 20
21.9910
 30
2.21549e-015
  70
    32
  0
SEQEND
  8
241
  5
1510
  0
LINE
  5
1276
  8
241
 10
39.271376541738157
 20
27.453034724602691
 30
0.0
 11
34.746916463976127
 21
28.9607533468307
 31
0.0
  0
LINE
  5
1277
  8
240
 10
39.400300000000001
 20
27.765769729165999
 30
0.0
 11
40.000300000000003
 21
28.562789465996701
 31
0.0
  0
LINE
  5
1278
  8
241
 10
39.277424887513597
 20
25.023548922242199
 30
0.0
 11
39.278356238699352
 21
26.430285866230388
 31
0.0
  0
POLYLINE
  5
1279
  8
241
 10
39.27137654173815
 20
27.453034724602688
 30
0.0
 66
     1
 70
     8
  0
VERTEX
  8
241
  5
1511
 10
39.2714
 20
27.4530
 30
5.39549e-020
  70
    32
  0
VERTEX
  8
241
  5
1512
 10
39.2709
 20
27.4462
 30
5.43777e-020
  70
    32
  0
VERTEX
  8
241
  5
1513
 10
39.2704
 20
27.4394
 30
5.47948e-020
  70
    32
  0
VERTEX
  8
241
  5
1514
 10
39.2699
 20
27.4324
 30
5.52063e-020
  70
    32
  0
VERTEX
  8
241
  5
1515
 10
39.2695
 20
27.4255
 30
5.56120e-020
  70
    32
  0
VERTEX
  8
241
  5
1516
 10
39.2690
 20
27.4185
 30
5.60121e-020
  70
    32
  0
VERTEX
  8
241
  5
1517
 10
39.2686
 20
27.4114
 30
5.64063e-020
  70
    32
  0
VERTEX
  8
241
  5
1518
 10
39.2682
 20
27.4043
 30
5.67948e-020
  70
    32
  0
VERTEX
  8
241
  5
1519
 10
39.2677
 20
27.3971
 30
5.71774e-020
  70
    32
  0
VERTEX
  8
241
  5
151A
 10
39.2673
 20
27.3899
 30
5.75540e-020
  70
    32
  0
VERTEX
  8
241
  5
151B
 10
39.2669
 20
27.3827
 30
5.79248e-020
  70
    32
  0
VERTEX
  8
241
  5
151C
 10
39.2665
 20
27.3753
 30
5.82895e-020
  70
    32
  0
VERTEX
  8
241
  5
151D
 10
39.2661
 20
27.3680
 30
5.86483e-020
  70
    32
  0
VERTEX
  8
241
  5
151E
 10
39.2657
 20
27.3606
 30
5.90010e-020
  70
    32
  0
VERTEX
  8
241
  5
151F
 10
39.2653
 20
27.3532
 30
5.93476e-020
  70
    32
  0
VERTEX
  8
241
  5
1520
 10
39.2649
 20
27.3457
 30
5.96881e-020
  70
    32
  0
VERTEX
  8
241
  5
1521
 10
39.2646
 20
27.3382
 30
6.00224e-020
  70
    32
  0
VERTEX
  8
241
  5
1522
 10
39.2642
 20
27.3306
 30
6.03506e-020
  70
    32
  0
VERTEX
  8
241
  5
1523
 10
39.2639
 20
27.3230
 30
6.06725e-020
  70
    32
  0
VERTEX
  8
241
  5
1524
 10
39.2635
 20
27.3153
 30
6.09882e-020
  70
    32
  0
VERTEX
  8
241
  5
1525
 10
39.2632
 20
27.3077
 30
6.12975e-020
  70
    32
  0
VERTEX
  8
241
  5
1526
 10
39.2629
 20
27.2999
 30
6.16006e-020
  70
    32
  0
VERTEX
  8
241
  5
1527
 10
39.2625
 20
27.2922
 30
6.18972e-020
  70
    32
  0
VERTEX
  8
241
  5
1528
 10
39.2622
 20
27.2844
 30
6.21875e-020
  70
    32
  0
VERTEX
  8
241
  5
1529
 10
39.2619
 20
27.2765
 30
6.24714e-020
  70
    32
  0
VERTEX
  8
241
  5
152A
 10
39.2616
 20
27.2687
 30
6.27489e-020
  70
    32
  0
VERTEX
  8
241
  5
152B
 10
39.2614
 20
27.2608
 30
6.30198e-020
  70
    32
  0
VERTEX
  8
241
  5
152C
 10
39.2611
 20
27.2528
 30
6.32843e-020
  70
    32
  0
VERTEX
  8
241
  5
152D
 10
39.2608
 20
27.2449
 30
6.35422e-020
  70
    32
  0
VERTEX
  8
241
  5
152E
 10
39.2606
 20
27.2369
 30
6.37936e-020
  70
    32
  0
VERTEX
  8
241
  5
152F
 10
39.2603
 20
27.2288
 30
6.40384e-020
  70
    32
  0
VERTEX
  8
241
  5
1530
 10
39.2601
 20
27.2208
 30
6.42766e-020
  70
    32
  0
VERTEX
  8
241
  5
1531
 10
39.2599
 20
27.2127
 30
6.45081e-020
  70
    32
  0
VERTEX
  8
241
  5
1532
 10
39.2596
 20
27.2045
 30
6.47330e-020
  70
    32
  0
VERTEX
  8
241
  5
1533
 10
39.2594
 20
27.1964
 30
6.49513e-020
  70
    32
  0
VERTEX
  8
241
  5
1534
 10
39.2592
 20
27.1882
 30
6.51628e-020
  70
    32
  0
VERTEX
  8
241
  5
1535
 10
39.2590
 20
27.1800
 30
6.53676e-020
  70
    32
  0
VERTEX
  8
241
  5
1536
 10
39.2588
 20
27.1718
 30
6.55656e-020
  70
    32
  0
VERTEX
  8
241
  5
1537
 10
39.2587
 20
27.1635
 30
6.57569e-020
  70
    32
  0
VERTEX
  8
241
  5
1538
 10
39.2585
 20
27.1553
 30
6.59414e-020
  70
    32
  0
VERTEX
  8
241
  5
1539
 10
39.2583
 20
27.1470
 30
6.61191e-020
  70
    32
  0
VERTEX
  8
241
  5
153A
 10
39.2582
 20
27.1387
 30
6.62900e-020
  70
    32
  0
VERTEX
  8
241
  5
153B
 10
39.2580
 20
27.1303
 30
6.64541e-020
  70
    32
  0
VERTEX
  8
241
  5
153C
 10
39.2579
 20
27.1219
 30
6.66112e-020
  70
    32
  0
VERTEX
  8
241
  5
153D
 10
39.2578
 20
27.1136
 30
6.67616e-020
  70
    32
  0
VERTEX
  8
241
  5
153E
 10
39.2577
 20
27.1052
 30
6.69050e-020
  70
    32
  0
VERTEX
  8
241
  5
153F
 10
39.2575
 20
27.0968
 30
6.70415e-020
  70
    32
  0
VERTEX
  8
241
  5
1540
 10
39.2574
 20
27.0883
 30
6.71711e-020
  70
    32
  0
VERTEX
  8
241
  5
1541
 10
39.2574
 20
27.0799
 30
6.72938e-020
  70
    32
  0
VERTEX
  8
241
  5
1542
 10
39.2573
 20
27.0714
 30
6.74095e-020
  70
    32
  0
VERTEX
  8
241
  5
1543
 10
39.2572
 20
27.0629
 30
6.75183e-020
  70
    32
  0
VERTEX
  8
241
  5
1544
 10
39.2571
 20
27.0544
 30
6.76201e-020
  70
    32
  0
VERTEX
  8
241
  5
1545
 10
39.2571
 20
27.0459
 30
6.77150e-020
  70
    32
  0
VERTEX
  8
241
  5
1546
 10
39.2570
 20
27.0374
 30
6.78028e-020
  70
    32
  0
VERTEX
  8
241
  5
1547
 10
39.2570
 20
27.0289
 30
6.78837e-020
  70
    32
  0
VERTEX
  8
241
  5
1548
 10
39.2570
 20
27.0204
 30
6.79575e-020
  70
    32
  0
VERTEX
  8
241
  5
1549
 10
39.2570
 20
27.0118
 30
6.80243e-020
  70
    32
  0
VERTEX
  8
241
  5
154A
 10
39.2570
 20
27.0033
 30
6.80842e-020
  70
    32
  0
VERTEX
  8
241
  5
154B
 10
39.2570
 20
26.9947
 30
6.81370e-020
  70
    32
  0
VERTEX
  8
241
  5
154C
 10
39.2570
 20
26.9862
 30
6.81827e-020
  70
    32
  0
VERTEX
  8
241
  5
154D
 10
39.2570
 20
26.9776
 30
6.82215e-020
  70
    32
  0
VERTEX
  8
241
  5
154E
 10
39.2570
 20
26.9690
 30
6.82532e-020
  70
    32
  0
VERTEX
  8
241
  5
154F
 10
39.2570
 20
26.9604
 30
6.82778e-020
  70
    32
  0
VERTEX
  8
241
  5
1550
 10
39.2571
 20
26.9519
 30
6.82954e-020
  70
    32
  0
VERTEX
  8
241
  5
1551
 10
39.2571
 20
26.9433
 30
6.83060e-020
  70
    32
  0
VERTEX
  8
241
  5
1552
 10
39.2572
 20
26.9347
 30
6.83095e-020
  70
    32
  0
VERTEX
  8
241
  5
1553
 10
39.2573
 20
26.9261
 30
6.83060e-020
  70
    32
  0
VERTEX
  8
241
  5
1554
 10
39.2574
 20
26.9175
 30
6.82954e-020
  70
    32
  0
VERTEX
  8
241
  5
1555
 10
39.2574
 20
26.9089
 30
6.82778e-020
  70
    32
  0
VERTEX
  8
241
  5
1556
 10
39.2575
 20
26.9004
 30
6.82531e-020
  70
    32
  0
VERTEX
  8
241
  5
1557
 10
39.2577
 20
26.8918
 30
6.82214e-020
  70
    32
  0
VERTEX
  8
241
  5
1558
 10
39.2578
 20
26.8832
 30
6.81826e-020
  70
    32
  0
VERTEX
  8
241
  5
1559
 10
39.2579
 20
26.8747
 30
6.81368e-020
  70
    32
  0
VERTEX
  8
241
  5
155A
 10
39.2580
 20
26.8661
 30
6.80840e-020
  70
    32
  0
VERTEX
  8
241
  5
155B
 10
39.2582
 20
26.8576
 30
6.80242e-020
  70
    32
  0
VERTEX
  8
241
  5
155C
 10
39.2583
 20
26.8490
 30
6.79573e-020
  70
    32
  0
VERTEX
  8
241
  5
155D
 10
39.2585
 20
26.8405
 30
6.78835e-020
  70
    32
  0
VERTEX
  8
241
  5
155E
 10
39.2587
 20
26.8320
 30
6.78026e-020
  70
    32
  0
VERTEX
  8
241
  5
155F
 10
39.2588
 20
26.8234
 30
6.77147e-020
  70
    32
  0
VERTEX
  8
241
  5
1560
 10
39.2590
 20
26.8149
 30
6.76199e-020
  70
    32
  0
VERTEX
  8
241
  5
1561
 10
39.2592
 20
26.8065
 30
6.75181e-020
  70
    32
  0
VERTEX
  8
241
  5
1562
 10
39.2594
 20
26.7980
 30
6.74093e-020
  70
    32
  0
VERTEX
  8
241
  5
1563
 10
39.2596
 20
26.7895
 30
6.72935e-020
  70
    32
  0
VERTEX
  8
241
  5
1564
 10
39.2599
 20
26.7811
 30
6.71708e-020
  70
    32
  0
VERTEX
  8
241
  5
1565
 10
39.2601
 20
26.7726
 30
6.70412e-020
  70
    32
  0
VERTEX
  8
241
  5
1566
 10
39.2603
 20
26.7642
 30
6.69047e-020
  70
    32
  0
VERTEX
  8
241
  5
1567
 10
39.2606
 20
26.7558
 30
6.67612e-020
  70
    32
  0
VERTEX
  8
241
  5
1568
 10
39.2608
 20
26.7475
 30
6.66109e-020
  70
    32
  0
VERTEX
  8
241
  5
1569
 10
39.2611
 20
26.7391
 30
6.64537e-020
  70
    32
  0
VERTEX
  8
241
  5
156A
 10
39.2614
 20
26.7308
 30
6.62896e-020
  70
    32
  0
VERTEX
  8
241
  5
156B
 10
39.2617
 20
26.7224
 30
6.61187e-020
  70
    32
  0
VERTEX
  8
241
  5
156C
 10
39.2620
 20
26.7142
 30
6.59410e-020
  70
    32
  0
VERTEX
  8
241
  5
156D
 10
39.2623
 20
26.7059
 30
6.57565e-020
  70
    32
  0
VERTEX
  8
241
  5
156E
 10
39.2626
 20
26.6976
 30
6.55652e-020
  70
    32
  0
VERTEX
  8
241
  5
156F
 10
39.2629
 20
26.6894
 30
6.53671e-020
  70
    32
  0
VERTEX
  8
241
  5
1570
 10
39.2632
 20
26.6812
 30
6.51623e-020
  70
    32
  0
VERTEX
  8
241
  5
1571
 10
39.2635
 20
26.6730
 30
6.49508e-020
  70
    32
  0
VERTEX
  8
241
  5
1572
 10
39.2639
 20
26.6649
 30
6.47325e-020
  70
    32
  0
VERTEX
  8
241
  5
1573
 10
39.2642
 20
26.6568
 30
6.45076e-020
  70
    32
  0
VERTEX
  8
241
  5
1574
 10
39.2646
 20
26.6487
 30
6.42760e-020
  70
    32
  0
VERTEX
  8
241
  5
1575
 10
39.2650
 20
26.6406
 30
6.40378e-020
  70
    32
  0
VERTEX
  8
241
  5
1576
 10
39.2653
 20
26.6326
 30
6.37930e-020
  70
    32
  0
VERTEX
  8
241
  5
1577
 10
39.2657
 20
26.6246
 30
6.35416e-020
  70
    32
  0
VERTEX
  8
241
  5
1578
 10
39.2661
 20
26.6166
 30
6.32837e-020
  70
    32
  0
VERTEX
  8
241
  5
1579
 10
39.2665
 20
26.6087
 30
6.30192e-020
  70
    32
  0
VERTEX
  8
241
  5
157A
 10
39.2669
 20
26.6008
 30
6.27482e-020
  70
    32
  0
VERTEX
  8
241
  5
157B
 10
39.2673
 20
26.5930
 30
6.24708e-020
  70
    32
  0
VERTEX
  8
241
  5
157C
 10
39.2677
 20
26.5851
 30
6.21869e-020
  70
    32
  0
VERTEX
  8
241
  5
157D
 10
39.2682
 20
26.5773
 30
6.18965e-020
  70
    32
  0
VERTEX
  8
241
  5
157E
 10
39.2686
 20
26.5696
 30
6.15998e-020
  70
    32
  0
VERTEX
  8
241
  5
157F
 10
39.2691
 20
26.5619
 30
6.12968e-020
  70
    32
  0
VERTEX
  8
241
  5
1580
 10
39.2695
 20
26.5542
 30
6.09874e-020
  70
    32
  0
VERTEX
  8
241
  5
1581
 10
39.2700
 20
26.5465
 30
6.06717e-020
  70
    32
  0
VERTEX
  8
241
  5
1582
 10
39.2704
 20
26.5389
 30
6.03498e-020
  70
    32
  0
VERTEX
  8
241
  5
1583
 10
39.2709
 20
26.5314
 30
6.00217e-020
  70
    32
  0
VERTEX
  8
241
  5
1584
 10
39.2714
 20
26.5239
 30
5.96873e-020
  70
    32
  0
VERTEX
  8
241
  5
1585
 10
39.2719
 20
26.5164
 30
5.93468e-020
  70
    32
  0
VERTEX
  8
241
  5
1586
 10
39.2724
 20
26.5090
 30
5.90002e-020
  70
    32
  0
VERTEX
  8
241
  5
1587
 10
39.2729
 20
26.5016
 30
5.86475e-020
  70
    32
  0
VERTEX
  8
241
  5
1588
 10
39.2734
 20
26.4942
 30
5.82887e-020
  70
    32
  0
VERTEX
  8
241
  5
1589
 10
39.2739
 20
26.4869
 30
5.79239e-020
  70
    32
  0
VERTEX
  8
241
  5
158A
 10
39.2745
 20
26.4797
 30
5.75531e-020
  70
    32
  0
VERTEX
  8
241
  5
158B
 10
39.2750
 20
26.4725
 30
5.71764e-020
  70
    32
  0
VERTEX
  8
241
  5
158C
 10
39.2755
 20
26.4653
 30
5.67939e-020
  70
    32
  0
VERTEX
  8
241
  5
158D
 10
39.2761
 20
26.4582
 30
5.64054e-020
  70
    32
  0
VERTEX
  8
241
  5
158E
 10
39.2766
 20
26.4512
 30
5.60111e-020
  70
    32
  0
VERTEX
  8
241
  5
158F
 10
39.2772
 20
26.4441
 30
5.56111e-020
  70
    32
  0
VERTEX
  8
241
  5
1590
 10
39.2778
 20
26.4372
 30
5.52053e-020
  70
    32
  0
VERTEX
  8
241
  5
1591
 10
39.2784
 20
26.4303
 30
5.47938e-020
  70
    32
  0
SEQEND
  8
241
  5
1592
  0
LINE
  5
127A
  8
241
 10
39.271376541738157
 20
27.453034724602691
 30
0.0
 11
39.282619188554513
 21
27.609446513552161
 31
0.0
  0
LINE
  5
127B
  8
241
 10
26.404290730013852
 20
25.955082140313511
 30
0.0
 11
26.377914792786591
 21
25.929783459305281
 31
0.0
  0
LINE
  5
128E
  8
241
 10
26.420578922831819
 20
28.54049536184796
 30
0.0
 11
26.41964757164607
 21
27.13375841785977
 31
0.0
  0
POLYLINE
  5
1292
  8
241
 10
26.45102055012455
 20
26.109944525815767
 30
0.0
 66
     1
 70
     8
  0
VERTEX
  8
241
  5
1593
 10
26.4510
 20
26.1099
 30
0.000000
  70
    32
  0
VERTEX
  8
241
  5
1594
 10
26.4530
 20
26.1167
 30
0.000000
  70
    32
  0
VERTEX
  8
241
  5
1595
 10
26.4550
 20
26.1235
 30
0.000000
  70
    32
  0
VERTEX
  8
241
  5
1596
 10
26.4570
 20
26.1303
 30
0.000000
  70
    32
  0
VERTEX
  8
241
  5
1597
 10
26.4589
 20
26.1372
 30
0.000000
  70
    32
  0
VERTEX
  8
241
  5
1598
 10
26.4608
 20
26.1442
 30
0.000000
  70
    32
  0
VERTEX
  8
241
  5
1599
 10
26.4626
 20
26.1512
 30
0.000000
  70
    32
  0
VERTEX
  8
241
  5
159A
 10
26.4644
 20
26.1583
 30
0.000000
  70
    32
  0
VERTEX
  8
241
  5
159B
 10
26.4662
 20
26.1654
 30
0.000000
  70
    32
  0
VERTEX
  8
241
  5
159C
 10
26.4680
 20
26.1725
 30
0.000000
  70
    32
  0
VERTEX
  8
241
  5
159D
 10
26.4697
 20
26.1797
 30
0.000000
  70
    32
  0
VERTEX
  8
241
  5
159E
 10
26.4714
 20
26.1870
 30
0.000000
  70
    32
  0
VERTEX
  8
241
  5
159F
 10
26.4730
 20
26.1943
 30
0.000000
  70
    32
  0
VERTEX
  8
241
  5
15A0
 10
26.4746
 20
26.2016
 30
0.000000
  70
    32
  0
VERTEX
  8
241
  5
15A1
 10
26.4762
 20
26.2090
 30
0.000000
  70
    32
  0
VERTEX
  8
241
  5
15A2
 10
26.4778
 20
26.2164
 30
0.000000
  70
    32
  0
VERTEX
  8
241
  5
15A3
 10
26.4793
 20
26.2239
 30
0.000000
  70
    32
  0
VERTEX
  8
241
  5
15A4
 10
26.4808
 20
26.2314
 30
0.000000
  70
    32
  0
VERTEX
  8
241
  5
15A5
 10
26.4822
 20
26.2390
 30
0.000000
  70
    32
  0
VERTEX
  8
241
  5
15A6
 10
26.4836
 20
26.2466
 30
0.000000
  70
    32
  0
VERTEX
  8
241
  5
15A7
 10
26.4850
 20
26.2542
 30
0.000000
  70
    32
  0
VERTEX
  8
241
  5
15A8
 10
26.4863
 20
26.2619
 30
0.000000
  70
    32
  0
VERTEX
  8
241
  5
15A9
 10
26.4876
 20
26.2696
 30
0.000000
  70
    32
  0
VERTEX
  8
241
  5
15AA
 10
26.4889
 20
26.2773
 30
0.000000
  70
    32
  0
VERTEX
  8
241
  5
15AB
 10
26.4902
 20
26.2851
 30
0.000000
  70
    32
  0
VERTEX
  8
241
  5
15AC
 10
26.4914
 20
26.2930
 30
0.000000
  70
    32
  0
VERTEX
  8
241
  5
15AD
 10
26.4925
 20
26.3008
 30
0.000000
  70
    32
  0
VERTEX
  8
241
  5
15AE
 10
26.4936
 20
26.3087
 30
0.000000
  70
    32
  0
VERTEX
  8
241
  5
15AF
 10
26.4947
 20
26.3167
 30
0.000000
  70
    32
  0
VERTEX
  8
241
  5
15B0
 10
26.4958
 20
26.3246
 30
0.000000
  70
    32
  0
VERTEX
  8
241
  5
15B1
 10
26.4968
 20
26.3326
 30
0.000000
  70
    32
  0
VERTEX
  8
241
  5
15B2
 10
26.4978
 20
26.3407
 30
0.000000
  70
    32
  0
VERTEX
  8
241
  5
15B3
 10
26.4988
 20
26.3487
 30
0.000000
  70
    32
  0
VERTEX
  8
241
  5
15B4
 10
26.4997
 20
26.3568
 30
0.000000
  70
    32
  0
VERTEX
  8
241
  5
15B5
 10
26.5005
 20
26.3649
 30
0.000000
  70
    32
  0
VERTEX
  8
241
  5
15B6
 10
26.5014
 20
26.3731
 30
0.000000
  70
    32
  0
VERTEX
  8
241
  5
15B7
 10
26.5022
 20
26.3813
 30
0.000000
  70
    32
  0
VERTEX
  8
241
  5
15B8
 10
26.5029
 20
26.3895
 30
0.000000
  70
    32
  0
VERTEX
  8
241
  5
15B9
 10
26.5037
 20
26.3977
 30
0.000000
  70
    32
  0
VERTEX
  8
241
  5
15BA
 10
26.5044
 20
26.4059
 30
0.000000
  70
    32
  0
VERTEX
  8
241
  5
15BB
 10
26.5050
 20
26.4142
 30
0.000000
  70
    32
  0
VERTEX
  8
241
  5
15BC
 10
26.5056
 20
26.4225
 30
0.000000
  70
    32
  0
VERTEX
  8
241
  5
15BD
 10
26.5062
 20
26.4308
 30
0.000000
  70
    32
  0
VERTEX
  8
241
  5
15BE
 10
26.5068
 20
26.4392
 30
0.000000
  70
    32
  0
VERTEX
  8
241
  5
15BF
 10
26.5073
 20
26.4475
 30
0.000000
  70
    32
  0
VERTEX
  8
241
  5
15C0
 10
26.5077
 20
26.4559
 30
0.000000
  70
    32
  0
VERTEX
  8
241
  5
15C1
 10
26.5082
 20
26.4643
 30
0.000000
  70
    32
  0
VERTEX
  8
241
  5
15C2
 10
26.5086
 20
26.4728
 30
0.000000
  70
    32
  0
VERTEX
  8
241
  5
15C3
 10
26.5089
 20
26.4812
 30
0.000000
  70
    32
  0
VERTEX
  8
241
  5
15C4
 10
26.5092
 20
26.4896
 30
0.000000
  70
    32
  0
VERTEX
  8
241
  5
15C5
 10
26.5095
 20
26.4981
 30
0.000000
  70
    32
  0
VERTEX
  8
241
  5
15C6
 10
26.5098
 20
26.5066
 30
0.000000
  70
    32
  0
VERTEX
  8
241
  5
15C7
 10
26.5100
 20
26.5151
 30
0.000000
  70
    32
  0
VERTEX
  8
241
  5
15C8
 10
26.5101
 20
26.5236
 30
0.000000
  70
    32
  0
VERTEX
  8
241
  5
15C9
 10
26.5103
 20
26.5321
 30
0.000000
  70
    32
  0
VERTEX
  8
241
  5
15CA
 10
26.5104
 20
26.5406
 30
0.000000
  70
    32
  0
VERTEX
  8
241
  5
15CB
 10
26.5104
 20
26.5492
 30
0.000000
  70
    32
  0
VERTEX
  8
241
  5
15CC
 10
26.5104
 20
26.5577
 30
0.000000
  70
    32
  0
VERTEX
  8
241
  5
15CD
 10
26.5104
 20
26.5663
 30
0.000000
  70
    32
  0
VERTEX
  8
241
  5
15CE
 10
26.5104
 20
26.5749
 30
0.000000
  70
    32
  0
VERTEX
  8
241
  5
15CF
 10
26.5103
 20
26.5834
 30
0.000000
  70
    32
  0
VERTEX
  8
241
  5
15D0
 10
26.5101
 20
26.5920
 30
0.000000
  70
    32
  0
VERTEX
  8
241
  5
15D1
 10
26.5100
 20
26.6006
 30
0.000000
  70
    32
  0
VERTEX
  8
241
  5
15D2
 10
26.5098
 20
26.6092
 30
0.000000
  70
    32
  0
VERTEX
  8
241
  5
15D3
 10
26.5095
 20
26.6178
 30
0.000000
  70
    32
  0
VERTEX
  8
241
  5
15D4
 10
26.5092
 20
26.6264
 30
0.000000
  70
    32
  0
VERTEX
  8
241
  5
15D5
 10
26.5089
 20
26.6350
 30
0.000000
  70
    32
  0
VERTEX
  8
241
  5
15D6
 10
26.5086
 20
26.6436
 30
0.000000
  70
    32
  0
VERTEX
  8
241
  5
15D7
 10
26.5082
 20
26.6521
 30
0.000000
  70
    32
  0
VERTEX
  8
241
  5
15D8
 10
26.5077
 20
26.6607
 30
0.000000
  70
    32
  0
VERTEX
  8
241
  5
15D9
 10
26.5073
 20
26.6693
 30
0.000000
  70
    32
  0
VERTEX
  8
241
  5
15DA
 10
26.5068
 20
26.6779
 30
0.000000
  70
    32
  0
VERTEX
  8
241
  5
15DB
 10
26.5062
 20
26.6865
 30
0.000000
  70
    32
  0
VERTEX
  8
241
  5
15DC
 10
26.5056
 20
26.6951
 30
0.000000
  70
    32
  0
VERTEX
  8
241
  5
15DD
 10
26.5050
 20
26.7036
 30
0.000000
  70
    32
  0
VERTEX
  8
241
  5
15DE
 10
26.5044
 20
26.7122
 30
0.000000
  70
    32
  0
VERTEX
  8
241
  5
15DF
 10
26.5037
 20
26.7208
 30
0.000000
  70
    32
  0
VERTEX
  8
241
  5
15E0
 10
26.5029
 20
26.7293
 30
0.000000
  70
    32
  0
VERTEX
  8
241
  5
15E1
 10
26.5022
 20
26.7378
 30
0.000000
  70
    32
  0
VERTEX
  8
241
  5
15E2
 10
26.5014
 20
26.7464
 30
0.000000
  70
    32
  0
VERTEX
  8
241
  5
15E3
 10
26.5005
 20
26.7549
 30
0.000000
  70
    32
  0
VERTEX
  8
241
  5
15E4
 10
26.4997
 20
26.7634
 30
0.000000
  70
    32
  0
VERTEX
  8
241
  5
15E5
 10
26.4987
 20
26.7719
 30
0.000000
  70
    32
  0
VERTEX
  8
241
  5
15E6
 10
26.4978
 20
26.7804
 30
0.000000
  70
    32
  0
VERTEX
  8
241
  5
15E7
 10
26.4968
 20
26.7888
 30
0.000000
  70
    32
  0
VERTEX
  8
241
  5
15E8
 10
26.4958
 20
26.7973
 30
0.000000
  70
    32
  0
VERTEX
  8
241
  5
15E9
 10
26.4947
 20
26.8057
 30
0.000000
  70
    32
  0
VERTEX
  8
241
  5
15EA
 10
26.4936
 20
26.8141
 30
0.000000
  70
    32
  0
VERTEX
  8
241
  5
15EB
 10
26.4925
 20
26.8225
 30
0.000000
  70
    32
  0
VERTEX
  8
241
  5
15EC
 10
26.4913
 20
26.8309
 30
0.000000
  70
    32
  0
VERTEX
  8
241
  5
15ED
 10
26.4901
 20
26.8392
 30
0.000000
  70
    32
  0
VERTEX
  8
241
  5
15EE
 10
26.4889
 20
26.8476
 30
0.000000
  70
    32
  0
VERTEX
  8
241
  5
15EF
 10
26.4876
 20
26.8559
 30
0.000000
  70
    32
  0
VERTEX
  8
241
  5
15F0
 10
26.4863
 20
26.8642
 30
0.000000
  70
    32
  0
VERTEX
  8
241
  5
15F1
 10
26.4850
 20
26.8725
 30
0.000000
  70
    32
  0
VERTEX
  8
241
  5
15F2
 10
26.4836
 20
26.8807
 30
0.000000
  70
    32
  0
VERTEX
  8
241
  5
15F3
 10
26.4822
 20
26.8889
 30
0.000000
  70
    32
  0
VERTEX
  8
241
  5
15F4
 10
26.4808
 20
26.8971
 30
0.000000
  70
    32
  0
VERTEX
  8
241
  5
15F5
 10
26.4793
 20
26.9053
 30
0.000000
  70
    32
  0
VERTEX
  8
241
  5
15F6
 10
26.4778
 20
26.9134
 30
0.000000
  70
    32
  0
VERTEX
  8
241
  5
15F7
 10
26.4762
 20
26.9215
 30
0.000000
  70
    32
  0
VERTEX
  8
241
  5
15F8
 10
26.4746
 20
26.9296
 30
0.000000
  70
    32
  0
VERTEX
  8
241
  5
15F9
 10
26.4730
 20
26.9377
 30
0.000000
  70
    32
  0
VERTEX
  8
241
  5
15FA
 10
26.4714
 20
26.9457
 30
0.000000
  70
    32
  0
VERTEX
  8
241
  5
15FB
 10
26.4697
 20
26.9537
 30
0.000000
  70
    32
  0
VERTEX
  8
241
  5
15FC
 10
26.4679
 20
26.9616
 30
0.000000
  70
    32
  0
VERTEX
  8
241
  5
15FD
 10
26.4662
 20
26.9695
 30
0.000000
  70
    32
  0
VERTEX
  8
241
  5
15FE
 10
26.4644
 20
26.9774
 30
0.000000
  70
    32
  0
VERTEX
  8
241
  5
15FF
 10
26.4626
 20
26.9853
 30
0.000000
  70
    32
  0
VERTEX
  8
241
  5
1600
 10
26.4607
 20
26.9931
 30
0.000000
  70
    32
  0
VERTEX
  8
241
  5
1601
 10
26.4589
 20
27.0009
 30
0.000000
  70
    32
  0
VERTEX
  8
241
  5
1602
 10
26.4569
 20
27.0086
 30
0.000000
  70
    32
  0
VERTEX
  8
241
  5
1603
 10
26.4550
 20
27.0163
 30
0.000000
  70
    32
  0
VERTEX
  8
241
  5
1604
 10
26.4530
 20
27.0240
 30
0.000000
  70
    32
  0
VERTEX
  8
241
  5
1605
 10
26.4510
 20
27.0316
 30
0.000000
  70
    32
  0
VERTEX
  8
241
  5
1606
 10
26.4490
 20
27.0392
 30
0.000000
  70
    32
  0
VERTEX
  8
241
  5
1607
 10
26.4469
 20
27.0467
 30
0.000000
  70
    32
  0
VERTEX
  8
241
  5
1608
 10
26.4448
 20
27.0542
 30
0.000000
  70
    32
  0
VERTEX
  8
241
  5
1609
 10
26.4427
 20
27.0617
 30
0.000000
  70
    32
  0
VERTEX
  8
241
  5
160A
 10
26.4405
 20
27.0691
 30
0.000000
  70
    32
  0
VERTEX
  8
241
  5
160B
 10
26.4383
 20
27.0765
 30
0.000000
  70
    32
  0
VERTEX
  8
241
  5
160C
 10
26.4361
 20
27.0838
 30
0.000000
  70
    32
  0
VERTEX
  8
241
  5
160D
 10
26.4338
 20
27.0911
 30
0.000000
  70
    32
  0
VERTEX
  8
241
  5
160E
 10
26.4315
 20
27.0983
 30
0.000000
  70
    32
  0
VERTEX
  8
241
  5
160F
 10
26.4292
 20
27.1055
 30
0.000000
  70
    32
  0
VERTEX
  8
241
  5
1610
 10
26.4269
 20
27.1126
 30
0.000000
  70
    32
  0
VERTEX
  8
241
  5
1611
 10
26.4245
 20
27.1197
 30
0.000000
  70
    32
  0
VERTEX
  8
241
  5
1612
 10
26.4221
 20
27.1268
 30
0.000000
  70
    32
  0
VERTEX
  8
241
  5
1613
 10
26.4196
 20
27.1338
 30
0.000000
  70
    32
  0
SEQEND
  8
241
  5
1614
  0
LINE
  5
1293
  8
241
 10
26.451020550124579
 20
26.109944525815781
 30
0.0
 11
26.404290730013891
 21
25.955082140313511
 31
0.0
  0
LINE
  5
1299
  8
240
 10
40.000300000000003
 20
31.5
 30
-0.0000000000000002
 11
40.000300000000003
 21
28.562789465996701
 31
-0.0000000000000002
  0
LINE
  5
129A
  8
240
 10
40.000300000000003
 20
31.5
 30
0.0
 11
27.27700787577545
 21
31.5
 31
0.0
  0
LINE
  5
129B
  8
240
 10
27.27700787577545
 20
31.5
 30
0.0
 11
27.027477816404641
 21
30.637715550685169
 31
0.0
  0
LINE
  5
12AC
  8
245
 10
36.984870826736142
 20
26.45800000000008
 30
0.0
 11
30.063999783104691
 21
26.458000000000201
 31
0.0
  0
LINE
  5
12AD
  8
245
 10
33.607300000016266
 20
23.324004701056079
 30
0.0
 11
33.607300000016266
 21
29.83083627691542
 31
0.0
  0
CIRCLE
  5
12B4
  8
241
 10
33.607300000016266
 20
26.45800000000013
 30
0.0
 40
2.75
  0
LINE
  5
12B7
  8
241
 10
34.196794263150061
 20
29.144074554760731
 30
0.0
 11
27.26381268400436
 21
31.454402252383421
 31
0.0
  0
LINE
  5
12B8
  8
241
 10
33.657553835186633
 20
23.708459210695359
 30
0.0
 11
38.445389216087328
 21
22.11297412741958
 31
0.0
  0
LINE
  5
12C1
  8
240
 10
39.400300000000001
 20
-27.765769729166021
 30
0.0
 11
40.000300000000003
 21
-28.562789465996719
 31
0.0
  0
LINE
  5
12C2
  8
240
 10
40.000300000000003
 20
-31.500000000000021
 30
-0.0000000000000002
 11
40.000300000000003
 21
-28.562789465996719
 31
-0.0000000000000002
  0
LINE
  5
12C3
  8
240
 10
40.000300000000003
 20
-31.500000000000021
 30
0.0
 11
27.27700787577545
 21
-31.500000000000021
 31
0.0
  0
LINE
  5
12C4
  8
240
 10
27.27700787577545
 20
-31.5
 30
0.0
 11
27.027477816404652
 21
-30.637715550685179
 31
0.0
  0
LINE
  5
1312
  8
241
 10
27.027477816404641
 20
30.637715550685169
 30
0.0
 11
26.420578922831819
 21
28.54049536184796
 31
0.0
  0
LINE
  5
131B
  8
241
 10
39.400300000000001
 20
27.765769729165999
 30
0.0
 11
39.282619188554513
 21
27.609446513552161
 31
0.0
  0
LINE
  5
1321
  8
241
 10
39.400300000000001
 20
-27.765769729166021
 30
0.0
 11
39.400300000000001
 21
-30.442
 31
0.0
  0
LINE
  5
1324
  8
240
 10
25.22268826650685
 20
-30.666264042068651
 30
0.0
 11
27.027477816404652
 21
-30.637715550685179
 31
0.0
  0
LINE
  5
132F
  8
240
 10
39.400300000000001
 20
13.79458555498884
 30
0.0
 11
40.00030000000001
 21
13.576203414429139
 31
0.0
  0
LINE
  5
1335
  8
240
 10
39.400300000000001
 20
19.284822086962521
 30
0.0
 11
39.400300000000001
 21
27.76576972916601
 31
0.0
  0
LINE
  5
1336
  8
240
 10
39.400300000000001
 20
19.284822086962532
 30
0.0
 11
40.00030000000001
 21
13.576203414429139
 31
0.0
  0
LINE
  5
1342
  8
241
 10
25.191055859999999
 20
-30.666514209999999
 30
0.0
 11
25.191055859999999
 21
-21.06489172796616
 31
0.0
  0
LINE
  5
134B
  8
241
 10
25.191055859999999
 20
18.751907122348111
 30
0.0
 11
25.191055859999999
 21
26.389735588493082
 31
0.0
  0
LINE
  5
134C
  8
241
 10
25.191055859999999
 20
-10.6479731404169
 30
0.0
 11
25.191055859999999
 21
7.6316639244495974
 31
0.0
  0
LINE
  5
134D
  8
240
 10
39.400300000000001
 20
-10.115058175802419
 30
0.0
 11
39.400300000000001
 21
13.79458555498884
 31
0.0
  0
LINE
  5
134F
  8
240
 10
39.400300000000001
 20
-15.60529470777616
 30
0.0
 11
40.00030000000001
 21
-15.823676848335859
 31
0.0
  0
LINE
  5
1355
  8
240
 10
39.400300000000001
 20
-10.115058175802419
 30
0.0
 11
40.00030000000001
 21
-15.823676848335859
 31
0.0
  0
LINE
  5
1369
  8
250
 10
0.0
 20
24.0
 30
0.0
 11
0.0
 21
50.0
 31
0.0
  0
LINE
  5
136A
  8
250
 10
40.000300000000003
 20
32.0
 30
0.0
 11
40.000300000000003
 21
50.0
 31
0.0
  0
LINE
  5
136B
  8
250
 10
2.2299999999999991
 20
49.0
 30
0.0
 11
37.770299999999999
 21
49.0
 31
0.0
  0
LINE
  5
136F
  8
250
 10
29.000299999999999
 20
32.0
 30
0.0
 11
29.000299999999999
 21
43.0
 31
0.0
  0
LINE
  5
1370
  8
250
 10
40.000300000000003
 20
32.0
 30
0.0
 11
40.000300000000003
 21
43.0
 31
0.0
  0
LINE
  5
1371
  8
250
 10
31.2303
 20
42.0
 30
0.0
 11
37.770299999999999
 21
42.0
 31
0.0
  0
LINE
  5
1375
  8
250
 10
40.500300000000003
 20
-31.5
 30
0.0
 11
56.999999999999993
 21
-31.5
 31
0.0
  0
LINE
  5
1376
  8
250
 10
40.500300000000003
 20
31.5
 30
0.0
 11
57.0
 21
31.5
 31
0.0
  0
LINE
  5
1377
  8
250
 10
55.999999999999979
 20
-29.27
 30
0.0
 11
56.0
 21
29.27
 31
0.0
  0
LINE
  5
137B
  8
250
 10
-0.5
 20
-23.5
 30
0.0
 11
-25.5
 21
-23.5
 31
0.0
  0
LINE
  5
137C
  8
250
 10
-0.5
 20
23.5
 30
0.0
 11
-25.5
 21
23.5
 31
0.0
  0
LINE
  5
137D
  8
250
 10
-24.5
 20
-21.27
 30
0.0
 11
-24.5
 21
21.27
 31
0.0
  0
LINE
  5
1381
  8
250
 10
-0.5
 20
11.0
 30
0.0
 11
-18.5
 21
11.0
 31
0.0
  0
LINE
  5
1382
  8
250
 10
-17.5
 20
-8.7699999999999996
 30
0.0
 11
-17.5
 21
8.7699999999999996
 31
0.0
  0
INSERT
  5
1383
  8
250
  6
CONTINUOUS
  2
矢印なし
 10
-17.5
 20
-11.0
 30
0.0
 41
2.2299999999999991
 42
2.2299999999999991
 43
2.2299999999999991
 50
270.0
  0
LINE
  5
1386
  8
250
 10
-0.5
 20
-5.2000000000000002
 30
0.0
 11
-11.5
 21
-5.2000000000000002
 31
0.0
  0
LINE
  5
1387
  8
250
 10
-0.5
 20
5.2000000000000002
 30
0.0
 11
-11.5
 21
5.2000000000000002
 31
0.0
  0
LINE
  5
1388
  8
250
 10
-10.5
 20
-2.9700000000000002
 30
0.0
 11
-10.5
 21
2.9700000000000002
 31
0.0
  0
TEXT
  5
138C
  8
250
 10
17.33348333333333
 20
50.0
 30
0.0
 40
2.7999999999999989
  1
40
1001
ACAD
1000
MTEXTBEGIN
1070
    73
1070
     1
1070
    44
1040
1.0
1070
    74
1070
     0
1000
MTEXTEND
  0
LINE
  5
138D
  8
250
 10
37.770300000000013
 20
49.37166666666667
 30
0.0
 11
40.000300000000003
 21
49.0
 31
0.0
  0
LINE
  5
138E
  8
250
 10
37.770300000000013
 20
48.62833333333333
 30
0.0
 11
40.000300000000003
 21
49.0
 31
0.0
  0
LINE
  5
138F
  8
250
 10
40.000300000000003
 20
49.0
 30
0.0
 11
37.770300000000013
 21
49.0
 31
0.0
  0
LINE
  5
1390
  8
250
 10
2.2299999999999991
 20
48.62833333333333
 30
0.0
 11
0.0
 21
49.0
 31
0.0
  0
LINE
  5
1391
  8
250
 10
2.2299999999999991
 20
49.37166666666667
 30
0.0
 11
0.0
 21
49.0
 31
0.0
  0
LINE
  5
1392
  8
250
 10
0.0
 20
49.0
 30
0.0
 11
2.2299999999999991
 21
49.0
 31
0.0
  0
TEXT
  5
1393
  8
250
 10
32.033633333333341
 20
43.0
 30
0.0
 40
2.7999999999999989
  1
11
1001
ACAD
1000
MTEXTBEGIN
1070
    73
1070
     1
1070
    44
1040
1.0
1070
    74
1070
     0
1000
MTEXTEND
  0
LINE
  5
1394
  8
250
 10
37.770300000000013
 20
42.371666666666663
 30
0.0
 11
40.000300000000003
 21
42.0
 31
0.0
  0
LINE
  5
1395
  8
250
 10
37.770300000000013
 20
41.62833333333333
 30
0.0
 11
40.000300000000003
 21
42.0
 31
0.0
  0
LINE
  5
1396
  8
250
 10
40.000300000000003
 20
42.0
 30
0.0
 11
37.770300000000013
 21
42.0
 31
0.0
  0
LINE
  5
1397
  8
250
 10
31.2303
 20
41.62833333333333
 30
0.0
 11
29.000299999999999
 21
42.0
 31
0.0
  0
LINE
  5
1398
  8
250
 10
31.2303
 20
42.371666666666663
 30
0.0
 11
29.000299999999999
 21
42.0
 31
0.0
  0
LINE
  5
1399
  8
250
 10
29.000299999999999
 20
42.0
 30
0.0
 11
31.2303
 21
42.0
 31
0.0
  0
TEXT
  5
139A
  8
250
 10
55.0
 20
-3.7999999999999918
 30
0.0
 40
2.7999999999999989
  1
\U+2205
 50
90.0
  0
TEXT
  5
139B
  8
250
 10
55.0
 20
-1.2666666666666591
 30
0.0
 40
2.7999999999999989
  1
63
 50
90.0
  0
LINE
  5
139C
  8
250
 10
55.62833333333333
 20
29.27
 30
0.0
 11
56.0
 21
31.5
 31
0.0
  0
LINE
  5
139D
  8
250
 10
56.37166666666667
 20
29.27
 30
0.0
 11
56.0
 21
31.5
 31
0.0
  0
LINE
  5
139E
  8
250
 10
56.0
 20
31.5
 30
0.0
 11
56.0
 21
29.27
 31
0.0
  0
LINE
  5
139F
  8
250
 10
56.371666666666648
 20
-29.27
 30
0.0
 11
55.999999999999979
 21
-31.5
 31
0.0
  0
LINE
  5
13A0
  8
250
 10
55.628333333333309
 20
-29.27
 30
0.0
 11
55.999999999999979
 21
-31.5
 31
0.0
  0
LINE
  5
13A1
  8
250
 10
55.999999999999979
 20
-31.5
 30
0.0
 11
55.999999999999979
 21
-29.27
 31
0.0
  0
TEXT
  5
13A2
  8
250
 10
-25.5
 20
-3.7999999999999989
 30
0.0
 40
2.7999999999999989
  1
\U+2205
 50
90.0
1001
ACAD
1000
MTEXTBEGIN
1070
    73
1070
     1
1070
    44
1040
1.0
1070
    74
1070
     0
1000
MTEXTEND
  0
TEXT
  5
13A3
  8
250
 10
-25.5
 20
-1.2666666666666671
 30
0.0
 40
2.7999999999999989
  1
47
 50
90.0
1001
ACAD
1000
MTEXTBEGIN
1070
    73
1070
     1
1070
    44
1040
1.0
1070
    74
1070
     0
1000
MTEXTEND
  0
LINE
  5
13A4
  8
250
 10
-24.87166666666667
 20
21.27
 30
0.0
 11
-24.5
 21
23.5
 31
0.0
  0
LINE
  5
13A5
  8
250
 10
-24.12833333333333
 20
21.27
 30
0.0
 11
-24.5
 21
23.5
 31
0.0
  0
LINE
  5
13A6
  8
250
 10
-24.5
 20
23.5
 30
0.0
 11
-24.5
 21
21.27
 31
0.0
  0
LINE
  5
13A7
  8
250
 10
-24.12833333333333
 20
-21.27
 30
0.0
 11
-24.5
 21
-23.5
 31
0.0
  0
LINE
  5
13A8
  8
250
 10
-24.87166666666667
 20
-21.27
 30
0.0
 11
-24.5
 21
-23.5
 31
0.0
  0
LINE
  5
13A9
  8
250
 10
-24.5
 20
-23.5
 30
0.0
 11
-24.5
 21
-21.27
 31
0.0
  0
TEXT
  5
13AA
  8
250
 10
-18.5
 20
-3.7999999999999989
 30
0.0
 40
2.7999999999999989
  1
\U+2205
 50
90.0
  0
TEXT
  5
13AB
  8
250
 10
-18.5
 20
-1.2666666666666659
 30
0.0
 40
2.7999999999999989
  1
22
 50
90.0
  0
LINE
  5
13AC
  8
250
 10
-17.871666666666659
 20
8.7699999999999996
 30
0.0
 11
-17.5
 21
11.0
 31
0.0
  0
LINE
  5
13AD
  8
250
 10
-17.12833333333333
 20
8.7699999999999996
 30
0.0
 11
-17.5
 21
11.0
 31
0.0
  0
LINE
  5
13AE
  8
250
 10
-17.5
 20
11.0
 30
0.0
 11
-17.5
 21
8.7699999999999996
 31
0.0
  0
TEXT
  5
13AF
  8
250
 10
-11.5
 20
-4.9333333333333318
 30
0.0
 40
2.7999999999999989
  1
10.4
 50
90.0
1001
ACAD
1000
MTEXTBEGIN
1070
    73
1070
     1
1070
    44
1040
1.0
1070
    74
1070
     0
1000
MTEXTEND
  0
LINE
  5
13B0
  8
250
 10
-10.871666666666661
 20
2.9700000000000002
 30
0.0
 11
-10.5
 21
5.2000000000000002
 31
0.0
  0
LINE
  5
13B1
  8
250
 10
-10.12833333333333
 20
2.9700000000000002
 30
0.0
 11
-10.5
 21
5.2000000000000002
 31
0.0
  0
LINE
  5
13B2
  8
250
 10
-10.5
 20
5.2000000000000002
 30
0.0
 11
-10.5
 21
2.9700000000000002
 31
0.0
  0
LINE
  5
13B3
  8
250
 10
-10.12833333333333
 20
-2.9700000000000002
 30
0.0
 11
-10.5
 21
-5.2000000000000002
 31
0.0
  0
LINE
  5
13B4
  8
250
 10
-10.871666666666661
 20
-2.9700000000000002
 30
0.0
 11
-10.5
 21
-5.2000000000000002
 31
0.0
  0
LINE
  5
13B5
  8
250
 10
-10.5
 20
-5.2000000000000002
 30
0.0
 11
-10.5
 21
-2.9700000000000002
 31
0.0
  0
VIEWPORT
  5
22
 67
     1
  8
0
 10
261.51769911999997
 20
148.5
 30
0.0
 40
523.03539823000006
 41
297.0
 68
     1
 69
     1
1001
ACAD
1000
MVIEW
1002
{
1070
    16
1010
0.0
1020
0.0
1030
0.0
1010
0.0
1020
0.0
1030
1.0
1040
0.0
1040
297.0
1040
261.51769911999997
1040
148.5
1040
50.0
1040
0.0
1040
0.0
1070
     0
1070
   100
1070
     1
1070
     1
1070
     0
1070
     0
1070
     0
1070
     0
1040
0.0
1040
0.0
1040
0.0
1040
1.0
1040
1.0
1040
10.0
1040
10.0
1070
     0
1002
{
1002
}
1002
}
1001
GENIUS_GENOBJ-N-SDF_13
1002
{
1000
OWNER
1000
GEN
1002
}
1001
GENIUS_GENODEF_13
1002
{
1000
HIER
1070
     0
1002
}
1002
{
1000
MANEDIT
1070
     0
1002
}
1002
{
1000
NOSEL
1070
     0
1002
}
1002
{
1000
BEHIND
1070
     0
1002
}
1002
{
1000
OTHER
1070
     0
1002
}
1002
{
1000
REACTOR
1002
}
1001
GENIUS_GENSCREG_15
1000
PF
1040
1.0
1000
DF
1040
1.0
1000
MIN
1011
0.0000000049999471
1021
0.0
1031
0.0
1021
0.0
1031
0.0
1000
MAX
1011
523.035398235
1021
0.0
1031
0.0
1021
297.0
1031
0.0
1000
FLAGS
1070
     2
  0
ENDSEC
  0
EOF
