  0
SECTION
  2
HEADER
  9
$ACADVER
  1
AC1009
  9
$INSBASE
 10
0.0
 20
0.0
 30
0.0
  9
$EXTMIN
 10
-25.894725644044691
 20
-49.415833317577722
 30
-0.0000000349181948
  9
$EXTMAX
 10
68.946793256752471
 20
81.008526868483727
 30
0.0000000814935747
  9
$LIMMIN
 10
0.0
 20
0.0
  9
$LIMMAX
 10
297.0
 20
210.0
  9
$ORTHOMODE
 70
     1
  9
$REGENMODE
 70
     1
  9
$FILLMODE
 70
     1
  9
$QTEXTMODE
 70
     0
  9
$MIRRTEXT
 70
     1
  9
$DRAGMODE
 70
     2
  9
$LTSCALE
 40
10.0
  9
$OSMODE
 70
  3071
  9
$ATTMODE
 70
     1
  9
$TEXTSIZE
 40
4.0
  9
$TRACEWID
 40
1.0
  9
$TEXTSTYLE
  7
YOKO
  9
$CLAYER
  8
241
  9
$CELTYPE
  6
BYLAYER
  9
$CECOLOR
 62
   256
  9
$DIMSCALE
 40
1.0
  9
$DIMASZ
 40
2.2299999999999991
  9
$DIMEXO
 40
0.5
  9
$DIMDLI
 40
7.0
  9
$DIMRND
 40
0.0
  9
$DIMDLE
 40
0.0
  9
$DIMEXE
 40
1.0
  9
$DIMTP
 40
0.0
  9
$DIMTM
 40
0.01
  9
$DIMTXT
 40
2.799999999999998
  9
$DIMCEN
 40
0.0
  9
$DIMTSZ
 40
0.0
  9
$DIMTOL
 70
     0
  9
$DIMLIM
 70
     0
  9
$DIMTIH
 70
     0
  9
$DIMTOH
 70
     0
  9
$DIMSE1
 70
     0
  9
$DIMSE2
 70
     0
  9
$DIMTAD
 70
     3
  9
$DIMZIN
 70
     9
  9
$DIMBLK
  1
OPEN
  9
$DIMASO
 70
     1
  9
$DIMSHO
 70
     1
  9
$DIMPOST
  1

  9
$DIMAPOST
  1

  9
$DIMALT
 70
     0
  9
$DIMALTD
 70
     2
  9
$DIMALTF
 40
25.399999999999999
  9
$DIMLFAC
 40
1.0
  9
$DIMTOFL
 70
     1
  9
$DIMTVP
 40
0.0
  9
$DIMTIX
 70
     1
  9
$DIMSOXD
 70
     0
  9
$DIMSAH
 70
     0
  9
$DIMBLK1
  1

  9
$DIMBLK2
  1

  9
$DIMSTYLE
  2
BIGT
  9
$DIMCLRD
 70
   256
  9
$DIMCLRE
 70
   256
  9
$DIMCLRT
 70
    40
  9
$DIMTFAC
 40
1.0
  9
$DIMGAP
 40
1.0
  9
$LUNITS
 70
     2
  9
$LUPREC
 70
     6
  9
$SKETCHINC
 40
1.0
  9
$FILLETRAD
 40
0.5
  9
$AUNITS
 70
     0
  9
$AUPREC
 70
     6
  9
$MENU
  1
.
  9
$ELEVATION
 40
0.0
  9
$PELEVATION
 40
0.0
  9
$THICKNESS
 40
0.0
  9
$LIMCHECK
 70
     0
  9
$BLIPMODE
 70
     0
  9
$CHAMFERA
 40
0.2
  9
$CHAMFERB
 40
0.2
  9
$SKPOLY
 70
     0
  9
$TDCREATE
 40
2457044.5881025582
  9
$TDUPDATE
 40
2457324.451309931
  9
$TDINDWG
 40
0.0196302546
  9
$TDUSRTIMER
 40
0.0196301736
  9
$USRTIMER
 70
     1
  9
$ANGBASE
 50
0.0
  9
$ANGDIR
 70
     0
  9
$PDMODE
 70
     1
  9
$PDSIZE
 40
0.0
  9
$PLINEWID
 40
0.0
  9
$COORDS
 70
     1
  9
$SPLFRAME
 70
     0
  9
$SPLINETYPE
 70
     6
  9
$SPLINESEGS
 70
     4
  9
$ATTDIA
 70
     1
  9
$ATTREQ
 70
     1
  9
$HANDLING
 70
     1
  9
$HANDSEED
  5
6180
  9
$SURFTAB1
 70
     6
  9
$SURFTAB2
 70
     6
  9
$SURFTYPE
 70
     6
  9
$SURFU
 70
     6
  9
$SURFV
 70
     6
  9
$UCSNAME
  2

  9
$UCSORG
 10
0.0
 20
0.0
 30
0.0
  9
$UCSXDIR
 10
1.0
 20
0.0
 30
0.0
  9
$UCSYDIR
 10
0.0
 20
1.0
 30
0.0
  9
$PUCSNAME
  2

  9
$PUCSORG
 10
0.0
 20
0.0
 30
0.0
  9
$PUCSXDIR
 10
1.0
 20
0.0
 30
0.0
  9
$PUCSYDIR
 10
0.0
 20
1.0
 30
0.0
  9
$USERI1
 70
     1
  9
$USERI2
 70
     0
  9
$USERI3
 70
     0
  9
$USERI4
 70
     0
  9
$USERI5
 70
     0
  9
$USERR1
 40
0.0
  9
$USERR2
 40
0.0
  9
$USERR3
 40
0.0
  9
$USERR4
 40
0.0
  9
$USERR5
 40
0.0
  9
$WORLDVIEW
 70
     1
  9
$SHADEDGE
 70
     3
  9
$SHADEDIF
 70
    70
  9
$TILEMODE
 70
     1
  9
$MAXACTVP
 70
    16
  9
$PLIMCHECK
 70
     0
  9
$PEXTMIN
 10
1.0000000000000000E+020
 20
1.0000000000000000E+020
 30
1.0000000000000000E+020
  9
$PEXTMAX
 10
-1.0000000000000000E+020
 20
-1.0000000000000000E+020
 30
-1.0000000000000000E+020
  9
$PLIMMIN
 10
0.0
 20
0.0
  9
$PLIMMAX
 10
420.0
 20
297.0
  9
$UNITMODE
 70
     0
  9
$VISRETAIN
 70
     1
  9
$PLINEGEN
 70
     0
  9
$PSLTSCALE
 70
     1
  0
ENDSEC
  0
SECTION
  2
TABLES
  0
TABLE
  2
VPORT
 70
     1
  0
VPORT
  2
*ACTIVE
 70
     0
 10
0.0
 20
0.0
 11
1.0
 21
1.0
 12
21.526033806353912
 22
15.796346775452999
 13
0.0
 23
0.0
 14
7.0
 24
7.0
 15
7.0
 25
7.0
 16
0.0
 26
0.0
 36
1.0
 17
0.0
 27
0.0
 37
0.0
 40
131.34826356400279
 41
1.643026004728132
 42
50.0
 43
0.0
 44
0.0
 50
0.0
 51
0.0
 71
     0
 72
  2000
 73
     1
 74
     0
 75
     0
 76
     1
 77
     0
 78
     0
  0
ENDTAB
  0
TABLE
  2
LTYPE
 70
    18
  0
LTYPE
  2
CONTINUOUS
 70
     0
  3
Solid line
 72
    65
 73
     0
 40
0.0
  0
LTYPE
  2
CENTER2
 70
     0
  3
___ _ ___ _ ___ _ ___ _ ___ _ ___ _ ___ _ ___ _
 72
    65
 73
     4
 40
1.125
 49
0.75
 49
-0.125
 49
0.125
 49
-0.125
  0
LTYPE
  2
HIDDEN2
 70
     0
  3
_ _ _ _ _ _ _ _ _ _ _ _ _ _ _ _ _ _ _ _ _ _ _ _
 72
    65
 73
     2
 40
0.1875
 49
0.125
 49
-0.0625
  0
LTYPE
  2
PHANTOM2
 70
     0
  3
___ _ _ ___ _ _ ___ _ _ ___ _ _ ___ _ _ ___ _ _
 72
    65
 73
     6
 40
1.25
 49
0.625
 49
-0.125
 49
0.125
 49
-0.125
 49
0.125
 49
-0.125
  0
LTYPE
  2
AMCONSTR
 70
     0
  3
_______________________
 72
    65
 73
     2
 40
9999.0
 49
9999.0
 49
0.0
  0
LTYPE
  2
HIDDEN
 70
     0
  3
Hidden __ __ __ __ __ __ __ __ __ __ __ __ __ _
 72
    65
 73
     2
 40
0.375
 49
0.25
 49
-0.125
  0
LTYPE
  2
CENTER
 70
     0
  3
Center ____ _ ____ _ ____ _ ____ _ ____ _ ____
 72
    65
 73
     4
 40
2.0
 49
1.25
 49
-0.25
 49
0.25
 49
-0.25
  0
LTYPE
  2
AMZIGZAG2
 70
     0
  3
/\/-/\/-/\/-/\/-/\/-/\/
 72
    65
 73
     2
 40
0.4401
 49
0.0001
 49
-0.4400000000000002
  0
LTYPE
  2
ACANSTGB
 70
     0
  3
__ . . __ . .
 72
    65
 73
     6
 40
0.35433070866
 49
0.15748031496
 49
-0.03937007874
 49
0.03937007874
 49
-0.03937007874
 49
0.03937007874
 49
-0.03937007874
  0
LTYPE
  2
ACANSTGL
 70
     0
  3
_ _ _ _ _
 72
    65
 73
     2
 40
0.11811023622
 49
0.07874015748
 49
-0.03937007874
  0
ENDTAB
  0
TABLE
  2
LAYER
 70
     8
  0
LAYER
  2
0
 70
     0
 62
     7
  6
CONTINUOUS
  0
LAYER
  2
241
 70
     0
 62
   211
  6
CONTINUOUS
  0
LAYER
  2
240
 70
     0
 62
     4
  6
CONTINUOUS
  0
LAYER
  2
DEFPOINTS
 70
     0
 62
     7
  6
CONTINUOUS
  0
LAYER
  2
245
 70
     0
 62
     2
  6
CENTER2
  0
LAYER
  2
243
 70
     0
 62
   211
  6
HIDDEN2
  0
LAYER
  2
250
 70
     0
 62
     3
  6
CONTINUOUS
  0
ENDTAB
  0
TABLE
  2
STYLE
 70
     6
  0
STYLE
  2
STANDARD
 70
     0
 40
0.0
 41
1.0
 50
0.0
 71
     0
 42
3.0
  3
romans.shx
  4
extfont.shx
  0
STYLE
  2
YOKO
 70
     0
 40
0.0
 41
1.0
 50
0.0
 71
     0
 42
4.0
  3
romans.shx
  4
extfont.shx
  0
STYLE
  2
ACANSGDT
 70
     0
 40
0.0
 41
1.0
 50
0.0
 71
     0
 42
4.0
  3
amgdt.shx
  4

  0
ENDTAB
  0
TABLE
  2
VIEW
 70
     0
  0
ENDTAB
  0
TABLE
  2
UCS
 70
     0
  0
ENDTAB
  0
TABLE
  2
APPID
 70
    41
  0
APPID
  2
ACAD
 70
     0
  0
APPID
  2
ACADANNOTATIVE
 70
     0
  0
APPID
  2
GLOBAL
 70
     0
  0
APPID
  2
DETAIL
 70
     0
  0
APPID
  2
GRPNAME
 70
     0
  0
APPID
  2
GPARA
 70
     0
  0
APPID
  2
MCAD_NO_VIS
 70
     0
  0
APPID
  2
ACAD_TEMP_GRAPHIC
 70
     0
  0
APPID
  2
ACATTRIBSERVICES
 70
     0
  0
APPID
  2
GENIUS_GENSCREG_15
 70
     0
  0
APPID
  2
GENIUS_GENODEF_13
 70
     0
  0
APPID
  2
GENIUS_GENOBJ-N-SDF_13
 70
     0
  0
APPID
  2
GENIUS_GENREC_14
 70
     0
  0
APPID
  2
GENIUS_GENOBJ-N-REC_13
 70
     0
  0
APPID
  2
GENIUS_GENDIMSH_14
 70
     0
  0
APPID
  2
GENIUS_GENOBJ-N-DIM_13
 70
     0
  0
APPID
  2
GENIUS_GENDIM_13
 70
     0
  0
APPID
  2
GENIUS_GENDTOL_13
 70
     0
  0
APPID
  2
GENIUS_GENOLIS_13
 70
     0
  0
APPID
  2
GENIUS_GENOENT_13
 70
     0
  0
APPID
  2
GENIUS_GENOBJ-F-FEM_13
 70
     0
  0
APPID
  2
GENIUS_GENOREF_13
 70
     0
  0
APPID
  2
GENIUS_GEFFEM_13
 70
     0
  0
APPID
  2
GENIUS_GEFFEMP_13
 70
     0
  0
APPID
  2
AD_DRAW
 70
     0
  0
APPID
  2
DESIGNERASSEMBLIES
 70
     0
  0
APPID
  2
ACADM_DIM_EDIT
 70
     0
  0
APPID
  2
AMDT_DM_ADJ
 70
     0
  0
APPID
  2
ITEMNAME
 70
     0
  0
APPID
  2
GENIUS_GENOBJ-N-FIL_13
 70
     0
  0
APPID
  2
GENIUS_GENFIL_13
 70
     0
  0
APPID
  2
GENIUS_GENOBJ-N-CHA_13
 70
     0
  0
APPID
  2
ACAD_NAV_VCDISPLAY
 70
     0
  0
APPID
  2
ACAD_PSEXT
 70
     0
  0
APPID
  2
ACAD_DSTYLE_DIMJAG
 70
     0
  0
APPID
  2
ACAD_DSTYLE_DIMTALN
 70
     0
  0
APPID
  2
ASK_MEN_XD
 70
     0
  0
APPID
  2
ACAD_EXEMPT_FROM_CAD_STANDARDS
 70
     0
  0
APPID
  2
ACAD_MLEADERVER
 70
     0
  0
APPID
  2
ACAD_DSTYLE_DIMBREAK
 70
     0
  0
APPID
  2
ACAECLAYERSTANDARD
 70
     0
  0
ENDTAB
  0
TABLE
  2
DIMSTYLE
 70
    10
  0
DIMSTYLE
  2
STANDARD
 70
     0
  3

  4

  5

  6

  7

 40
1.0
 41
0.18
 42
0.0625
 43
0.38
 44
0.18
 45
0.0
 46
0.0
 47
0.0
 48
0.0
140
0.18
141
0.09
142
0.0
143
25.399999999999999
144
1.0
145
0.0
146
1.0
147
0.09
 71
     0
 72
     0
 73
     1
 74
     1
 75
     0
 76
     0
 77
     0
 78
     0
170
     0
171
     2
172
     0
173
     0
174
     0
175
     0
176
     0
177
     0
178
     0
  0
DIMSTYLE
  2
BIGT
 70
     0
  3

  4

  5

  6

  7

 40
1.0
 41
2.2299999999999991
 42
0.5
 43
7.0
 44
1.0
 45
0.0
 46
0.0
 47
0.0
 48
0.01
140
2.799999999999998
141
0.0
142
0.0
143
25.399999999999999
144
1.0
145
0.0
146
1.0
147
1.0
 71
     0
 72
     0
 73
     0
 74
     0
 75
     0
 76
     0
 77
     3
 78
     9
170
     0
171
     2
172
     1
173
     0
174
     1
175
     0
176
   256
177
   256
178
    40
  0
DIMSTYLE
  2
AM_ANSI
 70
     0
  3

  4
mm
  5

  6

  7

 40
1.0
 41
0.12
 42
0.05
 43
0.5
 44
0.1
 45
0.0
 46
0.0
 47
0.1
 48
0.1
140
0.12
141
0.0
142
0.0
143
25.399999999999999
144
1.0
145
0.0
146
0.71
147
0.06
 71
     0
 72
     0
 73
     1
 74
     1
 75
     0
 76
     0
 77
     0
 78
     7
170
     0
171
     2
172
     0
173
     0
174
     0
175
     0
176
   256
177
   256
178
     2
  0
DIMSTYLE
  2
AM_ANSI$3
 70
     0
  3

  4
mm
  5

  6

  7

 40
1.0
 41
0.12
 42
0.05
 43
0.5
 44
0.1
 45
0.0
 46
0.0
 47
0.1
 48
0.1
140
0.12
141
0.0
142
0.0
143
25.399999999999999
144
1.0
145
0.0
146
0.71
147
0.06
 71
     0
 72
     0
 73
     1
 74
     1
 75
     0
 76
     0
 77
     0
 78
     7
170
     0
171
     2
172
     0
173
     0
174
     0
175
     0
176
   256
177
   256
178
     2
  0
DIMSTYLE
  2
AM_ANSI$4
 70
     0
  3

  4
mm
  5

  6

  7

 40
1.0
 41
0.12
 42
0.05
 43
0.5
 44
0.1
 45
0.0
 46
0.0
 47
0.1
 48
0.1
140
0.12
141
0.0
142
0.0
143
25.399999999999999
144
1.0
145
0.0
146
0.71
147
0.06
 71
     0
 72
     0
 73
     1
 74
     1
 75
     0
 76
     0
 77
     0
 78
     7
170
     0
171
     2
172
     0
173
     0
174
     0
175
     0
176
   256
177
   256
178
     2
  0
DIMSTYLE
  2
AM_ANSI$7
 70
     0
  3

  4
mm
  5

  6

  7

 40
1.0
 41
0.12
 42
0.05
 43
0.5
 44
0.1
 45
0.0
 46
0.0
 47
0.1
 48
0.1
140
0.12
141
0.0
142
0.0
143
25.399999999999999
144
1.0
145
0.0
146
0.71
147
0.06
 71
     0
 72
     0
 73
     1
 74
     1
 75
     0
 76
     0
 77
     0
 78
     7
170
     0
171
     2
172
     0
173
     0
174
     0
175
     0
176
   256
177
   256
178
     2
  0
DIMSTYLE
  2
AM_ANSI$SF
 70
     0
  3

  4
mm
  5

  6

  7

 40
1.0
 41
0.12
 42
0.05
 43
0.5
 44
0.1
 45
0.0
 46
0.0
 47
0.1
 48
0.1
140
0.12
141
0.0
142
0.0
143
25.399999999999999
144
1.0
145
0.0
146
0.71
147
0.06
 71
     0
 72
     0
 73
     1
 74
     1
 75
     1
 76
     1
 77
     0
 78
     7
170
     0
171
     2
172
     0
173
     0
174
     0
175
     0
176
   256
177
   256
178
     2
  0
DIMSTYLE
  2
AM_ANSI$SH
 70
     0
  3

  4
mm
  5

  6

  7

 40
1.0
 41
0.12
 42
0.05
 43
0.5
 44
0.1
 45
0.0
 46
0.0
 47
0.1
 48
0.1
140
0.12
141
0.0
142
0.0
143
25.399999999999999
144
1.0
145
0.0
146
0.71
147
0.06
 71
     0
 72
     0
 73
     1
 74
     1
 75
     1
 76
     1
 77
     0
 78
     7
170
     0
171
     2
172
     0
173
     1
174
     0
175
     0
176
   256
177
   256
178
     2
  0
ENDTAB
  0
ENDSEC
  0
SECTION
  2
BLOCKS
  0
BLOCK
  8
0
  2
$MODEL_SPACE
 70
     0
 10
0.0
 20
0.0
 30
0.0
  3
$MODEL_SPACE
  1

  0
ENDBLK
  5
601E
  8
0
  0
BLOCK
 67
     1
  8
0
  2
$PAPER_SPACE
 70
     0
 10
0.0
 20
0.0
 30
0.0
  3
$PAPER_SPACE
  1

  0
ENDBLK
  5
601A
 67
     1
  8
0
  0
BLOCK
  8
0
  2
_OPEN
 70
     0
 10
0.0
 20
0.0
 30
0.0
  3
_OPEN
  1

  0
LINE
  5
4863
  8
0
  6
BYBLOCK
 62
     0
 10
-1.0
 20
0.1666666666666666
 30
0.0
 11
0.0
 21
0.0
 31
0.0
  0
LINE
  5
4864
  8
0
  6
BYBLOCK
 62
     0
 10
-1.0
 20
-0.1666666666666666
 30
0.0
 11
0.0
 21
0.0
 31
0.0
  0
LINE
  5
4865
  8
0
  6
BYBLOCK
 62
     0
 10
0.0
 20
0.0
 30
0.0
 11
-1.0
 21
0.0
 31
0.0
  0
ENDBLK
  5
4866
  8
0
  0
BLOCK
  8
0
  2
_ACMFILLEDHALF
 70
     0
 10
0.0
 20
0.0
 30
0.0
  3
_ACMFILLEDHALF
  1

  0
TRACE
  5
5F15
  8
240
 62
     0
 10
-0.8
 20
0.0
 30
0.0
 11
-1.0
 21
0.166666666
 31
0.0
 12
0.0
 22
0.0
 32
0.0
 13
0.0
 23
0.0
 33
0.0
  0
LINE
  5
5F16
  8
240
 62
     0
 10
-1.0
 20
0.0
 30
0.0
 11
-0.8
 21
0.0
 31
0.0
  0
ENDBLK
  5
5F14
  8
0
  0
ENDSEC
  0
SECTION
  2
ENTITIES
  0
LINE
  5
4373
  8
240
 10
20.115923136472709
 20
-49.40000176429745
 30
0.0
 11
40.258568554626947
 21
-49.40000176429745
 31
0.0
  0
LINE
  5
4374
  8
240
 10
35.162041861894323
 20
49.40000176429745
 30
0.0
 11
20.11592313647272
 21
49.40000176429745
 31
0.0
  0
ARC
  5
4376
  8
240
 10
20.11592320225747
 20
37.399999999999991
 30
0.0
 40
12.00000000000003
 50
90.0
 51
110.0000000000001
  0
ARC
  5
4377
  8
240
 10
20.115923202257449
 20
-37.39999999999997
 30
0.0
 40
12.00000000000003
 50
249.99999999999989
 51
270.0
  0
LINE
  5
4378
  8
240
 10
16.011681407690059
 20
48.67631196975708
 30
0.0
 11
13.9709059149027
 21
47.933530062437029
 31
0.0
  0
LINE
  5
4379
  8
240
 10
13.9709059149027
 20
-47.933530062437029
 30
0.0
 11
16.011681407690059
 21
-48.67631196975708
 31
0.0
  0
LINE
  5
437A
  8
240
 10
1.0000000000000111
 20
-48.000000417232513
 30
0.0
 11
8.9999996125698196
 21
-48.000000417232513
 31
0.0
  0
ARC
  5
437B
  8
241
 10
1.0000000000000111
 20
-47.000000417232492
 30
0.0
 40
1.0
 50
180.0
 51
270.0
1001
ASK_MEN_XD
1005
441D
1070
     1
1005
437A
1070
     1
  0
LINE
  5
437C
  8
240
 10
8.9999996125698232
 20
48.000000417232513
 30
0.0
 11
1.0000000000000171
 21
48.000000417232513
 31
0.0
  0
LINE
  5
437D
  8
245
 10
44.660494124957957
 20
0.0000004172324965
 30
0.0
 11
-3.584886912913916
 21
0.0000004172324994
 31
0.0
  0
ARC
  5
437E
  8
240
 10
1.0000000000000171
 20
47.000000417232492
 30
0.0
 40
1.0
 50
90.0
 51
180.0
1001
ASK_MEN_XD
1005
441D
1070
     1
1005
437C
1070
     1
  0
LINE
  5
437F
  8
241
 10
8.9999996125698196
 20
-48.000000417232513
 30
0.0
 11
9.182624518871318
 21
-47.933530062437029
 31
0.0
  0
LINE
  5
4380
  8
240
 10
9.1826245188713251
 20
47.933530062437029
 30
0.0
 11
8.9999996125698232
 21
48.000000417232513
 31
0.0
  0
ARC
  5
4381
  8
240
 10
11.57676524013764
 20
-54.511378353133452
 30
0.0
 40
6.9999999999999689
 50
70.000000000001435
 51
110.0000000000001
  0
ARC
  5
4382
  8
240
 10
11.57676524013765
 20
54.511378353133452
 30
0.0
 40
6.9999999999999432
 50
249.99999999999989
 51
290.0
  0
LINE
  5
441C
  8
241
 10
8.9999996125698196
 20
-48.000000417232513
 30
0.0
 11
8.9999996125698232
 21
48.000000417232513
 31
0.0
  0
LINE
  5
441D
  8
240
 10
0.0000000000000113
 20
-47.000000417232492
 30
0.0
 11
0.0000000000000138
 21
-7.1999995827675027
 31
0.0
  0
LINE
  5
444C
  8
240
 10
41.399999405257418
 20
-48.265602442212192
 30
0.0
 11
41.399999405257418
 21
45.56186869740484
 31
0.0
  0
LINE
  5
4453
  8
241
 10
32.393453642725959
 20
46.430949121713617
 30
0.0
 11
32.534164376556888
 21
46.136014163494103
 31
0.0
  0
ARC
  5
445D
  8
241
 10
37.797606047457528
 20
46.153751097458823
 30
0.0
 40
1.732286975146458
 50
90.302153694778497
 51
179.4178273508077
  0
ARC
  5
445E
  8
241
 10
37.82794425632509
 20
46.133398730410001
 30
0.0
 40
1.762944350594897
 50
178.7664128529382
 51
222.20049725652649
  0
LINE
  5
44C8
  8
241
 10
41.399999405257418
 20
42.471241205930703
 30
0.0
 11
41.482462082058198
 21
42.471241205930703
 31
0.0
  0
LINE
  5
44C9
  8
241
 10
35.312779713422081
 20
49.971241503953927
 30
0.0
 11
33.876725472509882
 21
44.529136270284638
 31
0.0
  0
LINE
  5
44CA
  8
241
 10
41.49999943375591
 20
49.971241503953927
 30
0.0
 11
35.312779713422081
 21
49.971241503953927
 31
0.0
  0
LINE
  5
44CC
  8
241
 10
41.482462082058198
 20
42.471241205930703
 30
0.0
 11
41.99999943375591
 21
47.471240162849391
 31
0.0
  0
LINE
  5
44DB
  8
241
 10
41.99999943375591
 20
47.471240162849391
 30
0.0
 11
41.99999943375591
 21
49.47124150395392
 31
0.0
  0
LINE
  5
44E0
  8
241
 10
32.405147328972816
 20
49.391597509384127
 30
0.0
 11
32.45199099183084
 21
46.308252960443461
 31
0.0
  0
ARC
  5
44E2
  8
241
 10
37.772397775946452
 20
46.146957121320142
 30
0.0
 40
1.739131137728495
 50
1.8205777498823701
 51
89.47046765317404
  0
LINE
  5
44E9
  8
243
 10
41.432112329421102
 20
20.999999716877952
 30
0.0
 11
29.99999932944776
 21
20.999999716877952
 31
0.0
  0
LINE
  5
44EC
  8
243
 10
24.000000208616271
 20
16.000000759959232
 30
0.0
 11
0.0000000000000142
 21
16.000000759959232
 31
0.0
  0
LINE
  5
44ED
  8
243
 10
29.99999932944776
 20
12.500000186264529
 30
0.0
 11
24.000000208616271
 21
12.500000186264529
 31
0.0
  0
LINE
  5
44F0
  8
243
 10
29.99999932944776
 20
20.999999716877952
 30
0.0
 11
29.99999932944776
 21
-20.99999888241296
 31
0.0
  0
LINE
  5
44F1
  8
243
 10
24.000000208616271
 20
16.000000759959232
 30
0.0
 11
24.000000208616271
 21
-15.99999992549424
 31
0.0
  0
LINE
  5
44F2
  8
243
 10
41.432112329421102
 20
-20.99999888241296
 30
0.0
 11
29.99999932944776
 21
-20.99999888241296
 31
0.0
  0
LINE
  5
44F5
  8
243
 10
24.000000208616271
 20
-15.99999992549424
 30
0.0
 11
0.0000000000000142
 21
-15.99999992549423
 31
0.0
  0
LINE
  5
44F6
  8
243
 10
29.99999932944776
 20
-12.499999351799531
 30
0.0
 11
24.000000208616271
 21
-12.499999351799531
 31
0.0
  0
LINE
  5
4575
  8
240
 10
8.0000000000000213
 20
-7.1999995827675001
 30
0.0
 11
8.0000000000000213
 21
7.2000004172325021
 31
0.0
  0
LINE
  5
4577
  8
240
 10
8.0000000000000213
 20
-7.1999995827675001
 30
0.0
 11
0.0000000000000142
 21
-7.1999995827675027
 31
0.0
  0
LINE
  5
4578
  8
240
 10
8.0000000000000213
 20
7.2000004172324994
 30
0.0
 11
0.0000000000000142
 21
7.2000004172325003
 31
0.0
  0
LINE
  5
4594
  8
240
 10
41.399999405257418
 20
-48.265602442212192
 30
0.0
 11
40.258568554626947
 21
-49.40000176429745
 31
0.0
  0
LINE
  5
45B0
  8
240
 10
0.0000000000000147
 20
7.2000004172325003
 30
0.0
 11
0.0000000000000171
 21
47.000000417232492
 31
0.0
  0
LINE
  5
4619
  8
250
 10
-0.4999999999999868
 20
-15.99999992549423
 30
0.0
 11
-16.075020119568581
 21
-15.99999992549423
 31
0.0
  0
LINE
  5
461A
  8
250
 10
-0.4999999999999849
 20
16.000000759959232
 30
0.0
 11
-16.075020119568581
 21
16.000000759959239
 31
0.0
  0
LINE
  5
461B
  8
250
 10
-15.075020119568579
 20
-13.76999992549422
 30
0.0
 11
-15.07502011956857
 21
13.77000075995924
 31
0.0
  0
LINE
  5
461F
  8
250
 10
0.5000000000000171
 20
48.000000417232513
 30
0.0
 11
-23.07502011956856
 21
48.000000417232513
 31
0.0
  0
LINE
  5
4620
  8
250
 10
0.5000000000000116
 20
-48.000000417232513
 30
0.0
 11
-23.075020119568581
 21
-48.000000417232492
 31
0.0
  0
LINE
  5
4621
  8
250
 10
-22.07502011956856
 20
45.770000417232502
 30
0.0
 11
-22.075020119568581
 21
-45.770000417232488
 31
0.0
  0
LINE
  5
4625
  8
250
 10
0.0000000000000171
 20
47.500000417232492
 30
0.0
 11
0.0000000000000183
 21
67.316574372686134
 31
0.0
  0
LINE
  5
4626
  8
250
 10
41.99999943375591
 20
49.983373761177027
 30
0.0
 11
41.99999943375591
 21
67.316574372686134
 31
0.0
  0
LINE
  5
4627
  8
250
 10
2.2300000000000182
 20
66.316574372686134
 30
0.0
 11
39.76999943375592
 21
66.316574372686134
 31
0.0
  0
LINE
  5
462B
  8
250
 10
42.499999433755903
 20
48.450000417232488
 30
0.0
 11
62.924979880431451
 21
48.450000417232488
 31
0.0
  0
LINE
  5
462C
  8
250
 10
61.924979880431437
 20
46.220000417232491
 30
0.0
 11
61.92497988043143
 21
-6.466666249434172
 31
0.0
  0
LINE
  5
462F
  8
250
 10
42.497800952007047
 20
47.450000417232502
 30
0.0
 11
55.92497988043143
 21
47.450000417232488
 31
0.0
  0
LINE
  5
4630
  8
250
 10
54.92497988043143
 20
45.220000417232491
 30
0.0
 11
54.924979880431422
 21
-6.466666249434172
 31
0.0
  0
TEXT
  5
4633
  8
250
 10
60.924979880431437
 20
-5.8666662494341599
 30
0.0
 40
2.799999999999998
  1
\U+220596.9
 50
90.0
  0
LINE
  5
4634
  8
250
 10
61.553313213764781
 20
46.220000417232491
 30
0.0
 11
61.924979880431451
 21
48.450000417232488
 31
0.0
  0
LINE
  5
4635
  8
250
 10
62.296646547098121
 20
46.220000417232491
 30
0.0
 11
61.924979880431451
 21
48.450000417232488
 31
0.0
  0
LINE
  5
4636
  8
250
 10
61.924979880431451
 20
48.450000417232488
 30
0.0
 11
61.924979880431451
 21
46.220000417232491
 31
0.0
  0
TEXT
  5
4637
  8
250
 10
53.924979880431422
 20
-5.8666662494341599
 30
0.0
 40
2.799999999999998
  1
\U+220594.9
 50
90.0
  0
LINE
  5
4638
  8
250
 10
54.553313213764753
 20
45.220000417232491
 30
0.0
 11
54.92497988043143
 21
47.450000417232488
 31
0.0
  0
LINE
  5
4639
  8
250
 10
55.296646547098099
 20
45.220000417232491
 30
0.0
 11
54.92497988043143
 21
47.450000417232488
 31
0.0
  0
LINE
  5
463A
  8
250
 10
54.92497988043143
 20
47.450000417232488
 30
0.0
 11
54.92497988043143
 21
45.220000417232491
 31
0.0
  0
TEXT
  5
463B
  8
250
 10
18.333333050211301
 20
67.316574372686148
 30
0.0
 40
2.799999999999998
  1
42
  0
LINE
  5
463C
  8
250
 10
39.76999943375592
 20
66.688241039352803
 30
0.0
 11
41.99999943375591
 21
66.316574372686134
 31
0.0
  0
LINE
  5
463D
  8
250
 10
39.76999943375592
 20
65.944907706019464
 30
0.0
 11
41.99999943375591
 21
66.316574372686134
 31
0.0
  0
LINE
  5
463E
  8
250
 10
41.99999943375591
 20
66.316574372686134
 30
0.0
 11
39.76999943375592
 21
66.316574372686134
 31
0.0
  0
LINE
  5
463F
  8
250
 10
2.2300000000000182
 20
65.944907706019464
 30
0.0
 11
0.0000000000000183
 21
66.316574372686134
 31
0.0
  0
LINE
  5
4640
  8
250
 10
2.2300000000000182
 20
66.688241039352803
 30
0.0
 11
0.0000000000000183
 21
66.316574372686134
 31
0.0
  0
LINE
  5
4641
  8
250
 10
0.0000000000000183
 20
66.316574372686134
 30
0.0
 11
2.2300000000000182
 21
66.316574372686134
 31
0.0
  0
TEXT
  5
4642
  8
250
 10
-16.075020119568581
 20
-3.9333329161008281
 30
0.0
 40
2.799999999999998
  1
\U+220532
 50
90.0
  0
LINE
  5
4643
  8
250
 10
-15.44668678623524
 20
13.77000075995924
 30
0.0
 11
-15.07502011956857
 21
16.000000759959239
 31
0.0
  0
LINE
  5
4644
  8
250
 10
-14.70335345290191
 20
13.77000075995924
 30
0.0
 11
-15.07502011956857
 21
16.000000759959239
 31
0.0
  0
LINE
  5
4645
  8
250
 10
-15.07502011956857
 20
16.000000759959239
 30
0.0
 11
-15.07502011956857
 21
13.77000075995924
 31
0.0
  0
LINE
  5
4646
  8
250
 10
-14.70335345290191
 20
-13.76999992549422
 30
0.0
 11
-15.075020119568579
 21
-15.99999992549423
 31
0.0
  0
LINE
  5
4647
  8
250
 10
-15.446686786235251
 20
-13.76999992549422
 30
0.0
 11
-15.075020119568579
 21
-15.99999992549423
 31
0.0
  0
LINE
  5
4648
  8
250
 10
-15.075020119568579
 20
-15.99999992549423
 30
0.0
 11
-15.075020119568579
 21
-13.76999992549422
 31
0.0
  0
TEXT
  5
4649
  8
250
 10
-23.07502011956857
 20
-3.93333333333333
 30
0.0
 40
2.799999999999998
  1
\U+220596
 50
90.0
  0
LINE
  5
464A
  8
250
 10
-21.703353452901919
 20
-45.770000417232488
 30
0.0
 11
-22.075020119568581
 21
-48.000000417232492
 31
0.0
  0
LINE
  5
464B
  8
250
 10
-22.446686786235251
 20
-45.770000417232488
 30
0.0
 11
-22.075020119568581
 21
-48.000000417232492
 31
0.0
  0
LINE
  5
464C
  8
250
 10
-22.075020119568581
 20
-48.000000417232492
 30
0.0
 11
-22.075020119568581
 21
-45.770000417232488
 31
0.0
  0
LINE
  5
464D
  8
250
 10
-22.44668678623523
 20
45.770000417232502
 30
0.0
 11
-22.07502011956856
 21
48.000000417232513
 31
0.0
  0
LINE
  5
464E
  8
250
 10
-21.70335345290189
 20
45.770000417232502
 30
0.0
 11
-22.07502011956856
 21
48.000000417232513
 31
0.0
  0
LINE
  5
464F
  8
250
 10
-22.07502011956856
 20
48.000000417232513
 30
0.0
 11
-22.07502011956856
 21
45.770000417232502
 31
0.0
  0
TEXT
  5
467D
  8
241
 10
0.0
 20
77.0
 30
0.0
 40
4.0
  1
FM32-PLS1006-42
  7
YOKO
  0
LINE
  5
5F39
  8
241
 10
41.399999405257418
 20
45.56186869740484
 30
0.0
 11
40.299999999999997
 21
46.176599999999993
 31
0.0
  0
ARC
  5
5F3F
  8
241
 10
33.422236895644289
 20
47.901382130696547
 30
0.0
 40
4.2933939984438352
 50
276.82363039595572
 51
337.67796821880802
  0
ARC
  5
5F40
  8
241
 10
33.694067218971533
 20
45.327385077257027
 30
0.0
 40
1.705710782908888
 50
139.6855635066415
 51
278.03031678151387
  0
ARC
  5
5F41
  8
241
 10
36.802103786457529
 20
48.336289348510363
 30
0.0
 40
4.8027614420949867
 50
203.37314255394369
 51
247.5757462391052
  0
LINE
  5
5F42
  8
241
 10
40.299999999999997
 20
46.176599999999993
 30
0.0
 11
37.393900000000002
 21
46.270699999999977
 31
0.0
  0
ARC
  5
5F49
  8
241
 10
41.49999943375591
 20
49.47124150395392
 30
0.0
 40
0.5
 50
0.0
 51
90.0
1001
GENIUS_GENOBJ-N-FIL_13
1002
{
1000
OWNER
1000
GEN
1002
}
1001
GENIUS_GENODEF_13
1002
{
1000
HIER
1070
     0
1002
}
1002
{
1000
MANEDIT
1070
     0
1002
}
1002
{
1000
NOSEL
1070
     0
1002
}
1002
{
1000
BEHIND
1070
     0
1002
}
1002
{
1000
OTHER
1070
     0
1002
}
1002
{
1000
REACTOR
1002
}
  0
LINE
  5
60E4
  8
250
 10
42.379425709344559
 20
49.971241503953927
 30
0.0
 11
68.924979880431465
 21
49.971241503953927
 31
0.0
  0
LINE
  5
60E5
  8
250
 10
67.924979880431465
 20
47.74124150395393
 30
0.0
 11
67.924979880431437
 21
-7.0973518070881587
 31
0.0
  0
TEXT
  5
60E6
  8
250
 10
66.924979880431465
 20
-6.6604661920151154
 30
0.0
 40
2.799999999999998
  1
\U+2205100
 50
90.0
  0
LINE
  5
60E7
  8
250
 10
67.553313213764795
 20
47.74124150395393
 30
0.0
 11
67.924979880431465
 21
49.971241503953927
 31
0.0
  0
LINE
  5
60E8
  8
250
 10
68.296646547098135
 20
47.74124150395393
 30
0.0
 11
67.924979880431465
 21
49.971241503953927
 31
0.0
  0
LINE
  5
60E9
  8
250
 10
67.924979880431465
 20
49.971241503953927
 30
0.0
 11
67.924979880431465
 21
47.74124150395393
 31
0.0
  0
VIEWPORT
  5
22
 67
     1
  8
0
 10
261.51769911504419
 20
148.5
 30
0.0
 40
523.0353982300885
 41
297.0
 68
     1
 69
     1
1001
ACAD
1000
MVIEW
1002
{
1070
    16
1010
0.0
1020
0.0
1030
0.0
1010
0.0
1020
0.0
1030
1.0
1040
0.0
1040
297.0
1040
261.51769911504419
1040
148.5
1040
50.0
1040
0.0
1040
0.0
1070
     0
1070
   100
1070
     1
1070
     1
1070
     0
1070
     0
1070
     0
1070
     0
1040
0.0
1040
0.0
1040
0.0
1040
1.0
1040
1.0
1040
10.0
1040
10.0
1070
     0
1002
{
1002
}
1002
}
1001
GENIUS_GENODEF_13
1002
{
1000
HIER
1070
     0
1002
}
1002
{
1000
MANEDIT
1070
     0
1002
}
1002
{
1000
NOSEL
1070
     0
1002
}
1002
{
1000
BEHIND
1070
     0
1002
}
1002
{
1000
OTHER
1070
     0
1002
}
1002
{
1000
REACTOR
1002
}
1001
GENIUS_GENOBJ-N-SDF_13
1002
{
1000
OWNER
1000
GEN
1002
}
1001
GENIUS_GENSCREG_15
1000
PF
1040
1.0
1000
DF
1040
1.0
1000
MIN
1011
0.0
1021
0.0
1031
0.0
1021
0.0
1031
0.0
1000
MAX
1011
523.0353982300885
1021
0.0
1031
0.0
1021
297.0
1031
0.0
1000
FLAGS
1070
     4
  0
ENDSEC
  0
EOF
