  0
SECTION
  2
HEADER
  9
$ACADVER
  1
AC1009
  9
$INSBASE
 10
0.0
 20
0.0
 30
0.0
  9
$EXTMIN
 10
-21.76556453686192
 20
-39.403029278116271
 30
-0.0015258207003583
  9
$EXTMAX
 10
65.492813432575701
 20
67.00325028704475
 30
0.0000000349246037
  9
$LIMMIN
 10
0.0
 20
0.0
  9
$LIMMAX
 10
12.0
 20
9.0
  9
$ORTHOMODE
 70
     0
  9
$REGENMODE
 70
     1
  9
$FILLMODE
 70
     1
  9
$QTEXTMODE
 70
     0
  9
$MIRRTEXT
 70
     1
  9
$DRAGMODE
 70
     2
  9
$LTSCALE
 40
1.0
  9
$OSMODE
 70
  3071
  9
$ATTMODE
 70
     1
  9
$TEXTSIZE
 40
0.2
  9
$TRACEWID
 40
0.05
  9
$TEXTSTYLE
  7
STANDARD
  9
$CLAYER
  8
0
  9
$CELTYPE
  6
BYLAYER
  9
$CECOLOR
 62
     4
  9
$DIMSCALE
 40
1.0
  9
$DIMASZ
 40
2.5
  9
$DIMEXO
 40
0.0625
  9
$DIMDLI
 40
0.38
  9
$DIMRND
 40
0.0
  9
$DIMDLE
 40
0.0
  9
$DIMEXE
 40
7.0
  9
$DIMTP
 40
0.02
  9
$DIMTM
 40
-0.001
  9
$DIMTXT
 40
2.799999999999998
  9
$DIMCEN
 40
0.09
  9
$DIMTSZ
 40
0.0
  9
$DIMTOL
 70
     0
  9
$DIMLIM
 70
     0
  9
$DIMTIH
 70
     1
  9
$DIMTOH
 70
     1
  9
$DIMSE1
 70
     0
  9
$DIMSE2
 70
     0
  9
$DIMTAD
 70
     0
  9
$DIMZIN
 70
     0
  9
$DIMBLK
  1

  9
$DIMASO
 70
     1
  9
$DIMSHO
 70
     1
  9
$DIMPOST
  1

  9
$DIMAPOST
  1

  9
$DIMALT
 70
     0
  9
$DIMALTD
 70
     2
  9
$DIMALTF
 40
25.399999999999999
  9
$DIMLFAC
 40
1.0
  9
$DIMTOFL
 70
     0
  9
$DIMTVP
 40
0.0
  9
$DIMTIX
 70
     0
  9
$DIMSOXD
 70
     0
  9
$DIMSAH
 70
     0
  9
$DIMBLK1
  1

  9
$DIMBLK2
  1

  9
$DIMSTYLE
  2
STANDARD
  9
$DIMCLRD
 70
     0
  9
$DIMCLRE
 70
     0
  9
$DIMCLRT
 70
     0
  9
$DIMTFAC
 40
0.75
  9
$DIMGAP
 40
0.09
  9
$LUNITS
 70
     2
  9
$LUPREC
 70
     8
  9
$SKETCHINC
 40
0.1
  9
$FILLETRAD
 40
0.5
  9
$AUNITS
 70
     0
  9
$AUPREC
 70
     0
  9
$MENU
  1
.
  9
$ELEVATION
 40
0.0
  9
$PELEVATION
 40
0.0
  9
$THICKNESS
 40
0.0
  9
$LIMCHECK
 70
     0
  9
$BLIPMODE
 70
     0
  9
$CHAMFERA
 40
0.5
  9
$CHAMFERB
 40
0.5
  9
$SKPOLY
 70
     0
  9
$TDCREATE
 40
2456064.6494781249
  9
$TDUPDATE
 40
2457324.4501042939
  9
$TDINDWG
 40
0.002695
  9
$TDUSRTIMER
 40
0.0026949769
  9
$USRTIMER
 70
     1
  9
$ANGBASE
 50
0.0
  9
$ANGDIR
 70
     0
  9
$PDMODE
 70
     2
  9
$PDSIZE
 40
0.03
  9
$PLINEWID
 40
0.0
  9
$COORDS
 70
     1
  9
$SPLFRAME
 70
     0
  9
$SPLINETYPE
 70
     6
  9
$SPLINESEGS
 70
     8
  9
$ATTDIA
 70
     1
  9
$ATTREQ
 70
     1
  9
$HANDLING
 70
     1
  9
$HANDSEED
  5
919
  9
$SURFTAB1
 70
     6
  9
$SURFTAB2
 70
     6
  9
$SURFTYPE
 70
     6
  9
$SURFU
 70
     6
  9
$SURFV
 70
     6
  9
$UCSNAME
  2

  9
$UCSORG
 10
0.0
 20
0.0
 30
0.0
  9
$UCSXDIR
 10
1.0
 20
0.0
 30
0.0
  9
$UCSYDIR
 10
0.0
 20
1.0
 30
0.0
  9
$PUCSNAME
  2

  9
$PUCSORG
 10
0.0
 20
0.0
 30
0.0
  9
$PUCSXDIR
 10
1.0
 20
0.0
 30
0.0
  9
$PUCSYDIR
 10
0.0
 20
1.0
 30
0.0
  9
$USERI1
 70
     0
  9
$USERI2
 70
     0
  9
$USERI3
 70
     0
  9
$USERI4
 70
     0
  9
$USERI5
 70
     0
  9
$USERR1
 40
0.0
  9
$USERR2
 40
0.0
  9
$USERR3
 40
0.0
  9
$USERR4
 40
0.0
  9
$USERR5
 40
0.0
  9
$WORLDVIEW
 70
     1
  9
$SHADEDGE
 70
     3
  9
$SHADEDIF
 70
    70
  9
$TILEMODE
 70
     1
  9
$MAXACTVP
 70
    64
  9
$PLIMCHECK
 70
     0
  9
$PEXTMIN
 10
1.0000000000000000E+020
 20
1.0000000000000000E+020
 30
1.0000000000000000E+020
  9
$PEXTMAX
 10
-1.0000000000000000E+020
 20
-1.0000000000000000E+020
 30
-1.0000000000000000E+020
  9
$PLIMMIN
 10
-20.0
 20
-7.5
  9
$PLIMMAX
 10
277.0
 20
202.5
  9
$UNITMODE
 70
     0
  9
$VISRETAIN
 70
     1
  9
$PLINEGEN
 70
     0
  9
$PSLTSCALE
 70
     1
  0
ENDSEC
  0
SECTION
  2
TABLES
  0
TABLE
  2
VPORT
 70
     1
  0
VPORT
  2
*ACTIVE
 70
     0
 10
0.0
 20
0.0
 11
1.0
 21
1.0
 12
2.5323947553409658
 22
0.0001105044642813
 13
0.0
 23
0.0
 14
0.5
 24
0.5
 15
0.5
 25
0.5
 16
0.0
 26
0.0
 36
1.0
 17
19.331229692515919
 27
13.79999999999996
 37
0.0
 40
107.1600430567678
 41
1.643026004728132
 42
50.0
 43
0.0
 44
0.0
 50
0.0
 51
0.0
 71
     0
 72
 10000
 73
     1
 74
     3
 75
     1
 76
     0
 77
     0
 78
     0
  0
ENDTAB
  0
TABLE
  2
LTYPE
 70
    19
  0
LTYPE
  2
CONTINUOUS
 70
     0
  3
Solid line
 72
    65
 73
     0
 40
0.0
  0
LTYPE
  2
DASHED
 70
     0
  3
_ _ _ _ _ _ _ _ _ _ _ _ _ _ _ _
 72
    65
 73
     2
 40
4.799999999999998
 49
2.399999999999999
 49
-2.399999999999999
  0
LTYPE
  2
CENTER
 70
     0
  3
___ _ ___ _ ___ _ ___ _ ___ _ ___ _ ___ _ ___ _
 72
    65
 73
     4
 40
22.800000000000001
 49
15.0
 49
-3.0
 49
1.8
 49
-3.0
  0
LTYPE
  2
HIDDEN
 70
     0
  3
Hidden __ __ __ __ __ __ __ __ __ __ __ __ __ _
 72
    65
 73
     2
 40
0.375
 49
0.25
 49
-0.125
  0
LTYPE
  2
PHANTOM2
 70
     0
  3
Phantom (.5x) ___ _ _ ___ _ _ ___ _ _ ___ _ _
 72
    65
 73
     6
 40
1.25
 49
0.625
 49
-0.125
 49
0.125
 49
-0.125
 49
0.125
 49
-0.125
  0
LTYPE
  2
AMCONSTR
 70
     0
  3
_______________________
 72
    65
 73
     2
 40
9999.0
 49
9999.0
 49
0.0
  0
LTYPE
  2
CENTER2
 70
     0
  3
Center (.5x) ___ _ ___ _ ___ _ ___ _ ___ _ ___
 72
    65
 73
     4
 40
1.125
 49
0.75
 49
-0.125
 49
0.125
 49
-0.125
  0
LTYPE
  2
HIDDEN2
 70
     0
  3
Hidden (.5x) _ _ _ _ _ _ _ _ _ _ _ _ _ _ _ _ _
 72
    65
 73
     2
 40
0.1875
 49
0.125
 49
-0.0625
  0
LTYPE
  2
AMZIGZAG2
 70
     0
  3
/\/-/\/-/\/-/\/-/\/-/\/
 72
    65
 73
     2
 40
0.4401
 49
0.0001
 49
-0.4400000000000002
  0
LTYPE
  2
ACANSTGB
 70
     0
  3
__ . . __ . .
 72
    65
 73
     6
 40
0.35433070866
 49
0.15748031496
 49
-0.03937007874
 49
0.03937007874
 49
-0.03937007874
 49
0.03937007874
 49
-0.03937007874
  0
LTYPE
  2
ACANSTGL
 70
     0
  3
_ _ _ _ _
 72
    65
 73
     2
 40
0.11811023622
 49
0.07874015748
 49
-0.03937007874
  0
ENDTAB
  0
TABLE
  2
LAYER
 70
     8
  0
LAYER
  2
0
 70
     0
 62
     7
  6
CONTINUOUS
  0
LAYER
  2
ACAD_LAYER_245
 70
     0
 62
     2
  6
DASHED
  0
LAYER
  2
ACAD_LAYER_240
 70
     0
 62
     4
  6
CONTINUOUS
  0
LAYER
  2
ACAD_LAYER_241
 70
     0
 62
   211
  6
CONTINUOUS
  0
LAYER
  2
ACAD_LAYER_243
 70
     0
 62
   211
  6
DASHED
  0
LAYER
  2
ACAD_LAYER_246
 70
     0
 62
     3
  6
DASHED
  0
LAYER
  2
ACAD_LAYER_250
 70
     0
 62
     3
  6
CONTINUOUS
  0
ENDTAB
  0
TABLE
  2
STYLE
 70
     8
  0
STYLE
  2
STANDARD
 70
     0
 40
0.0
 41
1.0
 50
0.0
 71
     0
 42
0.2
  3
txt
  4

  0
STYLE
  2
CK_TEXT_STYLE_0005
 70
     0
 40
2.799999999999998
 41
1.0
 50
0.0
 71
     0
 42
0.2
  3
txt
  4

  0
STYLE
  2
CK_TEXT_STYLE_0006
 70
     0
 40
4.0
 41
1.0
 50
0.0
 71
     0
 42
0.2
  3
txt
  4

  0
STYLE
  2
ACANSGDT
 70
     0
 40
0.0
 41
1.0
 50
0.0
 71
     0
 42
2.799999999999998
  3
amgdt.shx
  4

  0
ENDTAB
  0
TABLE
  2
VIEW
 70
     0
  0
ENDTAB
  0
TABLE
  2
UCS
 70
     0
  0
ENDTAB
  0
TABLE
  2
APPID
 70
    18
  0
APPID
  2
ACAD
 70
     0
  0
APPID
  2
ACADANNOTATIVE
 70
     0
  0
APPID
  2
MCAD_NO_VIS
 70
     0
  0
APPID
  2
ACAD_TEMP_GRAPHIC
 70
     0
  0
APPID
  2
AD_DRAW
 70
     0
  0
APPID
  2
ACATTRIBSERVICES
 70
     0
  0
APPID
  2
DESIGNERASSEMBLIES
 70
     0
  0
APPID
  2
ACADM_DIM_EDIT
 70
     0
  0
APPID
  2
AMDT_DM_ADJ
 70
     0
  0
APPID
  2
GENIUS_GENSCREG_15
 70
     0
  0
APPID
  2
GENIUS_GENOBJ-N-SDF_13
 70
     0
  0
APPID
  2
GENIUS_GENODEF_13
 70
     0
  0
APPID
  2
ACAD_DSTYLE_DIMBREAK
 70
     0
  0
APPID
  2
ACAD_DSTYLE_DIMJAG
 70
     0
  0
APPID
  2
ACAD_NAV_VCDISPLAY
 70
     0
  0
APPID
  2
ACAD_EXEMPT_FROM_CAD_STANDARDS
 70
     0
  0
APPID
  2
ACAECLAYERSTANDARD
 70
     0
  0
APPID
  2
ACAD_MLEADERVER
 70
     0
  0
ENDTAB
  0
TABLE
  2
DIMSTYLE
 70
     9
  0
DIMSTYLE
  2
STANDARD
 70
     0
  3

  4

  5

  6

  7

 40
1.0
 41
0.18
 42
0.0625
 43
0.38
 44
0.18
 45
0.0
 46
0.0
 47
0.0
 48
0.0
140
0.18
141
0.09
142
0.0
143
25.399999999999999
144
1.0
145
0.0
146
1.0
147
0.09
 71
     0
 72
     0
 73
     1
 74
     1
 75
     0
 76
     0
 77
     0
 78
     0
170
     0
171
     2
172
     0
173
     0
174
     0
175
     0
176
     0
177
     0
178
     0
  0
DIMSTYLE
  2
AM_ANSI
 70
     0
  3

  4
mm
  5

  6

  7

 40
1.0
 41
0.1
 42
0.05
 43
0.5
 44
0.1
 45
0.0
 46
0.0
 47
0.1
 48
0.1
140
0.12
141
0.0
142
0.0
143
25.399999999999999
144
1.0
145
0.0
146
0.71
147
0.06
 71
     0
 72
     0
 73
     1
 74
     1
 75
     0
 76
     0
 77
     0
 78
     7
170
     0
171
     2
172
     0
173
     0
174
     0
175
     0
176
   256
177
   256
178
     2
  0
DIMSTYLE
  2
AM_ANSI$3
 70
     0
  3

  4
mm
  5

  6

  7

 40
1.0
 41
0.1
 42
0.05
 43
0.5
 44
0.1
 45
0.0
 46
0.0
 47
0.1
 48
0.1
140
0.12
141
0.0
142
0.0
143
25.399999999999999
144
1.0
145
0.0
146
0.71
147
0.06
 71
     0
 72
     0
 73
     1
 74
     1
 75
     0
 76
     0
 77
     0
 78
     7
170
     0
171
     2
172
     0
173
     0
174
     0
175
     0
176
   256
177
   256
178
     2
  0
DIMSTYLE
  2
AM_ANSI$4
 70
     0
  3

  4
mm
  5

  6

  7

 40
1.0
 41
0.1
 42
0.05
 43
0.5
 44
0.1
 45
0.0
 46
0.0
 47
0.1
 48
0.1
140
0.12
141
0.0
142
0.0
143
25.399999999999999
144
1.0
145
0.0
146
0.71
147
0.06
 71
     0
 72
     0
 73
     1
 74
     1
 75
     0
 76
     0
 77
     0
 78
     7
170
     0
171
     2
172
     0
173
     0
174
     0
175
     0
176
   256
177
   256
178
     2
  0
DIMSTYLE
  2
AM_ANSI$7
 70
     0
  3

  4
mm
  5

  6

  7

 40
1.0
 41
0.1
 42
0.05
 43
0.5
 44
0.1
 45
0.0
 46
0.0
 47
0.1
 48
0.1
140
0.24
141
0.0
142
0.0
143
25.399999999999999
144
1.0
145
0.0
146
0.71
147
0.06
 71
     0
 72
     0
 73
     1
 74
     1
 75
     0
 76
     0
 77
     0
 78
     7
170
     0
171
     2
172
     0
173
     0
174
     0
175
     0
176
   256
177
   256
178
     2
  0
DIMSTYLE
  2
AM_ANSI$SF
 70
     0
  3

  4
mm
  5

  6

  7

 40
1.0
 41
0.1
 42
0.05
 43
0.5
 44
0.1
 45
0.0
 46
0.0
 47
0.1
 48
0.1
140
0.12
141
0.0
142
0.0
143
25.399999999999999
144
1.0
145
0.0
146
0.71
147
0.06
 71
     0
 72
     0
 73
     1
 74
     1
 75
     1
 76
     1
 77
     0
 78
     7
170
     0
171
     2
172
     0
173
     0
174
     0
175
     0
176
   256
177
   256
178
     2
  0
DIMSTYLE
  2
AM_ANSI$SH
 70
     0
  3

  4
mm
  5

  6

  7

 40
1.0
 41
0.1
 42
0.05
 43
0.5
 44
0.1
 45
0.0
 46
0.0
 47
0.1
 48
0.1
140
0.12
141
0.0
142
0.0
143
25.399999999999999
144
1.0
145
0.0
146
0.71
147
0.06
 71
     0
 72
     0
 73
     1
 74
     1
 75
     1
 76
     1
 77
     0
 78
     7
170
     0
171
     2
172
     0
173
     1
174
     0
175
     0
176
   256
177
   256
178
     2
  0
ENDTAB
  0
ENDSEC
  0
SECTION
  2
BLOCKS
  0
BLOCK
  8
0
  2
$MODEL_SPACE
 70
     0
 10
0.0
 20
0.0
 30
0.0
  3
$MODEL_SPACE
  1

  0
ENDBLK
  5
7C1
  8
0
  0
BLOCK
 67
     1
  8
0
  2
$PAPER_SPACE
 70
     0
 10
0.0
 20
0.0
 30
0.0
  3
$PAPER_SPACE
  1

  0
ENDBLK
  5
7BD
 67
     1
  8
0
  0
BLOCK
  8
0
 62
     4
  2
_ACMFILLEDHALF
 70
     0
 10
0.0
 20
0.0
 30
0.0
  3
_ACMFILLEDHALF
  1

  0
TRACE
  5
848
  8
0
 62
     0
 10
-0.8
 20
0.0
 30
0.0
 11
-1.0
 21
0.166666666
 31
0.0
 12
0.0
 22
0.0
 32
0.0
 13
0.0
 23
0.0
 33
0.0
  0
LINE
  5
849
  8
0
 62
     0
 10
-1.0
 20
0.0
 30
0.0
 11
-0.8
 21
0.0
 31
0.0
  0
ENDBLK
  5
847
  8
0
 62
     4
  0
ENDSEC
  0
SECTION
  2
ENTITIES
  0
LINE
  5
50
  8
ACAD_LAYER_250
  6
CONTINUOUS
 62
     3
 10
51.66245938503188
 20
37.449999999999889
 30
0.0
 11
51.66245938503188
 21
35.219999999999899
 31
0.0
  0
LINE
  5
51
  8
ACAD_LAYER_250
  6
CONTINUOUS
 62
     3
 10
52.034126051698543
 20
35.219999999999899
 30
0.0
 11
51.66245938503188
 21
37.449999999999889
 31
0.0
  0
LINE
  5
52
  8
ACAD_LAYER_250
  6
CONTINUOUS
 62
     3
 10
51.290792718365203
 20
35.219999999999899
 30
0.0
 11
51.66245938503188
 21
37.449999999999889
 31
0.0
  0
LINE
  5
53
  8
ACAD_LAYER_250
  6
CONTINUOUS
 62
     3
 10
58.662459385031873
 20
38.449999999999903
 30
0.0
 11
58.662459385031873
 21
36.219999999999899
 31
0.0
  0
LINE
  5
54
  8
ACAD_LAYER_250
  6
CONTINUOUS
 62
     3
 10
59.034126051698543
 20
36.219999999999899
 30
0.0
 11
58.662459385031873
 21
38.449999999999903
 31
0.0
  0
LINE
  5
55
  8
ACAD_LAYER_250
  6
CONTINUOUS
 62
     3
 10
58.290792718365203
 20
36.219999999999899
 30
0.0
 11
58.662459385031873
 21
38.449999999999903
 31
0.0
  0
LINE
  5
56
  8
ACAD_LAYER_250
  6
CONTINUOUS
 62
     3
 10
39.999999105930101
 20
49.0
 30
0.0
 11
37.769999105930097
 21
49.0
 31
0.0
  0
LINE
  5
57
  8
ACAD_LAYER_250
  6
CONTINUOUS
 62
     3
 10
37.769999105930097
 20
48.62833333333333
 30
0.0
 11
39.999999105930101
 21
49.0
 31
0.0
  0
LINE
  5
58
  8
ACAD_LAYER_250
  6
CONTINUOUS
 62
     3
 10
37.769999105930097
 20
49.37166666666667
 30
0.0
 11
39.999999105930101
 21
49.0
 31
0.0
  0
LINE
  5
59
  8
ACAD_LAYER_250
  6
CONTINUOUS
 62
     3
 10
-0.0000000000003175
 20
49.0
 30
0.0
 11
2.2299999999996798
 21
49.0
 31
0.0
  0
LINE
  5
5A
  8
ACAD_LAYER_250
  6
CONTINUOUS
 62
     3
 10
2.2299999999996798
 20
49.37166666666667
 30
0.0
 11
-0.0000000000003175
 21
49.0
 31
0.0
  0
LINE
  5
5B
  8
ACAD_LAYER_250
  6
CONTINUOUS
 62
     3
 10
2.2299999999996798
 20
48.62833333333333
 30
0.0
 11
-0.0000000000003175
 21
49.0
 31
0.0
  0
LINE
  5
5C
  8
ACAD_LAYER_250
  6
CONTINUOUS
 62
     3
 10
-13.99999999999995
 20
37.999998778104711
 30
0.0
 11
-13.99999999999995
 21
35.7699987781047
 31
0.0
  0
LINE
  5
5D
  8
ACAD_LAYER_250
  6
CONTINUOUS
 62
     3
 10
-13.628333333333289
 20
35.7699987781047
 30
0.0
 11
-13.99999999999995
 21
37.999998778104711
 31
0.0
  0
LINE
  5
5E
  8
ACAD_LAYER_250
  6
CONTINUOUS
 62
     3
 10
-14.37166666666662
 20
35.7699987781047
 30
0.0
 11
-13.99999999999995
 21
37.999998778104711
 31
0.0
  0
LINE
  5
5F
  8
ACAD_LAYER_250
  6
CONTINUOUS
 62
     3
 10
-13.99999999999997
 20
-37.999998778104782
 30
0.0
 11
-13.99999999999997
 21
-35.769998778104792
 31
0.0
  0
LINE
  5
60
  8
ACAD_LAYER_250
  6
CONTINUOUS
 62
     3
 10
-14.37166666666664
 20
-35.769998778104792
 30
0.0
 11
-13.99999999999997
 21
-37.999998778104782
 31
0.0
  0
LINE
  5
61
  8
ACAD_LAYER_250
  6
CONTINUOUS
 62
     3
 10
-13.628333333333311
 20
-35.769998778104792
 30
0.0
 11
-13.99999999999997
 21
-37.999998778104782
 31
0.0
  0
LINE
  5
62
  8
ACAD_LAYER_250
  6
CONTINUOUS
 62
     3
 10
-6.9999999999999947
 20
13.49999999999989
 30
0.0
 11
-6.9999999999999947
 21
11.269999999999881
 31
0.0
  0
LINE
  5
63
  8
ACAD_LAYER_250
  6
CONTINUOUS
 62
     3
 10
-6.6283333333333267
 20
11.269999999999881
 30
0.0
 11
-6.9999999999999947
 21
13.49999999999989
 31
0.0
  0
LINE
  5
64
  8
ACAD_LAYER_250
  6
CONTINUOUS
 62
     3
 10
-7.3716666666666599
 20
11.269999999999881
 30
0.0
 11
-6.9999999999999947
 21
13.49999999999989
 31
0.0
  0
LINE
  5
65
  8
ACAD_LAYER_250
  6
CONTINUOUS
 62
     3
 10
-7.0
 20
-13.49999999999994
 30
0.0
 11
-7.0
 21
-11.269999999999939
 31
0.0
  0
LINE
  5
66
  8
ACAD_LAYER_250
  6
CONTINUOUS
 62
     3
 10
-7.371666666666667
 20
-11.269999999999939
 30
0.0
 11
-7.0
 21
-13.49999999999994
 31
0.0
  0
LINE
  5
67
  8
ACAD_LAYER_250
  6
CONTINUOUS
 62
     3
 10
-6.6283333333333321
 20
-11.269999999999939
 30
0.0
 11
-7.0
 21
-13.49999999999994
 31
0.0
  0
LINE
  5
68
  8
ACAD_LAYER_250
  6
CONTINUOUS
 62
     3
 10
-13.999999999999959
 20
35.7699987781047
 30
0.0
 11
-13.99999999999997
 21
-35.769998778104792
 31
0.0
  0
LINE
  5
69
  8
ACAD_LAYER_250
  6
CONTINUOUS
 62
     3
 10
-0.0000000000003126
 20
-37.999998778104782
 30
0.0
 11
-14.99999999999997
 21
-37.999998778104782
 31
0.0
  0
LINE
  5
6A
  8
ACAD_LAYER_250
  6
CONTINUOUS
 62
     3
 10
-0.0000000000003126
 20
37.999998778104711
 30
0.0
 11
-14.99999999999995
 21
37.999998778104711
 31
0.0
  0
LINE
  5
6B
  8
ACAD_LAYER_250
  6
CONTINUOUS
 62
     3
 10
-6.9999999999999947
 20
11.269999999999881
 30
0.0
 11
-7.0
 21
-11.269999999999939
 31
0.0
  0
LINE
  5
6C
  8
ACAD_LAYER_250
  6
CONTINUOUS
 62
     3
 10
-0.5000000000001923
 20
-13.49999999999994
 30
0.0
 11
-8.0000000000000036
 21
-13.49999999999994
 31
0.0
  0
LINE
  5
6D
  8
ACAD_LAYER_250
  6
CONTINUOUS
 62
     3
 10
-0.5000000000000964
 20
13.49999999999989
 30
0.0
 11
-7.9999999999999947
 21
13.49999999999989
 31
0.0
  0
LINE
  5
6E
  8
ACAD_LAYER_250
  6
CONTINUOUS
 62
     3
 10
51.66245938503188
 20
35.219999999999899
 30
0.0
 11
51.662459385031859
 21
-6.466666666666768
 31
0.0
  0
LINE
  5
6F
  8
ACAD_LAYER_250
  6
CONTINUOUS
 62
     3
 10
40.497902964719231
 20
37.449999999999903
 30
0.0
 11
52.662459385031873
 21
37.449999999999889
 31
0.0
  0
LINE
  5
70
  8
ACAD_LAYER_250
  6
CONTINUOUS
 62
     3
 10
58.662459385031873
 20
36.219999999999899
 30
0.0
 11
58.662459385031859
 21
-6.4666666666667707
 31
0.0
  0
LINE
  5
71
  8
ACAD_LAYER_250
  6
CONTINUOUS
 62
     3
 10
40.499999105930101
 20
38.449999999999903
 30
0.0
 11
59.662459385031873
 21
38.449999999999903
 31
0.0
  0
LINE
  5
72
  8
ACAD_LAYER_250
  6
CONTINUOUS
 62
     3
 10
37.769999105930097
 20
49.0
 30
0.0
 11
2.2299999999996798
 21
49.0
 31
0.0
  0
LINE
  5
73
  8
ACAD_LAYER_250
  6
CONTINUOUS
 62
     3
 10
-0.0000000000003182
 20
37.999998774340561
 30
0.0
 11
-0.0000000000003175
 21
50.0
 31
0.0
  0
LINE
  5
74
  8
ACAD_LAYER_250
  6
CONTINUOUS
 62
     3
 10
39.999999105930101
 20
39.987287253141403
 30
0.0
 11
39.999999105930101
 21
50.0
 31
0.0
  0
TEXT
  5
76
  8
ACAD_LAYER_250
  6
CONTINUOUS
 62
    21
 10
50.662459385031859
 20
-6.1333333333334243
 30
0.0
 40
2.799999999999998
  1
\U+220574.9
 50
90.0
  7
CK_TEXT_STYLE_0005
  0
TEXT
  5
99
  8
ACAD_LAYER_250
  6
CONTINUOUS
 62
    21
 10
57.662459385031852
 20
-6.1333333333334243
 30
0.0
 40
2.799999999999998
  1
\U+220576.9
 50
90.0
  7
CK_TEXT_STYLE_0005
  0
TEXT
  5
9A
  8
ACAD_LAYER_250
  6
CONTINUOUS
 62
    21
 10
16.933332886298231
 20
50.0
 30
0.0
 40
2.799999999999998
  1
40
  7
CK_TEXT_STYLE_0005
  0
TEXT
  5
9B
  8
ACAD_LAYER_250
  6
CONTINUOUS
 62
    21
 10
-14.999999999999959
 20
-4.2000000000000401
 30
0.0
 40
2.799999999999998
  1
\U+220576
 50
90.0
  7
CK_TEXT_STYLE_0005
  0
TEXT
  5
9C
  8
ACAD_LAYER_250
  6
CONTINUOUS
 62
    21
 10
-7.9999999999999982
 20
-4.200000000000025
 30
0.0
 40
2.799999999999998
  1
\U+220527
 50
90.0
  7
CK_TEXT_STYLE_0005
  0
LINE
  5
9D
  8
ACAD_LAYER_246
  6
DASHED
 62
     3
 10
-0.0000000000003182
 20
37.499998774340561
 30
0.0
 11
-0.0000008940696716
 21
36.896612310617257
 31
0.0
  0
LINE
  5
9E
  8
ACAD_LAYER_241
 10
39.999999105930101
 20
37.470251172780991
 30
0.0
 11
39.999999105930101
 21
39.487287253141403
 31
0.0
  0
LINE
  5
9F
  8
ACAD_LAYER_246
  6
DASHED
 62
     3
 10
39.399999077431573
 20
32.470252215862267
 30
0.0
 11
39.482463455964357
 21
32.47025221588865
 31
0.0
  0
LINE
  5
A0
  8
ACAD_LAYER_241
 10
39.482463455964357
 20
32.47025221588865
 30
0.0
 11
39.999999105930101
 21
37.470251172780991
 31
0.0
  0
LINE
  5
A1
  8
ACAD_LAYER_241
 10
33.312779385595427
 20
39.970252513884653
 30
0.0
 11
31.97698388248654
 21
34.908089637756362
 31
0.0
  0
LINE
  5
A2
  8
ACAD_LAYER_241
 10
39.524373481981172
 20
39.970252513885491
 30
0.0
 11
33.312779385595427
 21
39.970252513884653
 31
0.0
  0
POLYLINE
  5
A3
  8
ACAD_LAYER_241
 66
     1
 10
0.0
 20
0.0
 30
0.0
  0
VERTEX
  5
E2
  8
ACAD_LAYER_241
 10
39.999999105929952
 20
39.487288418636361
 30
0.0
  0
VERTEX
  5
E3
  8
ACAD_LAYER_241
 10
39.991019754125688
 20
39.583188755662228
 30
0.0
  0
VERTEX
  5
E4
  8
ACAD_LAYER_241
 10
39.964398030099318
 20
39.674489079867932
 30
0.0
  0
VERTEX
  5
E5
  8
ACAD_LAYER_241
 10
39.921071784049417
 20
39.75797299448292
 30
0.0
  0
VERTEX
  5
E6
  8
ACAD_LAYER_241
 10
39.862567345691588
 20
39.830699465116489
 30
0.0
  0
VERTEX
  5
E7
  8
ACAD_LAYER_241
 10
39.790945753562468
 20
39.890106428738562
 30
0.0
  0
VERTEX
  5
E8
  8
ACAD_LAYER_241
 10
39.708730147197848
 20
39.934101051970821
 30
0.0
  0
VERTEX
  5
E9
  8
ACAD_LAYER_241
 10
39.618816880067563
 20
39.96113345900158
 30
0.0
  0
VERTEX
  5
EA
  8
ACAD_LAYER_241
 10
39.524373484648031
 20
39.970251331781171
 30
0.0
  0
SEQEND
  5
EB
  8
ACAD_LAYER_241
  0
LINE
  5
A4
  8
ACAD_LAYER_243
  6
DASHED
 62
   211
 10
21.999999880790369
 20
13.499999999999851
 30
0.0
 11
21.99999988079168
 21
-13.50000000000002
 31
0.0
  0
LINE
  5
A5
  8
ACAD_LAYER_243
  6
DASHED
 62
   211
 10
21.99999988079168
 20
-13.50000000000002
 30
0.0
 11
-0.0000000000001739
 21
-13.49999999999994
 31
0.0
  0
LINE
  5
A6
  8
ACAD_LAYER_243
  6
DASHED
 62
   211
 10
39.399999105930043
 20
-9.9999994263053846
 30
0.0
 11
25.999998673796629
 21
-9.9999994263053225
 31
0.0
  0
LINE
  5
A7
  8
ACAD_LAYER_243
  6
DASHED
 62
   211
 10
25.999998673796629
 20
-9.9999994263053225
 30
0.0
 11
25.99999867379708
 21
-0.0000000000000568
 31
0.0
  0
LINE
  5
A8
  8
ACAD_LAYER_243
  6
DASHED
 62
   211
 10
25.999998673796789
 20
-6.4999997839331716
 30
0.0
 11
21.999999880790678
 21
-6.4999997839331911
 31
0.0
  0
LINE
  5
A9
  8
ACAD_LAYER_243
  6
DASHED
 62
   211
 10
25.99999867379665
 20
9.9999994263051502
 30
0.0
 11
25.99999867379708
 21
-0.0000000000001137
 31
0.0
  0
LINE
  5
AA
  8
ACAD_LAYER_243
  6
DASHED
 62
   211
 10
21.999999880790369
 20
13.499999999999851
 30
0.0
 11
-0.0000000000000964
 21
13.49999999999989
 31
0.0
  0
POLYLINE
  5
AB
  8
ACAD_LAYER_243
  6
DASHED
 62
   211
 66
     1
 10
0.0
 20
0.0
 30
0.0
 70
     8
  0
VERTEX
  5
EC
  8
ACAD_LAYER_243
  6
DASHED
 62
   211
 10
25.999998673796799
 20
6.5000000089405603
 30
0.0
 70
    32
  0
VERTEX
  5
ED
  8
ACAD_LAYER_243
  6
DASHED
 62
   211
 10
25.499998824671039
 20
6.5000000089405603
 30
0.0
 70
    32
  0
VERTEX
  5
EE
  8
ACAD_LAYER_243
  6
DASHED
 62
   211
 10
24.999998975545282
 20
6.5000000089405603
 30
0.0
 70
    32
  0
VERTEX
  5
EF
  8
ACAD_LAYER_243
  6
DASHED
 62
   211
 10
24.499999126419521
 20
6.5000000089405603
 30
0.0
 70
    32
  0
VERTEX
  5
F0
  8
ACAD_LAYER_243
  6
DASHED
 62
   211
 10
23.999999277293771
 20
6.5000000089405603
 30
0.0
 70
    32
  0
VERTEX
  5
F1
  8
ACAD_LAYER_243
  6
DASHED
 62
   211
 10
23.499999428168
 20
6.5000000089405603
 30
0.0
 70
    32
  0
VERTEX
  5
F2
  8
ACAD_LAYER_243
  6
DASHED
 62
   211
 10
22.999999579042228
 20
6.5000000089405603
 30
0.0
 70
    32
  0
VERTEX
  5
F3
  8
ACAD_LAYER_243
  6
DASHED
 62
   211
 10
22.499999729916471
 20
6.5000000089405603
 30
0.0
 70
    32
  0
VERTEX
  5
F4
  8
ACAD_LAYER_243
  6
DASHED
 62
   211
 10
21.99999988079071
 20
6.5000000089405603
 30
0.0
 70
    32
  0
SEQEND
  5
F5
  8
ACAD_LAYER_243
  6
DASHED
 62
   211
  0
POLYLINE
  5
AC
  8
ACAD_LAYER_243
  6
DASHED
 62
   211
 66
     1
 10
0.0
 20
0.0
 30
0.0
 70
     8
  0
VERTEX
  5
F6
  8
ACAD_LAYER_243
  6
DASHED
 62
   211
 10
39.399999105930021
 20
9.9999996513126916
 30
0.0
 70
    32
  0
VERTEX
  5
F7
  8
ACAD_LAYER_243
  6
DASHED
 62
   211
 10
37.724999051913308
 20
9.9999996513126916
 30
0.0
 70
    32
  0
VERTEX
  5
F8
  8
ACAD_LAYER_243
  6
DASHED
 62
   211
 10
36.049998997896608
 20
9.9999996513126916
 30
0.0
 70
    32
  0
VERTEX
  5
F9
  8
ACAD_LAYER_243
  6
DASHED
 62
   211
 10
34.374998943879902
 20
9.9999996513126916
 30
0.0
 70
    32
  0
VERTEX
  5
FA
  8
ACAD_LAYER_243
  6
DASHED
 62
   211
 10
32.699998889863203
 20
9.9999996513126916
 30
0.0
 70
    32
  0
VERTEX
  5
FB
  8
ACAD_LAYER_243
  6
DASHED
 62
   211
 10
31.024998835846489
 20
9.9999996513126916
 30
0.0
 70
    32
  0
VERTEX
  5
FC
  8
ACAD_LAYER_243
  6
DASHED
 62
   211
 10
29.349998781829768
 20
9.9999996513126916
 30
0.0
 70
    32
  0
VERTEX
  5
FD
  8
ACAD_LAYER_243
  6
DASHED
 62
   211
 10
27.67499872781308
 20
9.9999996513126916
 30
0.0
 70
    32
  0
VERTEX
  5
FE
  8
ACAD_LAYER_243
  6
DASHED
 62
   211
 10
25.99999867379637
 20
9.9999996513126916
 30
0.0
 70
    32
  0
SEQEND
  5
FF
  8
ACAD_LAYER_243
  6
DASHED
 62
   211
  0
LINE
  5
AD
  8
ACAD_LAYER_241
  6
CONTINUOUS
 62
   211
 10
17.999993558626699
 20
39.299019278511757
 30
0.0
 11
17.999993558626809
 21
-0.0000000000000853
 31
0.0
  0
LINE
  5
AE
  8
ACAD_LAYER_241
  6
CONTINUOUS
 62
   211
 10
11.119062596367771
 20
-37.507962974326567
 30
0.0
 11
11.119062596367741
 21
-0.0000000000000284
 31
0.0
  0
LINE
  5
AF
  8
ACAD_LAYER_241
  6
CONTINUOUS
 62
   211
 10
7.9999975860118857
 20
0.0
 30
0.0
 11
7.9999975860117152
 21
-37.999998778104782
 31
0.0
  0
LINE
  5
B0
  8
ACAD_LAYER_241
  6
CONTINUOUS
 62
   211
 10
39.399999077431573
 20
32.470252215862267
 30
0.0
 11
38.299999105930063
 21
35.7902818107748
 31
0.0
  0
LINE
  5
B1
  8
ACAD_LAYER_241
  6
CONTINUOUS
 62
   211
 10
17.999993558626532
 20
-39.299019278511899
 30
0.0
 11
17.999993558626809
 21
-0.0000000000000568
 31
0.0
  0
LINE
  5
B2
  8
ACAD_LAYER_241
  6
CONTINUOUS
 62
   211
 10
11.119062596367939
 20
37.50796297432646
 30
0.0
 11
11.119062596367741
 21
-0.0000000000000853
 31
0.0
  0
LINE
  5
B3
  8
ACAD_LAYER_241
  6
CONTINUOUS
 62
   211
 10
7.9999975860118857
 20
-0.0000000000000853
 30
0.0
 11
7.9999975860118857
 21
37.999998778104711
 31
0.0
  0
LINE
  5
B4
  8
ACAD_LAYER_241
  6
CONTINUOUS
 62
   211
 10
30.405179597437101
 20
39.389468604326112
 30
0.0
 11
30.455666594206999
 21
36.066252613067491
 31
0.0
  0
LINE
  5
B7
  8
ACAD_LAYER_241
  6
CONTINUOUS
 62
   211
 10
31.021320845304199
 20
36.046539037240919
 30
0.0
 11
29.808879242643719
 21
36.088753826868071
 31
0.0
  0
ARC
  5
B8
  8
ACAD_LAYER_241
  6
CONTINUOUS
 62
   211
 10
36.370331524378742
 20
36.179714597797101
 30
0.0
 40
1.234516371014716
 50
343.76418127938541
 51
195.30266484046371
  0
POLYLINE
  5
B9
  8
ACAD_LAYER_241
  6
CONTINUOUS
 62
   211
 66
     1
 10
0.0
 20
0.0
 30
0.0
  0
VERTEX
  5
100
  8
ACAD_LAYER_241
  6
CONTINUOUS
 62
   211
 10
30.40517971400482
 20
39.389469885873552
 30
0.0
  0
VERTEX
  5
101
  8
ACAD_LAYER_241
  6
CONTINUOUS
 62
   211
 10
29.33869183284699
 20
38.780529195734402
 30
0.0
  0
VERTEX
  5
102
  8
ACAD_LAYER_241
  6
CONTINUOUS
 62
   211
 10
28.301414536771581
 20
37.248431570557401
 30
0.0
  0
SEQEND
  5
103
  8
ACAD_LAYER_241
  6
CONTINUOUS
 62
   211
  0
POLYLINE
  5
BA
  8
ACAD_LAYER_241
  6
CONTINUOUS
 62
   211
 66
     1
 10
0.0
 20
0.0
 30
0.0
  0
VERTEX
  5
104
  8
ACAD_LAYER_241
  6
CONTINUOUS
 62
   211
 10
31.021320845497019
 20
36.046539037236002
 30
0.0
  0
VERTEX
  5
105
  8
ACAD_LAYER_241
  6
CONTINUOUS
 62
   211
 10
31.271854802241961
 20
35.649700650856907
 30
0.0
  0
VERTEX
  5
106
  8
ACAD_LAYER_241
  6
CONTINUOUS
 62
   211
 10
31.586569405663639
 20
35.271954532099038
 30
0.0
  0
VERTEX
  5
107
  8
ACAD_LAYER_241
  6
CONTINUOUS
 62
   211
 10
31.953950584964559
 20
34.927120807221392
 30
0.0
  0
VERTEX
  5
108
  8
ACAD_LAYER_241
  6
CONTINUOUS
 62
   211
 10
32.360557423002199
 20
34.627815477764521
 30
0.0
  0
VERTEX
  5
109
  8
ACAD_LAYER_241
  6
CONTINUOUS
 62
   211
 10
32.791513902365871
 20
34.384988854632198
 30
0.0
  0
VERTEX
  5
10A
  8
ACAD_LAYER_241
  6
CONTINUOUS
 62
   211
 10
33.231053155677721
 20
34.207524932719693
 30
0.0
  0
SEQEND
  5
10B
  8
ACAD_LAYER_241
  6
CONTINUOUS
 62
   211
  0
LINE
  5
BB
  8
ACAD_LAYER_241
  6
CONTINUOUS
 62
   211
 10
38.299999105762808
 20
35.790281810780797
 30
0.0
 11
35.206472391585081
 21
35.899779478531869
 31
0.0
  0
POLYLINE
  5
BD
  8
ACAD_LAYER_241
  6
CONTINUOUS
 62
   211
 66
     1
 10
0.0
 20
0.0
 30
0.0
  0
VERTEX
  5
305
  8
ACAD_LAYER_241
  6
CONTINUOUS
 62
   211
 10
29.80887924281723
 20
36.088753826861989
 30
0.0
  0
VERTEX
  5
306
  8
ACAD_LAYER_241
  6
CONTINUOUS
 62
   211
 10
29.779969767011409
 20
36.089884789516567
 30
0.0
  0
VERTEX
  5
307
  8
ACAD_LAYER_241
  6
CONTINUOUS
 62
   211
 10
29.75111673549744
 20
36.091264826407361
 30
0.0
  0
VERTEX
  5
308
  8
ACAD_LAYER_241
  6
CONTINUOUS
 62
   211
 10
29.72233397086012
 20
36.092891927806548
 30
0.0
  0
VERTEX
  5
309
  8
ACAD_LAYER_241
  6
CONTINUOUS
 62
   211
 10
29.693635295684349
 20
36.094764083986412
 30
0.0
  0
VERTEX
  5
30A
  8
ACAD_LAYER_241
  6
CONTINUOUS
 62
   211
 10
29.66503453255498
 20
36.096879285219153
 30
0.0
  0
VERTEX
  5
30B
  8
ACAD_LAYER_241
  6
CONTINUOUS
 62
   211
 10
29.63654550405688
 20
36.099235521777011
 30
0.0
  0
VERTEX
  5
30C
  8
ACAD_LAYER_241
  6
CONTINUOUS
 62
   211
 10
29.608182032774909
 20
36.101830783932208
 30
0.0
  0
VERTEX
  5
30D
  8
ACAD_LAYER_241
  6
CONTINUOUS
 62
   211
 10
29.57995794129393
 20
36.104663061956998
 30
0.0
  0
VERTEX
  5
30E
  8
ACAD_LAYER_241
  6
CONTINUOUS
 62
   211
 10
29.551887052198801
 20
36.10773034612361
 30
0.0
  0
VERTEX
  5
30F
  8
ACAD_LAYER_241
  6
CONTINUOUS
 62
   211
 10
29.523983188074389
 20
36.111030626704263
 30
0.0
  0
VERTEX
  5
310
  8
ACAD_LAYER_241
  6
CONTINUOUS
 62
   211
 10
29.496260171505568
 20
36.114561893971171
 30
0.0
  0
VERTEX
  5
311
  8
ACAD_LAYER_241
  6
CONTINUOUS
 62
   211
 10
29.468731825077189
 20
36.118322138196611
 30
0.0
  0
VERTEX
  5
312
  8
ACAD_LAYER_241
  6
CONTINUOUS
 62
   211
 10
29.441411971374109
 20
36.122309349652788
 30
0.0
  0
VERTEX
  5
313
  8
ACAD_LAYER_241
  6
CONTINUOUS
 62
   211
 10
29.4143144329812
 20
36.126521518611938
 30
0.0
  0
VERTEX
  5
314
  8
ACAD_LAYER_241
  6
CONTINUOUS
 62
   211
 10
29.387453032483322
 20
36.130956635346287
 30
0.0
  0
VERTEX
  5
315
  8
ACAD_LAYER_241
  6
CONTINUOUS
 62
   211
 10
29.360841592465341
 20
36.135612690128092
 30
0.0
  0
VERTEX
  5
316
  8
ACAD_LAYER_241
  6
CONTINUOUS
 62
   211
 10
29.334493935512111
 20
36.140487673229558
 30
0.0
  0
VERTEX
  5
317
  8
ACAD_LAYER_241
  6
CONTINUOUS
 62
   211
 10
29.308413094990431
 20
36.145578924085939
 30
0.0
  0
VERTEX
  5
318
  8
ACAD_LAYER_241
  6
CONTINUOUS
 62
   211
 10
29.282597223812221
 20
36.150881746605883
 30
0.0
  0
VERTEX
  5
319
  8
ACAD_LAYER_241
  6
CONTINUOUS
 62
   211
 10
29.257052823880031
 20
36.156391077771687
 30
0.0
  0
VERTEX
  5
31A
  8
ACAD_LAYER_241
  6
CONTINUOUS
 62
   211
 10
29.231786397096471
 20
36.162101854565748
 30
0.0
  0
VERTEX
  5
31B
  8
ACAD_LAYER_241
  6
CONTINUOUS
 62
   211
 10
29.206804445364121
 20
36.168009013970327
 30
0.0
  0
VERTEX
  5
31C
  8
ACAD_LAYER_241
  6
CONTINUOUS
 62
   211
 10
29.182113470585548
 20
36.174107492967828
 30
0.0
  0
VERTEX
  5
31D
  8
ACAD_LAYER_241
  6
CONTINUOUS
 62
   211
 10
29.15771997466333
 20
36.180392228540533
 30
0.0
  0
VERTEX
  5
31E
  8
ACAD_LAYER_241
  6
CONTINUOUS
 62
   211
 10
29.133630459500061
 20
36.186858157670763
 30
0.0
  0
VERTEX
  5
31F
  8
ACAD_LAYER_241
  6
CONTINUOUS
 62
   211
 10
29.109851426998301
 20
36.193500217340898
 30
0.0
  0
VERTEX
  5
320
  8
ACAD_LAYER_241
  6
CONTINUOUS
 62
   211
 10
29.08638937906063
 20
36.200313344533249
 30
0.0
  0
VERTEX
  5
321
  8
ACAD_LAYER_241
  6
CONTINUOUS
 62
   211
 10
29.063250817589651
 20
36.207292476230123
 30
0.0
  0
VERTEX
  5
322
  8
ACAD_LAYER_241
  6
CONTINUOUS
 62
   211
 10
29.04044224448791
 20
36.214432549413878
 30
0.0
  0
VERTEX
  5
323
  8
ACAD_LAYER_241
  6
CONTINUOUS
 62
   211
 10
29.017970161657999
 20
36.221728501066849
 30
0.0
  0
VERTEX
  5
324
  8
ACAD_LAYER_241
  6
CONTINUOUS
 62
   211
 10
28.995841071002509
 20
36.22917526817136
 30
0.0
  0
VERTEX
  5
325
  8
ACAD_LAYER_241
  6
CONTINUOUS
 62
   211
 10
28.974061474424001
 20
36.236767787709731
 30
0.0
  0
VERTEX
  5
326
  8
ACAD_LAYER_241
  6
CONTINUOUS
 62
   211
 10
28.952637873825061
 20
36.244500996664328
 30
0.0
  0
VERTEX
  5
327
  8
ACAD_LAYER_241
  6
CONTINUOUS
 62
   211
 10
28.931576771108269
 20
36.252369832017457
 30
0.0
  0
VERTEX
  5
328
  8
ACAD_LAYER_241
  6
CONTINUOUS
 62
   211
 10
28.91087180913086
 20
36.260371862232873
 30
0.0
  0
VERTEX
  5
329
  8
ACAD_LAYER_241
  6
CONTINUOUS
 62
   211
 10
28.89051272345721
 20
36.268504703176063
 30
0.0
  0
VERTEX
  5
32A
  8
ACAD_LAYER_241
  6
CONTINUOUS
 62
   211
 10
28.870500155050571
 20
36.276763362931902
 30
0.0
  0
VERTEX
  5
32B
  8
ACAD_LAYER_241
  6
CONTINUOUS
 62
   211
 10
28.850834744874192
 20
36.285142849585291
 30
0.0
  0
VERTEX
  5
32C
  8
ACAD_LAYER_241
  6
CONTINUOUS
 62
   211
 10
28.831517133891332
 20
36.293638171221168
 30
0.0
  0
VERTEX
  5
32D
  8
ACAD_LAYER_241
  6
CONTINUOUS
 62
   211
 10
28.812547963065249
 20
36.302244335924371
 30
0.0
  0
VERTEX
  5
32E
  8
ACAD_LAYER_241
  6
CONTINUOUS
 62
   211
 10
28.793927873359209
 20
36.310956351779851
 30
0.0
  0
VERTEX
  5
32F
  8
ACAD_LAYER_241
  6
CONTINUOUS
 62
   211
 10
28.775657505736461
 20
36.319769226872459
 30
0.0
  0
VERTEX
  5
330
  8
ACAD_LAYER_241
  6
CONTINUOUS
 62
   211
 10
28.757737501160271
 20
36.328677969287106
 30
0.0
  0
VERTEX
  5
331
  8
ACAD_LAYER_241
  6
CONTINUOUS
 62
   211
 10
28.740168500593882
 20
36.337677587108722
 30
0.0
  0
VERTEX
  5
332
  8
ACAD_LAYER_241
  6
CONTINUOUS
 62
   211
 10
28.722951145000561
 20
36.346763088422151
 30
0.0
  0
VERTEX
  5
333
  8
ACAD_LAYER_241
  6
CONTINUOUS
 62
   211
 10
28.70608607534357
 20
36.35592948131233
 30
0.0
  0
VERTEX
  5
334
  8
ACAD_LAYER_241
  6
CONTINUOUS
 62
   211
 10
28.68957393258615
 20
36.36517177386412
 30
0.0
  0
VERTEX
  5
335
  8
ACAD_LAYER_241
  6
CONTINUOUS
 62
   211
 10
28.673415357691571
 20
36.374484974162471
 30
0.0
  0
VERTEX
  5
336
  8
ACAD_LAYER_241
  6
CONTINUOUS
 62
   211
 10
28.657610991623091
 20
36.383864090292228
 30
0.0
  0
VERTEX
  5
337
  8
ACAD_LAYER_241
  6
CONTINUOUS
 62
   211
 10
28.642161475343961
 20
36.393304130338308
 30
0.0
  0
VERTEX
  5
338
  8
ACAD_LAYER_241
  6
CONTINUOUS
 62
   211
 10
28.627067449817449
 20
36.402800102385612
 30
0.0
  0
VERTEX
  5
339
  8
ACAD_LAYER_241
  6
CONTINUOUS
 62
   211
 10
28.612324590604999
 20
36.41234618703367
 30
0.0
  0
VERTEX
  5
33A
  8
ACAD_LAYER_241
  6
CONTINUOUS
 62
   211
 10
28.597925152453691
 20
36.42193918198253
 30
0.0
  0
VERTEX
  5
33B
  8
ACAD_LAYER_241
  6
CONTINUOUS
 62
   211
 10
28.583864645105169
 20
36.431578020967997
 30
0.0
  0
VERTEX
  5
33C
  8
ACAD_LAYER_241
  6
CONTINUOUS
 62
   211
 10
28.570138578301119
 20
36.441261637725781
 30
0.0
  0
VERTEX
  5
33D
  8
ACAD_LAYER_241
  6
CONTINUOUS
 62
   211
 10
28.556742461783209
 20
36.450988965991733
 30
0.0
  0
VERTEX
  5
33E
  8
ACAD_LAYER_241
  6
CONTINUOUS
 62
   211
 10
28.54367180529308
 20
36.460758939501559
 30
0.0
  0
VERTEX
  5
33F
  8
ACAD_LAYER_241
  6
CONTINUOUS
 62
   211
 10
28.53092211857242
 20
36.470570491990998
 30
0.0
  0
VERTEX
  5
340
  8
ACAD_LAYER_241
  6
CONTINUOUS
 62
   211
 10
28.51848891136288
 20
36.480422557195872
 30
0.0
  0
VERTEX
  5
341
  8
ACAD_LAYER_241
  6
CONTINUOUS
 62
   211
 10
28.50636769340613
 20
36.490314068851902
 30
0.0
  0
VERTEX
  5
342
  8
ACAD_LAYER_241
  6
CONTINUOUS
 62
   211
 10
28.494553974443839
 20
36.500243960694867
 30
0.0
  0
VERTEX
  5
343
  8
ACAD_LAYER_241
  6
CONTINUOUS
 62
   211
 10
28.48304326421766
 20
36.510211166460522
 30
0.0
  0
VERTEX
  5
344
  8
ACAD_LAYER_241
  6
CONTINUOUS
 62
   211
 10
28.471831072469271
 20
36.520214619884641
 30
0.0
  0
VERTEX
  5
345
  8
ACAD_LAYER_241
  6
CONTINUOUS
 62
   211
 10
28.46091290894033
 20
36.530253254702977
 30
0.0
  0
VERTEX
  5
346
  8
ACAD_LAYER_241
  6
CONTINUOUS
 62
   211
 10
28.450284283372511
 20
36.540326004651298
 30
0.0
  0
VERTEX
  5
347
  8
ACAD_LAYER_241
  6
CONTINUOUS
 62
   211
 10
28.43994070550745
 20
36.550431803465372
 30
0.0
  0
VERTEX
  5
348
  8
ACAD_LAYER_241
  6
CONTINUOUS
 62
   211
 10
28.429877685086851
 20
36.56056958488093
 30
0.0
  0
VERTEX
  5
349
  8
ACAD_LAYER_241
  6
CONTINUOUS
 62
   211
 10
28.420090731852351
 20
36.570738282633769
 30
0.0
  0
VERTEX
  5
34A
  8
ACAD_LAYER_241
  6
CONTINUOUS
 62
   211
 10
28.410581087410311
 20
36.58093481630064
 30
0.0
  0
VERTEX
  5
34B
  8
ACAD_LAYER_241
  6
CONTINUOUS
 62
   211
 10
28.401351661265291
 20
36.59115499648253
 30
0.0
  0
VERTEX
  5
34C
  8
ACAD_LAYER_241
  6
CONTINUOUS
 62
   211
 10
28.392400465006379
 20
36.601396093451761
 30
0.0
  0
VERTEX
  5
34D
  8
ACAD_LAYER_241
  6
CONTINUOUS
 62
   211
 10
28.3837255102227
 20
36.611655377480531
 30
0.0
  0
VERTEX
  5
34E
  8
ACAD_LAYER_241
  6
CONTINUOUS
 62
   211
 10
28.375324808503311
 20
36.621930118841128
 30
0.0
  0
VERTEX
  5
34F
  8
ACAD_LAYER_241
  6
CONTINUOUS
 62
   211
 10
28.367196371437309
 20
36.632217587805791
 30
0.0
  0
VERTEX
  5
350
  8
ACAD_LAYER_241
  6
CONTINUOUS
 62
   211
 10
28.359338210613771
 20
36.642515054646772
 30
0.0
  0
VERTEX
  5
351
  8
ACAD_LAYER_241
  6
CONTINUOUS
 62
   211
 10
28.3517483376218
 20
36.652819789636332
 30
0.0
  0
VERTEX
  5
352
  8
ACAD_LAYER_241
  6
CONTINUOUS
 62
   211
 10
28.344424764050469
 20
36.663129063046703
 30
0.0
  0
VERTEX
  5
353
  8
ACAD_LAYER_241
  6
CONTINUOUS
 62
   211
 10
28.337365501488868
 20
36.673440145150153
 30
0.0
  0
VERTEX
  5
354
  8
ACAD_LAYER_241
  6
CONTINUOUS
 62
   211
 10
28.330568561526089
 20
36.68375030621894
 30
0.0
  0
VERTEX
  5
355
  8
ACAD_LAYER_241
  6
CONTINUOUS
 62
   211
 10
28.324031955751199
 20
36.694056816525297
 30
0.0
  0
VERTEX
  5
356
  8
ACAD_LAYER_241
  6
CONTINUOUS
 62
   211
 10
28.317753695753311
 20
36.704356946341491
 30
0.0
  0
VERTEX
  5
357
  8
ACAD_LAYER_241
  6
CONTINUOUS
 62
   211
 10
28.311731793121499
 20
36.71464796593979
 30
0.0
  0
VERTEX
  5
358
  8
ACAD_LAYER_241
  6
CONTINUOUS
 62
   211
 10
28.305964259444849
 20
36.724927145592403
 30
0.0
  0
VERTEX
  5
359
  8
ACAD_LAYER_241
  6
CONTINUOUS
 62
   211
 10
28.300449106312449
 20
36.735191755571613
 30
0.0
  0
VERTEX
  5
35A
  8
ACAD_LAYER_241
  6
CONTINUOUS
 62
   211
 10
28.29518434531337
 20
36.745439066149657
 30
0.0
  0
VERTEX
  5
35B
  8
ACAD_LAYER_241
  6
CONTINUOUS
 62
   211
 10
28.290163041790169
 20
36.755672418425043
 30
0.0
  0
VERTEX
  5
35C
  8
ACAD_LAYER_241
  6
CONTINUOUS
 62
   211
 10
28.285378127977321
 20
36.7658968750073
 30
0.0
  0
VERTEX
  5
35D
  8
ACAD_LAYER_241
  6
CONTINUOUS
 62
   211
 10
28.280827415801781
 20
36.776112288435343
 30
0.0
  0
VERTEX
  5
35E
  8
ACAD_LAYER_241
  6
CONTINUOUS
 62
   211
 10
28.27650871719058
 20
36.786318511248048
 30
0.0
  0
VERTEX
  5
35F
  8
ACAD_LAYER_241
  6
CONTINUOUS
 62
   211
 10
28.272419844070679
 20
36.796515395984287
 30
0.0
  0
VERTEX
  5
360
  8
ACAD_LAYER_241
  6
CONTINUOUS
 62
   211
 10
28.268558608369091
 20
36.806702795182971
 30
0.0
  0
VERTEX
  5
361
  8
ACAD_LAYER_241
  6
CONTINUOUS
 62
   211
 10
28.26492282201281
 20
36.816880561382931
 30
0.0
  0
VERTEX
  5
362
  8
ACAD_LAYER_241
  6
CONTINUOUS
 62
   211
 10
28.261510296928801
 20
36.827048547123113
 30
0.0
  0
VERTEX
  5
363
  8
ACAD_LAYER_241
  6
CONTINUOUS
 62
   211
 10
28.258318845044069
 20
36.837206604942331
 30
0.0
  0
VERTEX
  5
364
  8
ACAD_LAYER_241
  6
CONTINUOUS
 62
   211
 10
28.255346278285629
 20
36.847354587379513
 30
0.0
  0
VERTEX
  5
365
  8
ACAD_LAYER_241
  6
CONTINUOUS
 62
   211
 10
28.252590408580421
 20
36.857492346973537
 30
0.0
  0
VERTEX
  5
366
  8
ACAD_LAYER_241
  6
CONTINUOUS
 62
   211
 10
28.250049047855491
 20
36.867619736263279
 30
0.0
  0
VERTEX
  5
367
  8
ACAD_LAYER_241
  6
CONTINUOUS
 62
   211
 10
28.247720008037788
 20
36.877736607787618
 30
0.0
  0
VERTEX
  5
368
  8
ACAD_LAYER_241
  6
CONTINUOUS
 62
   211
 10
28.24560110105433
 20
36.887842814085452
 30
0.0
  0
VERTEX
  5
369
  8
ACAD_LAYER_241
  6
CONTINUOUS
 62
   211
 10
28.243690138832111
 20
36.897938207695631
 30
0.0
  0
VERTEX
  5
36A
  8
ACAD_LAYER_241
  6
CONTINUOUS
 62
   211
 10
28.241984933298092
 20
36.908022641157068
 30
0.0
  0
VERTEX
  5
36B
  8
ACAD_LAYER_241
  6
CONTINUOUS
 62
   211
 10
28.240483296379299
 20
36.918095967008639
 30
0.0
  0
VERTEX
  5
36C
  8
ACAD_LAYER_241
  6
CONTINUOUS
 62
   211
 10
28.239184536018598
 20
36.928161119315753
 30
0.0
  0
VERTEX
  5
36D
  8
ACAD_LAYER_241
  6
CONTINUOUS
 62
   211
 10
28.23808847394827
 20
36.938220015731673
 30
0.0
  0
VERTEX
  5
36E
  8
ACAD_LAYER_241
  6
CONTINUOUS
 62
   211
 10
28.237193692779329
 20
36.948270984177128
 30
0.0
  0
VERTEX
  5
36F
  8
ACAD_LAYER_241
  6
CONTINUOUS
 62
   211
 10
28.236498775122811
 20
36.958312352572882
 30
0.0
  0
VERTEX
  5
370
  8
ACAD_LAYER_241
  6
CONTINUOUS
 62
   211
 10
28.236002303589771
 20
36.968342448839593
 30
0.0
  0
VERTEX
  5
371
  8
ACAD_LAYER_241
  6
CONTINUOUS
 62
   211
 10
28.235702860791221
 20
36.978359600898031
 30
0.0
  0
VERTEX
  5
372
  8
ACAD_LAYER_241
  6
CONTINUOUS
 62
   211
 10
28.235599029338211
 20
36.98836213666889
 30
0.0
  0
VERTEX
  5
373
  8
ACAD_LAYER_241
  6
CONTINUOUS
 62
   211
 10
28.23568939184176
 20
36.99834838407287
 30
0.0
  0
VERTEX
  5
374
  8
ACAD_LAYER_241
  6
CONTINUOUS
 62
   211
 10
28.235972530912932
 20
37.008316671030727
 30
0.0
  0
VERTEX
  5
375
  8
ACAD_LAYER_241
  6
CONTINUOUS
 62
   211
 10
28.236447029162711
 20
37.018265325463148
 30
0.0
  0
VERTEX
  5
376
  8
ACAD_LAYER_241
  6
CONTINUOUS
 62
   211
 10
28.23711146920218
 20
37.028192675290903
 30
0.0
  0
VERTEX
  5
377
  8
ACAD_LAYER_241
  6
CONTINUOUS
 62
   211
 10
28.237964433642361
 20
37.038097048434658
 30
0.0
  0
VERTEX
  5
378
  8
ACAD_LAYER_241
  6
CONTINUOUS
 62
   211
 10
28.239004505094279
 20
37.047976772815147
 30
0.0
  0
VERTEX
  5
379
  8
ACAD_LAYER_241
  6
CONTINUOUS
 62
   211
 10
28.240230266168972
 20
37.057830176353121
 30
0.0
  0
VERTEX
  5
37A
  8
ACAD_LAYER_241
  6
CONTINUOUS
 62
   211
 10
28.241640299477481
 20
37.067655586969252
 30
0.0
  0
VERTEX
  5
37B
  8
ACAD_LAYER_241
  6
CONTINUOUS
 62
   211
 10
28.243233187630828
 20
37.077451332584282
 30
0.0
  0
VERTEX
  5
37C
  8
ACAD_LAYER_241
  6
CONTINUOUS
 62
   211
 10
28.245007513240068
 20
37.087215741118939
 30
0.0
  0
VERTEX
  5
37D
  8
ACAD_LAYER_241
  6
CONTINUOUS
 62
   211
 10
28.2469605378487
 20
37.096947960430697
 30
0.0
  0
VERTEX
  5
37E
  8
ACAD_LAYER_241
  6
CONTINUOUS
 62
   211
 10
28.249089729571061
 20
37.10664834836043
 30
0.0
  0
VERTEX
  5
37F
  8
ACAD_LAYER_241
  6
CONTINUOUS
 62
   211
 10
28.251393980874369
 20
37.116317047803847
 30
0.0
  0
VERTEX
  5
380
  8
ACAD_LAYER_241
  6
CONTINUOUS
 62
   211
 10
28.25387218422587
 20
37.125954201656683
 30
0.0
  0
VERTEX
  5
381
  8
ACAD_LAYER_241
  6
CONTINUOUS
 62
   211
 10
28.256523232092771
 20
37.13555995281466
 30
0.0
  0
VERTEX
  5
382
  8
ACAD_LAYER_241
  6
CONTINUOUS
 62
   211
 10
28.259346016942359
 20
37.1451344441735
 30
0.0
  0
VERTEX
  5
383
  8
ACAD_LAYER_241
  6
CONTINUOUS
 62
   211
 10
28.262339431241809
 20
37.154677818628961
 30
0.0
  0
VERTEX
  5
384
  8
ACAD_LAYER_241
  6
CONTINUOUS
 62
   211
 10
28.265502367458389
 20
37.164190219076758
 30
0.0
  0
VERTEX
  5
385
  8
ACAD_LAYER_241
  6
CONTINUOUS
 62
   211
 10
28.26883371805933
 20
37.173671788412619
 30
0.0
  0
VERTEX
  5
386
  8
ACAD_LAYER_241
  6
CONTINUOUS
 62
   211
 10
28.272332375511851
 20
37.183122669532281
 30
0.0
  0
VERTEX
  5
387
  8
ACAD_LAYER_241
  6
CONTINUOUS
 62
   211
 10
28.275997232283189
 20
37.192543005331451
 30
0.0
  0
VERTEX
  5
388
  8
ACAD_LAYER_241
  6
CONTINUOUS
 62
   211
 10
28.279827180840591
 20
37.201932938705909
 30
0.0
  0
VERTEX
  5
389
  8
ACAD_LAYER_241
  6
CONTINUOUS
 62
   211
 10
28.283821113651278
 20
37.211292612551311
 30
0.0
  0
VERTEX
  5
38A
  8
ACAD_LAYER_241
  6
CONTINUOUS
 62
   211
 10
28.287977923182481
 20
37.220622169763438
 30
0.0
  0
VERTEX
  5
38B
  8
ACAD_LAYER_241
  6
CONTINUOUS
 62
   211
 10
28.292296501901451
 20
37.229921753238031
 30
0.0
  0
VERTEX
  5
38C
  8
ACAD_LAYER_241
  6
CONTINUOUS
 62
   211
 10
28.2967757422754
 20
37.239191505870792
 30
0.0
  0
VERTEX
  5
38D
  8
ACAD_LAYER_241
  6
CONTINUOUS
 62
   211
 10
28.301414536771571
 20
37.248431570557443
 30
0.0
  0
SEQEND
  5
38E
  8
ACAD_LAYER_241
  6
CONTINUOUS
 62
   211
  0
POLYLINE
  5
C0
  8
ACAD_LAYER_241
  6
CONTINUOUS
 62
   211
 66
     1
 10
0.0
 20
0.0
 30
0.0
  0
VERTEX
  5
423
  8
ACAD_LAYER_241
  6
CONTINUOUS
 62
   211
 10
31.02132084549805
 20
36.046539037234417
 30
0.0
  0
VERTEX
  5
424
  8
ACAD_LAYER_241
  6
CONTINUOUS
 62
   211
 10
31.015814800921849
 20
36.030082598066961
 30
0.0
  0
VERTEX
  5
425
  8
ACAD_LAYER_241
  6
CONTINUOUS
 62
   211
 10
31.010442869999991
 20
36.013585846108491
 30
0.0
  0
VERTEX
  5
426
  8
ACAD_LAYER_241
  6
CONTINUOUS
 62
   211
 10
31.005206847340741
 20
35.997048732536911
 30
0.0
  0
VERTEX
  5
427
  8
ACAD_LAYER_241
  6
CONTINUOUS
 62
   211
 10
31.000108527552371
 20
35.980471208529977
 30
0.0
  0
VERTEX
  5
428
  8
ACAD_LAYER_241
  6
CONTINUOUS
 62
   211
 10
30.995149705243129
 20
35.963853225265531
 30
0.0
  0
VERTEX
  5
429
  8
ACAD_LAYER_241
  6
CONTINUOUS
 62
   211
 10
30.99033217502128
 20
35.9471947339214
 30
0.0
  0
VERTEX
  5
42A
  8
ACAD_LAYER_241
  6
CONTINUOUS
 62
   211
 10
30.985657731495088
 20
35.930495685675353
 30
0.0
  0
VERTEX
  5
42B
  8
ACAD_LAYER_241
  6
CONTINUOUS
 62
   211
 10
30.981128169272839
 20
35.913756031705233
 30
0.0
  0
VERTEX
  5
42C
  8
ACAD_LAYER_241
  6
CONTINUOUS
 62
   211
 10
30.976745282962771
 20
35.896975723188881
 30
0.0
  0
VERTEX
  5
42D
  8
ACAD_LAYER_241
  6
CONTINUOUS
 62
   211
 10
30.972510867173138
 20
35.88015471130408
 30
0.0
  0
VERTEX
  5
42E
  8
ACAD_LAYER_241
  6
CONTINUOUS
 62
   211
 10
30.968426716512241
 20
35.863292947228658
 30
0.0
  0
VERTEX
  5
42F
  8
ACAD_LAYER_241
  6
CONTINUOUS
 62
   211
 10
30.964494625588291
 20
35.84639038214047
 30
0.0
  0
VERTEX
  5
430
  8
ACAD_LAYER_241
  6
CONTINUOUS
 62
   211
 10
30.96071638900959
 20
35.829446967217258
 30
0.0
  0
VERTEX
  5
431
  8
ACAD_LAYER_241
  6
CONTINUOUS
 62
   211
 10
30.957093801384389
 20
35.812462653636878
 30
0.0
  0
VERTEX
  5
432
  8
ACAD_LAYER_241
  6
CONTINUOUS
 62
   211
 10
30.953628657320959
 20
35.795437392577163
 30
0.0
  0
VERTEX
  5
433
  8
ACAD_LAYER_241
  6
CONTINUOUS
 62
   211
 10
30.950322751427549
 20
35.778371135215899
 30
0.0
  0
VERTEX
  5
434
  8
ACAD_LAYER_241
  6
CONTINUOUS
 62
   211
 10
30.94717787831242
 20
35.761263832730933
 30
0.0
  0
VERTEX
  5
435
  8
ACAD_LAYER_241
  6
CONTINUOUS
 62
   211
 10
30.944195832583851
 20
35.744115436300049
 30
0.0
  0
VERTEX
  5
436
  8
ACAD_LAYER_241
  6
CONTINUOUS
 62
   211
 10
30.941378408850081
 20
35.72692589710109
 30
0.0
  0
VERTEX
  5
437
  8
ACAD_LAYER_241
  6
CONTINUOUS
 62
   211
 10
30.938727401719401
 20
35.70969516631186
 30
0.0
  0
VERTEX
  5
438
  8
ACAD_LAYER_241
  6
CONTINUOUS
 62
   211
 10
30.936244605800059
 20
35.692423195110152
 30
0.0
  0
VERTEX
  5
439
  8
ACAD_LAYER_241
  6
CONTINUOUS
 62
   211
 10
30.93393181570033
 20
35.675109934673827
 30
0.0
  0
VERTEX
  5
43A
  8
ACAD_LAYER_241
  6
CONTINUOUS
 62
   211
 10
30.93179082602845
 20
35.657755336180699
 30
0.0
  0
VERTEX
  5
43B
  8
ACAD_LAYER_241
  6
CONTINUOUS
 62
   211
 10
30.929823431392698
 20
35.640359350808552
 30
0.0
  0
VERTEX
  5
43C
  8
ACAD_LAYER_241
  6
CONTINUOUS
 62
   211
 10
30.92803142640134
 20
35.622921929735213
 30
0.0
  0
VERTEX
  5
43D
  8
ACAD_LAYER_241
  6
CONTINUOUS
 62
   211
 10
30.926416605662631
 20
35.605443024138523
 30
0.0
  0
VERTEX
  5
43E
  8
ACAD_LAYER_241
  6
CONTINUOUS
 62
   211
 10
30.924980763784841
 20
35.58792258519626
 30
0.0
  0
VERTEX
  5
43F
  8
ACAD_LAYER_241
  6
CONTINUOUS
 62
   211
 10
30.923725695376231
 20
35.570360564086272
 30
0.0
  0
VERTEX
  5
440
  8
ACAD_LAYER_241
  6
CONTINUOUS
 62
   211
 10
30.922653195045061
 20
35.552756911986357
 30
0.0
  0
VERTEX
  5
441
  8
ACAD_LAYER_241
  6
CONTINUOUS
 62
   211
 10
30.92176505739959
 20
35.535111580074357
 30
0.0
  0
VERTEX
  5
442
  8
ACAD_LAYER_241
  6
CONTINUOUS
 62
   211
 10
30.921063077048089
 20
35.517424519528049
 30
0.0
  0
VERTEX
  5
443
  8
ACAD_LAYER_241
  6
CONTINUOUS
 62
   211
 10
30.920550421154552
 20
35.499695645806447
 30
0.0
  0
VERTEX
  5
444
  8
ACAD_LAYER_241
  6
CONTINUOUS
 62
   211
 10
30.920231530887769
 20
35.481924843495158
 30
0.0
  0
VERTEX
  5
445
  8
ACAD_LAYER_241
  6
CONTINUOUS
 62
   211
 10
30.920110111863259
 20
35.464112017461872
 30
0.0
  0
VERTEX
  5
446
  8
ACAD_LAYER_241
  6
CONTINUOUS
 62
   211
 10
30.920189869696529
 20
35.446257072574362
 30
0.0
  0
VERTEX
  5
447
  8
ACAD_LAYER_241
  6
CONTINUOUS
 62
   211
 10
30.9204745100031
 20
35.428359913700319
 30
0.0
  0
VERTEX
  5
448
  8
ACAD_LAYER_241
  6
CONTINUOUS
 62
   211
 10
30.92096773839846
 20
35.410420445707501
 30
0.0
  0
VERTEX
  5
449
  8
ACAD_LAYER_241
  6
CONTINUOUS
 62
   211
 10
30.921673260498132
 20
35.39243857346365
 30
0.0
  0
VERTEX
  5
44A
  8
ACAD_LAYER_241
  6
CONTINUOUS
 62
   211
 10
30.92259478191761
 20
35.374414201836437
 30
0.0
  0
VERTEX
  5
44B
  8
ACAD_LAYER_241
  6
CONTINUOUS
 62
   211
 10
30.923736008272421
 20
35.35634723569369
 30
0.0
  0
VERTEX
  5
44C
  8
ACAD_LAYER_241
  6
CONTINUOUS
 62
   211
 10
30.925100645178059
 20
35.33823757990303
 30
0.0
  0
VERTEX
  5
44D
  8
ACAD_LAYER_241
  6
CONTINUOUS
 62
   211
 10
30.92669239825004
 20
35.320085139332257
 30
0.0
  0
VERTEX
  5
44E
  8
ACAD_LAYER_241
  6
CONTINUOUS
 62
   211
 10
30.928514973103869
 20
35.301889818849112
 30
0.0
  0
VERTEX
  5
44F
  8
ACAD_LAYER_241
  6
CONTINUOUS
 62
   211
 10
30.930572075355052
 20
35.283651523321247
 30
0.0
  0
VERTEX
  5
450
  8
ACAD_LAYER_241
  6
CONTINUOUS
 62
   211
 10
30.93286741061911
 20
35.265370157616509
 30
0.0
  0
VERTEX
  5
451
  8
ACAD_LAYER_241
  6
CONTINUOUS
 62
   211
 10
30.935404684511528
 20
35.247045626602507
 30
0.0
  0
VERTEX
  5
452
  8
ACAD_LAYER_241
  6
CONTINUOUS
 62
   211
 10
30.938188157929272
 20
35.228676595640771
 30
0.0
  0
VERTEX
  5
453
  8
ACAD_LAYER_241
  6
CONTINUOUS
 62
   211
 10
30.941225261746631
 20
35.210257139607087
 30
0.0
  0
VERTEX
  5
454
  8
ACAD_LAYER_241
  6
CONTINUOUS
 62
   211
 10
30.944521262651371
 20
35.191790030757993
 30
0.0
  0
VERTEX
  5
455
  8
ACAD_LAYER_241
  6
CONTINUOUS
 62
   211
 10
30.948080915779801
 20
35.173279459416896
 30
0.0
  0
VERTEX
  5
456
  8
ACAD_LAYER_241
  6
CONTINUOUS
 62
   211
 10
30.95190897626825
 20
35.154729615907272
 30
0.0
  0
VERTEX
  5
457
  8
ACAD_LAYER_241
  6
CONTINUOUS
 62
   211
 10
30.95601019925304
 20
35.136144690552577
 30
0.0
  0
VERTEX
  5
458
  8
ACAD_LAYER_241
  6
CONTINUOUS
 62
   211
 10
30.960389339870488
 20
35.11752887367625
 30
0.0
  0
VERTEX
  5
459
  8
ACAD_LAYER_241
  6
CONTINUOUS
 62
   211
 10
30.96505115325694
 20
35.098886355601742
 30
0.0
  0
VERTEX
  5
45A
  8
ACAD_LAYER_241
  6
CONTINUOUS
 62
   211
 10
30.970000394548709
 20
35.08022132665252
 30
0.0
  0
VERTEX
  5
45B
  8
ACAD_LAYER_241
  6
CONTINUOUS
 62
   211
 10
30.975241818882122
 20
35.061537977152
 30
0.0
  0
VERTEX
  5
45C
  8
ACAD_LAYER_241
  6
CONTINUOUS
 62
   211
 10
30.980780181393509
 20
35.042840497423647
 30
0.0
  0
VERTEX
  5
45D
  8
ACAD_LAYER_241
  6
CONTINUOUS
 62
   211
 10
30.986620237219199
 20
35.02413307779095
 30
0.0
  0
VERTEX
  5
45E
  8
ACAD_LAYER_241
  6
CONTINUOUS
 62
   211
 10
30.99276674149549
 20
35.005419908577302
 30
0.0
  0
VERTEX
  5
45F
  8
ACAD_LAYER_241
  6
CONTINUOUS
 62
   211
 10
30.999224449358749
 20
34.986705180106178
 30
0.0
  0
VERTEX
  5
460
  8
ACAD_LAYER_241
  6
CONTINUOUS
 62
   211
 10
31.005998115945271
 20
34.967993082701028
 30
0.0
  0
VERTEX
  5
461
  8
ACAD_LAYER_241
  6
CONTINUOUS
 62
   211
 10
31.013092496391408
 20
34.949287806685312
 30
0.0
  0
VERTEX
  5
462
  8
ACAD_LAYER_241
  6
CONTINUOUS
 62
   211
 10
31.02051036890899
 20
34.930588021151813
 30
0.0
  0
VERTEX
  5
463
  8
ACAD_LAYER_241
  6
CONTINUOUS
 62
   211
 10
31.028258135141979
 20
34.911890600027519
 30
0.0
  0
VERTEX
  5
464
  8
ACAD_LAYER_241
  6
CONTINUOUS
 62
   211
 10
31.036345985374869
 20
34.893197040887202
 30
0.0
  0
VERTEX
  5
465
  8
ACAD_LAYER_241
  6
CONTINUOUS
 62
   211
 10
31.044784109892131
 20
34.874508841305591
 30
0.0
  0
VERTEX
  5
466
  8
ACAD_LAYER_241
  6
CONTINUOUS
 62
   211
 10
31.053582698978271
 20
34.855827498857458
 30
0.0
  0
VERTEX
  5
467
  8
ACAD_LAYER_241
  6
CONTINUOUS
 62
   211
 10
31.06275194291776
 20
34.837154511117532
 30
0.0
  0
VERTEX
  5
468
  8
ACAD_LAYER_241
  6
CONTINUOUS
 62
   211
 10
31.07230203199509
 20
34.818491375660592
 30
0.0
  0
VERTEX
  5
469
  8
ACAD_LAYER_241
  6
CONTINUOUS
 62
   211
 10
31.082243156494741
 20
34.79983959006136
 30
0.0
  0
VERTEX
  5
46A
  8
ACAD_LAYER_241
  6
CONTINUOUS
 62
   211
 10
31.092585506701219
 20
34.781200651894601
 30
0.0
  0
VERTEX
  5
46B
  8
ACAD_LAYER_241
  6
CONTINUOUS
 62
   211
 10
31.103339272898971
 20
34.76257605873505
 30
0.0
  0
VERTEX
  5
46C
  8
ACAD_LAYER_241
  6
CONTINUOUS
 62
   211
 10
31.11451464537252
 20
34.743967308157472
 30
0.0
  0
VERTEX
  5
46D
  8
ACAD_LAYER_241
  6
CONTINUOUS
 62
   211
 10
31.126121814406339
 20
34.725375897736612
 30
0.0
  0
VERTEX
  5
46E
  8
ACAD_LAYER_241
  6
CONTINUOUS
 62
   211
 10
31.138170970284921
 20
34.706803325047211
 30
0.0
  0
VERTEX
  5
46F
  8
ACAD_LAYER_241
  6
CONTINUOUS
 62
   211
 10
31.15067230329274
 20
34.68825108766405
 30
0.0
  0
VERTEX
  5
470
  8
ACAD_LAYER_241
  6
CONTINUOUS
 62
   211
 10
31.163636003714281
 20
34.66972068316187
 30
0.0
  0
VERTEX
  5
471
  8
ACAD_LAYER_241
  6
CONTINUOUS
 62
   211
 10
31.177074884323702
 20
34.651210993578552
 30
0.0
  0
VERTEX
  5
472
  8
ACAD_LAYER_241
  6
CONTINUOUS
 62
   211
 10
31.191015900663949
 20
34.632712051060217
 30
0.0
  0
VERTEX
  5
473
  8
ACAD_LAYER_241
  6
CONTINUOUS
 62
   211
 10
31.20547449855059
 20
34.614233542002872
 30
0.0
  0
VERTEX
  5
474
  8
ACAD_LAYER_241
  6
CONTINUOUS
 62
   211
 10
31.220463615789569
 20
34.595788238094038
 30
0.0
  0
VERTEX
  5
475
  8
ACAD_LAYER_241
  6
CONTINUOUS
 62
   211
 10
31.23599619018686
 20
34.577388911021281
 30
0.0
  0
VERTEX
  5
476
  8
ACAD_LAYER_241
  6
CONTINUOUS
 62
   211
 10
31.2520851595484
 20
34.559048332472088
 30
0.0
  0
VERTEX
  5
477
  8
ACAD_LAYER_241
  6
CONTINUOUS
 62
   211
 10
31.268743461680149
 20
34.540779274134039
 30
0.0
  0
VERTEX
  5
478
  8
ACAD_LAYER_241
  6
CONTINUOUS
 62
   211
 10
31.285984034388068
 20
34.522594507694663
 30
0.0
  0
VERTEX
  5
479
  8
ACAD_LAYER_241
  6
CONTINUOUS
 62
   211
 10
31.303819815478121
 20
34.50450680484149
 30
0.0
  0
VERTEX
  5
47A
  8
ACAD_LAYER_241
  6
CONTINUOUS
 62
   211
 10
31.32226374275627
 20
34.486528937262037
 30
0.0
  0
VERTEX
  5
47B
  8
ACAD_LAYER_241
  6
CONTINUOUS
 62
   211
 10
31.341328754028439
 20
34.468673676643867
 30
0.0
  0
VERTEX
  5
47C
  8
ACAD_LAYER_241
  6
CONTINUOUS
 62
   211
 10
31.361027787100621
 20
34.450953794674547
 30
0.0
  0
VERTEX
  5
47D
  8
ACAD_LAYER_241
  6
CONTINUOUS
 62
   211
 10
31.381373779778752
 20
34.43338206304157
 30
0.0
  0
VERTEX
  5
47E
  8
ACAD_LAYER_241
  6
CONTINUOUS
 62
   211
 10
31.40237966986879
 20
34.415971253432481
 30
0.0
  0
VERTEX
  5
47F
  8
ACAD_LAYER_241
  6
CONTINUOUS
 62
   211
 10
31.424058395176701
 20
34.398734137534817
 30
0.0
  0
VERTEX
  5
480
  8
ACAD_LAYER_241
  6
CONTINUOUS
 62
   211
 10
31.446422893508441
 20
34.381683487036128
 30
0.0
  0
VERTEX
  5
481
  8
ACAD_LAYER_241
  6
CONTINUOUS
 62
   211
 10
31.4694870482877
 20
34.364831320248641
 30
0.0
  0
VERTEX
  5
482
  8
ACAD_LAYER_241
  6
CONTINUOUS
 62
   211
 10
31.4932654604007
 20
34.348196476290241
 30
0.0
  0
VERTEX
  5
483
  8
ACAD_LAYER_241
  6
CONTINUOUS
 62
   211
 10
31.517772143847289
 20
34.331801958057113
 30
0.0
  0
VERTEX
  5
484
  8
ACAD_LAYER_241
  6
CONTINUOUS
 62
   211
 10
31.543021112627279
 20
34.315670768445337
 30
0.0
  0
VERTEX
  5
485
  8
ACAD_LAYER_241
  6
CONTINUOUS
 62
   211
 10
31.569026380740471
 20
34.299825910351061
 30
0.0
  0
VERTEX
  5
486
  8
ACAD_LAYER_241
  6
CONTINUOUS
 62
   211
 10
31.59580196218668
 20
34.284290386670371
 30
0.0
  0
VERTEX
  5
487
  8
ACAD_LAYER_241
  6
CONTINUOUS
 62
   211
 10
31.623361870965731
 20
34.26908720029941
 30
0.0
  0
VERTEX
  5
488
  8
ACAD_LAYER_241
  6
CONTINUOUS
 62
   211
 10
31.651720121077439
 20
34.254239354134292
 30
0.0
  0
VERTEX
  5
489
  8
ACAD_LAYER_241
  6
CONTINUOUS
 62
   211
 10
31.680890726521611
 20
34.239769851071102
 30
0.0
  0
VERTEX
  5
48A
  8
ACAD_LAYER_241
  6
CONTINUOUS
 62
   211
 10
31.71088770129807
 20
34.225701694006013
 30
0.0
  0
VERTEX
  5
48B
  8
ACAD_LAYER_241
  6
CONTINUOUS
 62
   211
 10
31.741725059406619
 20
34.212057885835101
 30
0.0
  0
VERTEX
  5
48C
  8
ACAD_LAYER_241
  6
CONTINUOUS
 62
   211
 10
31.773416814847081
 20
34.19886142945451
 30
0.0
  0
VERTEX
  5
48D
  8
ACAD_LAYER_241
  6
CONTINUOUS
 62
   211
 10
31.805976981619271
 20
34.18613532776034
 30
0.0
  0
VERTEX
  5
48E
  8
ACAD_LAYER_241
  6
CONTINUOUS
 62
   211
 10
31.839419573722989
 20
34.173902583648719
 30
0.0
  0
VERTEX
  5
48F
  8
ACAD_LAYER_241
  6
CONTINUOUS
 62
   211
 10
31.873758605158081
 20
34.162186200015761
 30
0.0
  0
VERTEX
  5
490
  8
ACAD_LAYER_241
  6
CONTINUOUS
 62
   211
 10
31.908981792853449
 20
34.151020438635769
 30
0.0
  0
VERTEX
  5
491
  8
ACAD_LAYER_241
  6
CONTINUOUS
 62
   211
 10
31.9449318625385
 20
34.140494766673797
 30
0.0
  0
VERTEX
  5
492
  8
ACAD_LAYER_241
  6
CONTINUOUS
 62
   211
 10
31.98156201620472
 20
34.130640662903772
 30
0.0
  0
VERTEX
  5
493
  8
ACAD_LAYER_241
  6
CONTINUOUS
 62
   211
 10
32.018850252265032
 20
34.12147822622137
 30
0.0
  0
VERTEX
  5
494
  8
ACAD_LAYER_241
  6
CONTINUOUS
 62
   211
 10
32.056774569132322
 20
34.113027555522272
 30
0.0
  0
VERTEX
  5
495
  8
ACAD_LAYER_241
  6
CONTINUOUS
 62
   211
 10
32.095312965219541
 20
34.105308749702218
 30
0.0
  0
VERTEX
  5
496
  8
ACAD_LAYER_241
  6
CONTINUOUS
 62
   211
 10
32.13444343893957
 20
34.098341907656909
 30
0.0
  0
VERTEX
  5
497
  8
ACAD_LAYER_241
  6
CONTINUOUS
 62
   211
 10
32.17414398870531
 20
34.092147128282029
 30
0.0
  0
VERTEX
  5
498
  8
ACAD_LAYER_241
  6
CONTINUOUS
 62
   211
 10
32.21436542019989
 20
34.086750883437311
 30
0.0
  0
VERTEX
  5
499
  8
ACAD_LAYER_241
  6
CONTINUOUS
 62
   211
 10
32.254993511639469
 20
34.082177167186202
 30
0.0
  0
VERTEX
  5
49A
  8
ACAD_LAYER_241
  6
CONTINUOUS
 62
   211
 10
32.295953318338128
 20
34.078424135451172
 30
0.0
  0
VERTEX
  5
49B
  8
ACAD_LAYER_241
  6
CONTINUOUS
 62
   211
 10
32.33717239153291
 20
34.075488997615167
 30
0.0
  0
VERTEX
  5
49C
  8
ACAD_LAYER_241
  6
CONTINUOUS
 62
   211
 10
32.378578282460872
 20
34.073368963061171
 30
0.0
  0
VERTEX
  5
49D
  8
ACAD_LAYER_241
  6
CONTINUOUS
 62
   211
 10
32.42009854235905
 20
34.072061241172129
 30
0.0
  0
VERTEX
  5
49E
  8
ACAD_LAYER_241
  6
CONTINUOUS
 62
   211
 10
32.461660722464522
 20
34.07156304133099
 30
0.0
  0
VERTEX
  5
49F
  8
ACAD_LAYER_241
  6
CONTINUOUS
 62
   211
 10
32.503192374014333
 20
34.071871572920713
 30
0.0
  0
VERTEX
  5
4A0
  8
ACAD_LAYER_241
  6
CONTINUOUS
 62
   211
 10
32.54468721829717
 20
34.072979652717017
 30
0.0
  0
VERTEX
  5
4A1
  8
ACAD_LAYER_241
  6
CONTINUOUS
 62
   211
 10
32.586138290558452
 20
34.07486318033321
 30
0.0
  0
VERTEX
  5
4A2
  8
ACAD_LAYER_241
  6
CONTINUOUS
 62
   211
 10
32.627472112970452
 20
34.077493989408623
 30
0.0
  0
VERTEX
  5
4A3
  8
ACAD_LAYER_241
  6
CONTINUOUS
 62
   211
 10
32.668615207705372
 20
34.080843913582662
 30
0.0
  0
VERTEX
  5
4A4
  8
ACAD_LAYER_241
  6
CONTINUOUS
 62
   211
 10
32.709494096935487
 20
34.084884786494648
 30
0.0
  0
VERTEX
  5
4A5
  8
ACAD_LAYER_241
  6
CONTINUOUS
 62
   211
 10
32.750035302832998
 20
34.089588441783967
 30
0.0
  0
VERTEX
  5
4A6
  8
ACAD_LAYER_241
  6
CONTINUOUS
 62
   211
 10
32.790165347570181
 20
34.094926713089947
 30
0.0
  0
VERTEX
  5
4A7
  8
ACAD_LAYER_241
  6
CONTINUOUS
 62
   211
 10
32.829819208654413
 20
34.100872334291772
 30
0.0
  0
VERTEX
  5
4A8
  8
ACAD_LAYER_241
  6
CONTINUOUS
 62
   211
 10
32.869119484790609
 20
34.107416814947079
 30
0.0
  0
VERTEX
  5
4A9
  8
ACAD_LAYER_241
  6
CONTINUOUS
 62
   211
 10
32.90810380203903
 20
34.114539640690431
 30
0.0
  0
VERTEX
  5
4AA
  8
ACAD_LAYER_241
  6
CONTINUOUS
 62
   211
 10
32.946737309740193
 20
34.122212148429561
 30
0.0
  0
VERTEX
  5
4AB
  8
ACAD_LAYER_241
  6
CONTINUOUS
 62
   211
 10
32.984985157234682
 20
34.130405675072261
 30
0.0
  0
VERTEX
  5
4AC
  8
ACAD_LAYER_241
  6
CONTINUOUS
 62
   211
 10
33.022812493863007
 20
34.139091557526328
 30
0.0
  0
VERTEX
  5
4AD
  8
ACAD_LAYER_241
  6
CONTINUOUS
 62
   211
 10
33.060184468965737
 20
34.148241132699539
 30
0.0
  0
VERTEX
  5
4AE
  8
ACAD_LAYER_241
  6
CONTINUOUS
 62
   211
 10
33.097066231883417
 20
34.157825737499671
 30
0.0
  0
VERTEX
  5
4AF
  8
ACAD_LAYER_241
  6
CONTINUOUS
 62
   211
 10
33.133426856078827
 20
34.167814608226152
 30
0.0
  0
VERTEX
  5
4B0
  8
ACAD_LAYER_241
  6
CONTINUOUS
 62
   211
 10
33.169271891433453
 20
34.17817264776496
 30
0.0
  0
VERTEX
  5
4B1
  8
ACAD_LAYER_241
  6
CONTINUOUS
 62
   211
 10
33.204613487362828
 20
34.188884859242989
 30
0.0
  0
VERTEX
  5
4B2
  8
ACAD_LAYER_241
  6
CONTINUOUS
 62
   211
 10
33.239461742027871
 20
34.199939031909629
 30
0.0
  0
VERTEX
  5
4B3
  8
ACAD_LAYER_241
  6
CONTINUOUS
 62
   211
 10
33.273826753589397
 20
34.211322955014303
 30
0.0
  0
VERTEX
  5
4B4
  8
ACAD_LAYER_241
  6
CONTINUOUS
 62
   211
 10
33.307718620208327
 20
34.223024417806428
 30
0.0
  0
VERTEX
  5
4B5
  8
ACAD_LAYER_241
  6
CONTINUOUS
 62
   211
 10
33.341147440045532
 20
34.235031209535421
 30
0.0
  0
VERTEX
  5
4B6
  8
ACAD_LAYER_241
  6
CONTINUOUS
 62
   211
 10
33.37412331126189
 20
34.247331119450678
 30
0.0
  0
VERTEX
  5
4B7
  8
ACAD_LAYER_241
  6
CONTINUOUS
 62
   211
 10
33.406656332018201
 20
34.259911936801672
 30
0.0
  0
VERTEX
  5
4B8
  8
ACAD_LAYER_241
  6
CONTINUOUS
 62
   211
 10
33.438756600475401
 20
34.272761450837727
 30
0.0
  0
VERTEX
  5
4B9
  8
ACAD_LAYER_241
  6
CONTINUOUS
 62
   211
 10
33.470434214794359
 20
34.285867450808347
 30
0.0
  0
VERTEX
  5
4BA
  8
ACAD_LAYER_241
  6
CONTINUOUS
 62
   211
 10
33.501699273135927
 20
34.299217725962912
 30
0.0
  0
VERTEX
  5
4BB
  8
ACAD_LAYER_241
  6
CONTINUOUS
 62
   211
 10
33.532561873660988
 20
34.312800065550832
 30
0.0
  0
VERTEX
  5
4BC
  8
ACAD_LAYER_241
  6
CONTINUOUS
 62
   211
 10
33.563032114530422
 20
34.326602258821531
 30
0.0
  0
VERTEX
  5
4BD
  8
ACAD_LAYER_241
  6
CONTINUOUS
 62
   211
 10
33.59312009390505
 20
34.34061209502444
 30
0.0
  0
VERTEX
  5
4BE
  8
ACAD_LAYER_241
  6
CONTINUOUS
 62
   211
 10
33.62283590994582
 20
34.354817363408927
 30
0.0
  0
VERTEX
  5
4BF
  8
ACAD_LAYER_241
  6
CONTINUOUS
 62
   211
 10
33.652145966617461
 20
34.369188362979948
 30
0.0
  0
VERTEX
  5
4C0
  8
ACAD_LAYER_241
  6
CONTINUOUS
 62
   211
 10
33.68101676387721
 20
34.383700666865693
 30
0.0
  0
VERTEX
  5
4C1
  8
ACAD_LAYER_241
  6
CONTINUOUS
 62
   211
 10
33.709458543874568
 20
34.398349975500452
 30
0.0
  0
VERTEX
  5
4C2
  8
ACAD_LAYER_241
  6
CONTINUOUS
 62
   211
 10
33.737481548759042
 20
34.413131989318551
 30
0.0
  0
VERTEX
  5
4C3
  8
ACAD_LAYER_241
  6
CONTINUOUS
 62
   211
 10
33.765096020680147
 20
34.428042408754308
 30
0.0
  0
VERTEX
  5
4C4
  8
ACAD_LAYER_241
  6
CONTINUOUS
 62
   211
 10
33.792312201787389
 20
34.44307693424205
 30
0.0
  0
VERTEX
  5
4C5
  8
ACAD_LAYER_241
  6
CONTINUOUS
 62
   211
 10
33.819140334230283
 20
34.458231266216067
 30
0.0
  0
VERTEX
  5
4C6
  8
ACAD_LAYER_241
  6
CONTINUOUS
 62
   211
 10
33.845590660158337
 20
34.473501105110707
 30
0.0
  0
VERTEX
  5
4C7
  8
ACAD_LAYER_241
  6
CONTINUOUS
 62
   211
 10
33.87167342172107
 20
34.488882151360272
 30
0.0
  0
VERTEX
  5
4C8
  8
ACAD_LAYER_241
  6
CONTINUOUS
 62
   211
 10
33.897398861067963
 20
34.504370105399083
 30
0.0
  0
VERTEX
  5
4C9
  8
ACAD_LAYER_241
  6
CONTINUOUS
 62
   211
 10
33.92277722034855
 20
34.519960667661437
 30
0.0
  0
VERTEX
  5
4CA
  8
ACAD_LAYER_241
  6
CONTINUOUS
 62
   211
 10
33.947818741712332
 20
34.535649538581701
 30
0.0
  0
VERTEX
  5
4CB
  8
ACAD_LAYER_241
  6
CONTINUOUS
 62
   211
 10
33.972533667308831
 20
34.55143241859416
 30
0.0
  0
VERTEX
  5
4CC
  8
ACAD_LAYER_241
  6
CONTINUOUS
 62
   211
 10
33.996932239287531
 20
34.567305008133111
 30
0.0
  0
VERTEX
  5
4CD
  8
ACAD_LAYER_241
  6
CONTINUOUS
 62
   211
 10
34.021024699797977
 20
34.583263007632887
 30
0.0
  0
VERTEX
  5
4CE
  8
ACAD_LAYER_241
  6
CONTINUOUS
 62
   211
 10
34.04482152470559
 20
34.59930349009052
 30
0.0
  0
VERTEX
  5
4CF
  8
ACAD_LAYER_241
  6
CONTINUOUS
 62
   211
 10
34.06833148842211
 20
34.615430541414952
 30
0.0
  0
VERTEX
  5
4D0
  8
ACAD_LAYER_241
  6
CONTINUOUS
 62
   211
 10
34.091557732283569
 20
34.631641618188361
 30
0.0
  0
VERTEX
  5
4D1
  8
ACAD_LAYER_241
  6
CONTINUOUS
 62
   211
 10
34.114502845017562
 20
34.647932821107872
 30
0.0
  0
VERTEX
  5
4D2
  8
ACAD_LAYER_241
  6
CONTINUOUS
 62
   211
 10
34.137169415351558
 20
34.664300250870603
 30
0.0
  0
VERTEX
  5
4D3
  8
ACAD_LAYER_241
  6
CONTINUOUS
 62
   211
 10
34.159560032013118
 20
34.680740008173672
 30
0.0
  0
VERTEX
  5
4D4
  8
ACAD_LAYER_241
  6
CONTINUOUS
 62
   211
 10
34.181677283729762
 20
34.697248193714181
 30
0.0
  0
VERTEX
  5
4D5
  8
ACAD_LAYER_241
  6
CONTINUOUS
 62
   211
 10
34.203523759229029
 20
34.713820908189227
 30
0.0
  0
VERTEX
  5
4D6
  8
ACAD_LAYER_241
  6
CONTINUOUS
 62
   211
 10
34.225102047238451
 20
34.730454252295971
 30
0.0
  0
VERTEX
  5
4D7
  8
ACAD_LAYER_241
  6
CONTINUOUS
 62
   211
 10
34.246414736485562
 20
34.747144326731501
 30
0.0
  0
VERTEX
  5
4D8
  8
ACAD_LAYER_241
  6
CONTINUOUS
 62
   211
 10
34.267464415697873
 20
34.763887232192943
 30
0.0
  0
VERTEX
  5
4D9
  8
ACAD_LAYER_241
  6
CONTINUOUS
 62
   211
 10
34.288253673602952
 20
34.780679069377392
 30
0.0
  0
VERTEX
  5
4DA
  8
ACAD_LAYER_241
  6
CONTINUOUS
 62
   211
 10
34.308785098928297
 20
34.797515938981981
 30
0.0
  0
VERTEX
  5
4DB
  8
ACAD_LAYER_241
  6
CONTINUOUS
 62
   211
 10
34.329061280401461
 20
34.81439394170382
 30
0.0
  0
VERTEX
  5
4DC
  8
ACAD_LAYER_241
  6
CONTINUOUS
 62
   211
 10
34.349084806749957
 20
34.831309178240019
 30
0.0
  0
VERTEX
  5
4DD
  8
ACAD_LAYER_241
  6
CONTINUOUS
 62
   211
 10
34.368858266701352
 20
34.84825774928769
 30
0.0
  0
VERTEX
  5
4DE
  8
ACAD_LAYER_241
  6
CONTINUOUS
 62
   211
 10
34.388379879163367
 20
34.865228304548729
 30
0.0
  0
VERTEX
  5
4DF
  8
ACAD_LAYER_241
  6
CONTINUOUS
 62
   211
 10
34.407648216124763
 20
34.882211618074891
 30
0.0
  0
VERTEX
  5
4E0
  8
ACAD_LAYER_241
  6
CONTINUOUS
 62
   211
 10
34.426666395934589
 20
34.899206977088113
 30
0.0
  0
VERTEX
  5
4E1
  8
ACAD_LAYER_241
  6
CONTINUOUS
 62
   211
 10
34.445437536941832
 20
34.916213668810308
 30
0.0
  0
VERTEX
  5
4E2
  8
ACAD_LAYER_241
  6
CONTINUOUS
 62
   211
 10
34.463964757495553
 20
34.933230980463428
 30
0.0
  0
VERTEX
  5
4E3
  8
ACAD_LAYER_241
  6
CONTINUOUS
 62
   211
 10
34.482251175944761
 20
34.950258199269413
 30
0.0
  0
VERTEX
  5
4E4
  8
ACAD_LAYER_241
  6
CONTINUOUS
 62
   211
 10
34.500299910638503
 20
34.967294612450182
 30
0.0
  0
VERTEX
  5
4E5
  8
ACAD_LAYER_241
  6
CONTINUOUS
 62
   211
 10
34.518114079925802
 20
34.984339507227673
 30
0.0
  0
VERTEX
  5
4E6
  8
ACAD_LAYER_241
  6
CONTINUOUS
 62
   211
 10
34.535696802155691
 20
35.001392170823813
 30
0.0
  0
VERTEX
  5
4E7
  8
ACAD_LAYER_241
  6
CONTINUOUS
 62
   211
 10
34.55305119567717
 20
35.018451890460547
 30
0.0
  0
VERTEX
  5
4E8
  8
ACAD_LAYER_241
  6
CONTINUOUS
 62
   211
 10
34.570180378839297
 20
35.035517953359808
 30
0.0
  0
VERTEX
  5
4E9
  8
ACAD_LAYER_241
  6
CONTINUOUS
 62
   211
 10
34.58708746999109
 20
35.05258964674352
 30
0.0
  0
VERTEX
  5
4EA
  8
ACAD_LAYER_241
  6
CONTINUOUS
 62
   211
 10
34.603775587481572
 20
35.069666257833617
 30
0.0
  0
VERTEX
  5
4EB
  8
ACAD_LAYER_241
  6
CONTINUOUS
 62
   211
 10
34.620247849659783
 20
35.086747073852038
 30
0.0
  0
VERTEX
  5
4EC
  8
ACAD_LAYER_241
  6
CONTINUOUS
 62
   211
 10
34.636507374874753
 20
35.103831382020722
 30
0.0
  0
VERTEX
  5
4ED
  8
ACAD_LAYER_241
  6
CONTINUOUS
 62
   211
 10
34.652557281475481
 20
35.12091846956158
 30
0.0
  0
VERTEX
  5
4EE
  8
ACAD_LAYER_241
  6
CONTINUOUS
 62
   211
 10
34.66840068781103
 20
35.138007623696573
 30
0.0
  0
VERTEX
  5
4EF
  8
ACAD_LAYER_241
  6
CONTINUOUS
 62
   211
 10
34.68404071223042
 20
35.15509813164762
 30
0.0
  0
VERTEX
  5
4F0
  8
ACAD_LAYER_241
  6
CONTINUOUS
 62
   211
 10
34.69948047308268
 20
35.172189280636651
 30
0.0
  0
VERTEX
  5
4F1
  8
ACAD_LAYER_241
  6
CONTINUOUS
 62
   211
 10
34.714723088716823
 20
35.189280357885607
 30
0.0
  0
VERTEX
  5
4F2
  8
ACAD_LAYER_241
  6
CONTINUOUS
 62
   211
 10
34.729771677481892
 20
35.206370650616421
 30
0.0
  0
VERTEX
  5
4F3
  8
ACAD_LAYER_241
  6
CONTINUOUS
 62
   211
 10
34.7446293577269
 20
35.223459446051031
 30
0.0
  0
VERTEX
  5
4F4
  8
ACAD_LAYER_241
  6
CONTINUOUS
 62
   211
 10
34.759299247800897
 20
35.240546031411327
 30
0.0
  0
VERTEX
  5
4F5
  8
ACAD_LAYER_241
  6
CONTINUOUS
 62
   211
 10
34.773784466052902
 20
35.25762969391932
 30
0.0
  0
VERTEX
  5
4F6
  8
ACAD_LAYER_241
  6
CONTINUOUS
 62
   211
 10
34.78808813083193
 20
35.274709720796878
 30
0.0
  0
VERTEX
  5
4F7
  8
ACAD_LAYER_241
  6
CONTINUOUS
 62
   211
 10
34.802213360487031
 20
35.291785399265983
 30
0.0
  0
VERTEX
  5
4F8
  8
ACAD_LAYER_241
  6
CONTINUOUS
 62
   211
 10
34.816163273367231
 20
35.308856016548532
 30
0.0
  0
VERTEX
  5
4F9
  8
ACAD_LAYER_241
  6
CONTINUOUS
 62
   211
 10
34.82994098782153
 20
35.32592085986645
 30
0.0
  0
VERTEX
  5
4FA
  8
ACAD_LAYER_241
  6
CONTINUOUS
 62
   211
 10
34.843549622198992
 20
35.342979216441712
 30
0.0
  0
VERTEX
  5
4FB
  8
ACAD_LAYER_241
  6
CONTINUOUS
 62
   211
 10
34.856992294848617
 20
35.36003037349623
 30
0.0
  0
VERTEX
  5
4FC
  8
ACAD_LAYER_241
  6
CONTINUOUS
 62
   211
 10
34.870272124119452
 20
35.377073618251927
 30
0.0
  0
VERTEX
  5
4FD
  8
ACAD_LAYER_241
  6
CONTINUOUS
 62
   211
 10
34.883390435786957
 20
35.394110473571899
 30
0.0
  0
VERTEX
  5
4FE
  8
ACAD_LAYER_241
  6
CONTINUOUS
 62
   211
 10
34.896347168852692
 20
35.411142466514661
 30
0.0
  0
VERTEX
  5
4FF
  8
ACAD_LAYER_241
  6
CONTINUOUS
 62
   211
 10
34.909143361504789
 20
35.428168890595437
 30
0.0
  0
VERTEX
  5
500
  8
ACAD_LAYER_241
  6
CONTINUOUS
 62
   211
 10
34.921780051931449
 20
35.445189039329399
 30
0.0
  0
VERTEX
  5
501
  8
ACAD_LAYER_241
  6
CONTINUOUS
 62
   211
 10
34.934258278320733
 20
35.46220220623173
 30
0.0
  0
VERTEX
  5
502
  8
ACAD_LAYER_241
  6
CONTINUOUS
 62
   211
 10
34.9465790788609
 20
35.479207684817609
 30
0.0
  0
VERTEX
  5
503
  8
ACAD_LAYER_241
  6
CONTINUOUS
 62
   211
 10
34.95874349174003
 20
35.496204768602219
 30
0.0
  0
VERTEX
  5
504
  8
ACAD_LAYER_241
  6
CONTINUOUS
 62
   211
 10
34.970752555146298
 20
35.513192751100739
 30
0.0
  0
VERTEX
  5
505
  8
ACAD_LAYER_241
  6
CONTINUOUS
 62
   211
 10
34.982607307267891
 20
35.530170925828358
 30
0.0
  0
VERTEX
  5
506
  8
ACAD_LAYER_241
  6
CONTINUOUS
 62
   211
 10
34.994308786292898
 20
35.547138586300257
 30
0.0
  0
VERTEX
  5
507
  8
ACAD_LAYER_241
  6
CONTINUOUS
 62
   211
 10
35.00585803040952
 20
35.56409502603163
 30
0.0
  0
VERTEX
  5
508
  8
ACAD_LAYER_241
  6
CONTINUOUS
 62
   211
 10
35.017256077805882
 20
35.581039538537617
 30
0.0
  0
VERTEX
  5
509
  8
ACAD_LAYER_241
  6
CONTINUOUS
 62
   211
 10
35.028503966670158
 20
35.597971417333461
 30
0.0
  0
VERTEX
  5
50A
  8
ACAD_LAYER_241
  6
CONTINUOUS
 62
   211
 10
35.039602735190478
 20
35.614889955934288
 30
0.0
  0
VERTEX
  5
50B
  8
ACAD_LAYER_241
  6
CONTINUOUS
 62
   211
 10
35.050553421555037
 20
35.631794447855313
 30
0.0
  0
VERTEX
  5
50C
  8
ACAD_LAYER_241
  6
CONTINUOUS
 62
   211
 10
35.061357063951952
 20
35.64868418661171
 30
0.0
  0
VERTEX
  5
50D
  8
ACAD_LAYER_241
  6
CONTINUOUS
 62
   211
 10
35.072014700569383
 20
35.665558465718668
 30
0.0
  0
VERTEX
  5
50E
  8
ACAD_LAYER_241
  6
CONTINUOUS
 62
   211
 10
35.082527369595482
 20
35.68241657869136
 30
0.0
  0
VERTEX
  5
50F
  8
ACAD_LAYER_241
  6
CONTINUOUS
 62
   211
 10
35.092896109218408
 20
35.699257819044973
 30
0.0
  0
VERTEX
  5
510
  8
ACAD_LAYER_241
  6
CONTINUOUS
 62
   211
 10
35.103121957626307
 20
35.71608148029469
 30
0.0
  0
VERTEX
  5
511
  8
ACAD_LAYER_241
  6
CONTINUOUS
 62
   211
 10
35.113205953007352
 20
35.732886855955691
 30
0.0
  0
VERTEX
  5
512
  8
ACAD_LAYER_241
  6
CONTINUOUS
 62
   211
 10
35.123149133549681
 20
35.749673239543149
 30
0.0
  0
VERTEX
  5
513
  8
ACAD_LAYER_241
  6
CONTINUOUS
 62
   211
 10
35.132952537441419
 20
35.766439924572254
 30
0.0
  0
VERTEX
  5
514
  8
ACAD_LAYER_241
  6
CONTINUOUS
 62
   211
 10
35.14261720287076
 20
35.783186204558191
 30
0.0
  0
VERTEX
  5
515
  8
ACAD_LAYER_241
  6
CONTINUOUS
 62
   211
 10
35.152144168025849
 20
35.799911373016151
 30
0.0
  0
VERTEX
  5
516
  8
ACAD_LAYER_241
  6
CONTINUOUS
 62
   211
 10
35.161534471094818
 20
35.816614723461313
 30
0.0
  0
VERTEX
  5
517
  8
ACAD_LAYER_241
  6
CONTINUOUS
 62
   211
 10
35.170789150265861
 20
35.833295549408852
 30
0.0
  0
VERTEX
  5
518
  8
ACAD_LAYER_241
  6
CONTINUOUS
 62
   211
 10
35.17990924372711
 20
35.849953144373941
 30
0.0
  0
VERTEX
  5
519
  8
ACAD_LAYER_241
  6
CONTINUOUS
 62
   211
 10
35.188895789666688
 20
35.866586801871762
 30
0.0
  0
VERTEX
  5
51A
  8
ACAD_LAYER_241
  6
CONTINUOUS
 62
   211
 10
35.197749826272791
 20
35.88319581541753
 30
0.0
  0
VERTEX
  5
51B
  8
ACAD_LAYER_241
  6
CONTINUOUS
 62
   211
 10
35.206472391733527
 20
35.899779478526398
 30
0.0
  0
SEQEND
  5
51C
  8
ACAD_LAYER_241
  6
CONTINUOUS
 62
   211
  0
TEXT
  5
C3
  8
ACAD_LAYER_241
  6
CONTINUOUS
 62
    21
 10
-21.761904761904759
 20
63.0
 30
0.0
 40
4.0
  1
FM27-PLS806-40
  7
CK_TEXT_STYLE_0006
  0
LINE
  5
C4
  8
ACAD_LAYER_240
  6
CONTINUOUS
 62
     4
 10
6.9999999999999707
 20
6.1999999999999771
 30
0.0
 11
7.0000000000000844
 21
-6.2000000000000259
 31
0.0
  0
LINE
  5
C5
  8
ACAD_LAYER_240
  6
CONTINUOUS
 62
     4
 10
6.9999999999999707
 20
6.1999999999999771
 30
0.0
 11
-0.0000000000000284
 21
6.1999999999999913
 31
0.0
  0
LINE
  5
C6
  8
ACAD_LAYER_240
  6
CONTINUOUS
 62
     4
 10
7.0000000000000844
 20
-6.2000000000000259
 30
0.0
 11
-0.0000000000000799
 21
-6.2000000000000091
 31
0.0
  0
LINE
  5
C7
  8
ACAD_LAYER_240
  6
CONTINUOUS
 62
     4
 10
33.184105996041978
 20
-39.39999999999975
 30
0.0
 11
34.813765913721809
 21
-39.312044701619847
 31
0.0
  0
LINE
  5
C8
  8
ACAD_LAYER_240
  6
CONTINUOUS
 62
     4
 10
16.794938594102689
 20
-39.008453488349971
 30
0.0
 11
13.3727900683878
 21
-37.896528840065031
 31
0.0
  0
LINE
  5
C9
  8
ACAD_LAYER_240
  6
CONTINUOUS
 62
     4
 10
8.8301021605728351
 20
-37.777572870254517
 30
0.0
 11
7.9999975860117152
 21
-37.999998778104782
 31
0.0
  0
LINE
  5
CA
  8
ACAD_LAYER_240
  6
CONTINUOUS
 62
     4
 10
7.9999975860117152
 20
-37.999998778104782
 30
0.0
 11
0.4999999999995168
 21
-37.999998778104782
 31
0.0
  0
LINE
  5
CB
  8
ACAD_LAYER_240
  6
CONTINUOUS
 62
     4
 10
-0.0000000000003182
 20
37.499998774340561
 30
0.0
 11
-0.0000000000000284
 21
6.1999999999999913
 31
0.0
  0
LINE
  5
CC
  8
ACAD_LAYER_240
  6
CONTINUOUS
 62
     4
 10
7.9999975860118857
 20
37.999998778104711
 30
0.0
 11
0.4999999999996876
 21
37.999998778104711
 31
0.0
  0
LINE
  5
CD
  8
ACAD_LAYER_240
  6
CONTINUOUS
 62
     4
 10
8.8301021605730057
 20
37.777572870254431
 30
0.0
 11
7.9999975860118857
 21
37.999998778104711
 31
0.0
  0
LINE
  5
CE
  8
ACAD_LAYER_240
  6
CONTINUOUS
 62
     4
 10
16.794938594102859
 20
39.008453488349829
 30
0.0
 11
13.372790068387991
 21
37.896528840064931
 31
0.0
  0
LINE
  5
CF
  8
ACAD_LAYER_240
  6
CONTINUOUS
 62
     4
 10
19.267074628526672
 20
39.399999999999892
 30
0.0
 11
33.184105996042213
 21
39.399999999999643
 31
0.0
  0
LINE
  5
D0
  8
ACAD_LAYER_240
  6
CONTINUOUS
 62
     4
 10
39.399999105930043
 20
32.470252215862267
 30
0.0
 11
39.399999105930021
 21
-38.25661330174745
 31
0.0
  0
LINE
  5
D1
  8
ACAD_LAYER_240
  6
CONTINUOUS
 62
     4
 10
19.267074628526501
 20
-39.399999999999849
 30
0.0
 11
33.184105996041978
 21
-39.39999999999975
 31
0.0
  0
LINE
  5
D2
  8
ACAD_LAYER_240
  6
CONTINUOUS
 62
     4
 10
-0.0000000000004832
 20
-37.499998777250447
 30
0.0
 11
-0.0000000000000799
 21
-6.2000000000000091
 31
0.0
  0
ARC
  5
D3
  8
ACAD_LAYER_240
  6
CONTINUOUS
 62
     4
 10
10.900654958489239
 20
-45.504981050066867
 30
0.0
 40
8.0000000000000409
 50
71.999999999999446
 51
104.9999999999996
  0
ARC
  5
D4
  8
ACAD_LAYER_240
  6
CONTINUOUS
 62
     4
 10
0.4999999999995168
 20
-37.499998778104747
 30
0.0
 40
0.5
 50
180.0
 51
270.0
  0
ARC
  5
D5
  8
ACAD_LAYER_240
  6
CONTINUOUS
 62
     4
 10
19.267074628526391
 20
-31.400000000000048
 30
0.0
 40
8.0000000000000089
 50
252.00000000000099
 51
270.0
  0
ARC
  5
D6
  8
ACAD_LAYER_240
  6
CONTINUOUS
 62
     4
 10
0.4999999999996876
 20
37.499998778104697
 30
0.0
 40
0.5
 50
90.0
 51
180.0
  0
ARC
  5
D7
  8
ACAD_LAYER_240
  6
CONTINUOUS
 62
     4
 10
10.90065495848944
 20
45.50498105006676
 30
0.0
 40
8.0000000000000409
 50
255.0000000000004
 51
288.00000000000051
  0
ARC
  5
D8
  8
ACAD_LAYER_240
  6
CONTINUOUS
 62
     4
 10
19.26707462852653
 20
31.399999999999931
 30
0.0
 40
8.0000000000000089
 50
90.0
 51
107.99999999999901
  0
LINE
  5
D9
  8
ACAD_LAYER_240
  6
CONTINUOUS
 62
     4
 10
34.81376591372188
 20
-39.312044701619847
 30
0.0
 11
38.299999105930198
 21
-39.348365324825679
 31
0.0
  0
POLYLINE
  5
DA
  8
ACAD_LAYER_240
  6
CONTINUOUS
 62
     4
 66
     1
 10
0.0
 20
0.0
 30
0.0
  0
VERTEX
  5
5B7
  8
ACAD_LAYER_240
  6
CONTINUOUS
 62
     4
 10
39.399999105930021
 20
-38.25661330174745
 30
0.0
  0
VERTEX
  5
5B8
  8
ACAD_LAYER_240
  6
CONTINUOUS
 62
     4
 10
39.354170787245778
 20
-38.302108178438317
 30
0.0
  0
VERTEX
  5
5B9
  8
ACAD_LAYER_240
  6
CONTINUOUS
 62
     4
 10
39.308342021443593
 20
-38.347602590770251
 30
0.0
  0
VERTEX
  5
5BA
  8
ACAD_LAYER_240
  6
CONTINUOUS
 62
     4
 10
39.262512810031851
 20
-38.393096540297392
 30
0.0
  0
VERTEX
  5
5BB
  8
ACAD_LAYER_240
  6
CONTINUOUS
 62
     4
 10
39.216683154518982
 20
-38.438590028573849
 30
0.0
  0
VERTEX
  5
5BC
  8
ACAD_LAYER_240
  6
CONTINUOUS
 62
     4
 10
39.170853056413321
 20
-38.484083057153811
 30
0.0
  0
VERTEX
  5
5BD
  8
ACAD_LAYER_240
  6
CONTINUOUS
 62
     4
 10
39.125022517223272
 20
-38.529575627591342
 30
0.0
  0
VERTEX
  5
5BE
  8
ACAD_LAYER_240
  6
CONTINUOUS
 62
     4
 10
39.079191538457209
 20
-38.575067741440613
 30
0.0
  0
VERTEX
  5
5BF
  8
ACAD_LAYER_240
  6
CONTINUOUS
 62
     4
 10
39.033360121623552
 20
-38.62055940025575
 30
0.0
  0
VERTEX
  5
5C0
  8
ACAD_LAYER_240
  6
CONTINUOUS
 62
     4
 10
38.987528268230633
 20
-38.666050605590868
 30
0.0
  0
VERTEX
  5
5C1
  8
ACAD_LAYER_240
  6
CONTINUOUS
 62
     4
 10
38.941695979786871
 20
-38.711541359000101
 30
0.0
  0
VERTEX
  5
5C2
  8
ACAD_LAYER_240
  6
CONTINUOUS
 62
     4
 10
38.895863257800642
 20
-38.757031662037591
 30
0.0
  0
VERTEX
  5
5C3
  8
ACAD_LAYER_240
  6
CONTINUOUS
 62
     4
 10
38.850030103780327
 20
-38.802521516257471
 30
0.0
  0
VERTEX
  5
5C4
  8
ACAD_LAYER_240
  6
CONTINUOUS
 62
     4
 10
38.804196519234317
 20
-38.848010923213849
 30
0.0
  0
VERTEX
  5
5C5
  8
ACAD_LAYER_240
  6
CONTINUOUS
 62
     4
 10
38.758362505670988
 20
-38.893499884460901
 30
0.0
  0
VERTEX
  5
5C6
  8
ACAD_LAYER_240
  6
CONTINUOUS
 62
     4
 10
38.71252806459875
 20
-38.93898840155272
 30
0.0
  0
VERTEX
  5
5C7
  8
ACAD_LAYER_240
  6
CONTINUOUS
 62
     4
 10
38.666693197525937
 20
-38.98447647604344
 30
0.0
  0
VERTEX
  5
5C8
  8
ACAD_LAYER_240
  6
CONTINUOUS
 62
     4
 10
38.620857905960968
 20
-39.029964109487203
 30
0.0
  0
VERTEX
  5
5C9
  8
ACAD_LAYER_240
  6
CONTINUOUS
 62
     4
 10
38.575022191412252
 20
-39.07545130343815
 30
0.0
  0
VERTEX
  5
5CA
  8
ACAD_LAYER_240
  6
CONTINUOUS
 62
     4
 10
38.529186055388116
 20
-39.120938059450381
 30
0.0
  0
VERTEX
  5
5CB
  8
ACAD_LAYER_240
  6
CONTINUOUS
 62
     4
 10
38.483349499397001
 20
-39.166424379078052
 30
0.0
  0
VERTEX
  5
5CC
  8
ACAD_LAYER_240
  6
CONTINUOUS
 62
     4
 10
38.437512524947252
 20
-39.211910263875289
 30
0.0
  0
VERTEX
  5
5CD
  8
ACAD_LAYER_240
  6
CONTINUOUS
 62
     4
 10
38.39167513354726
 20
-39.257395715396207
 30
0.0
  0
VERTEX
  5
5CE
  8
ACAD_LAYER_240
  6
CONTINUOUS
 62
     4
 10
38.345837326705421
 20
-39.302880735194982
 30
0.0
  0
VERTEX
  5
5CF
  8
ACAD_LAYER_240
  6
CONTINUOUS
 62
     4
 10
38.299999105930112
 20
-39.348365324825693
 30
0.0
  0
SEQEND
  5
5D0
  8
ACAD_LAYER_240
  6
CONTINUOUS
 62
     4
  0
LINE
  5
DB
  8
ACAD_LAYER_245
  6
DASHED
 62
     2
 10
43.786049990624917
 20
-0.0000000000001137
 30
0.0
 11
-3.598626567156713
 21
0.0
 31
0.0
  0
LINE
  5
873
  8
ACAD_LAYER_250
  6
CONTINUOUS
 62
     3
 10
64.490573369668155
 20
39.934101051970821
 30
0.0
 11
64.490573369668155
 21
37.70410105197081
 31
0.0
  0
LINE
  5
874
  8
ACAD_LAYER_250
  6
CONTINUOUS
 62
     3
 10
64.862240036334825
 20
37.70410105197081
 30
0.0
 11
64.490573369668155
 21
39.934101051970821
 31
0.0
  0
LINE
  5
875
  8
ACAD_LAYER_250
  6
CONTINUOUS
 62
     3
 10
64.118906703001485
 20
37.70410105197081
 30
0.0
 11
64.490573369668155
 21
39.934101051970821
 31
0.0
  0
LINE
  5
876
  8
ACAD_LAYER_250
  6
CONTINUOUS
 62
     3
 10
64.490573369668155
 20
37.70410105197081
 30
0.0
 11
64.5
 21
-8.0
 31
0.0
  0
LINE
  5
877
  8
ACAD_LAYER_250
  6
CONTINUOUS
 62
     3
 10
40.499999999999993
 20
40.0
 30
0.0
 11
65.490573369668155
 21
39.934101051970821
 31
0.0
  0
TEXT
  5
878
  8
ACAD_LAYER_250
  6
CONTINUOUS
 62
    21
 10
63.5
 20
-6.0
 30
0.0
 40
2.799999999999998
  1
\U+220580
 50
90.0
  7
CK_TEXT_STYLE_0005
  0
VIEWPORT
  5
DD
 67
     1
  8
0
 62
     4
 10
128.5
 20
97.5
 30
0.0
 40
314.226
 41
222.18000000000001
 68
     1
 69
     1
1001
ACAD
1000
MVIEW
1002
{
1070
    16
1010
0.0
1020
0.0
1030
0.0
1010
0.0
1020
0.0
1030
1.0
1040
0.0
1040
222.18000000000001
1040
128.5
1040
97.5
1040
50.0
1040
0.0
1040
0.0
1070
     0
1070
   100
1070
     1
1070
     3
1070
     0
1070
     0
1070
     0
1070
     0
1040
0.0
1040
0.0
1040
0.0
1040
10.0
1040
10.0
1040
10.0
1040
10.0
1070
     0
1002
{
1002
}
1002
}
1001
GENIUS_GENOBJ-N-SDF_13
1002
{
1000
OWNER
1000
GEN
1002
}
1001
GENIUS_GENODEF_13
1002
{
1000
HIER
1070
     0
1002
}
1002
{
1000
MANEDIT
1070
     0
1002
}
1002
{
1000
NOSEL
1070
     0
1002
}
1002
{
1000
BEHIND
1070
     0
1002
}
1002
{
1000
OTHER
1070
     0
1002
}
1002
{
1000
REACTOR
1002
}
1001
GENIUS_GENSCREG_15
1000
PF
1040
1.0
1000
DF
1040
1.0
1000
MIN
1011
-28.613
1021
0.0
1031
0.0
1021
-13.59
1031
0.0
1000
MAX
1011
285.613
1021
0.0
1031
0.0
1021
208.59
1031
0.0
1000
FLAGS
1070
     4
  0
ENDSEC
  0
EOF
