  0
SECTION
  2
HEADER
  9
$ACADVER
  1
AC1009
  9
$INSBASE
 10
0.0
 20
0.0
 30
0.0
  9
$EXTMIN
 10
-28.763619814735559
 20
-30.905547504938081
 30
-0.0000000349181948
  9
$EXTMAX
 10
63.02994716449183
 20
60.005548688302582
 30
0.0000000814935747
  9
$LIMMIN
 10
0.0
 20
0.0
  9
$LIMMAX
 10
12.0
 20
9.0
  9
$ORTHOMODE
 70
     0
  9
$REGENMODE
 70
     1
  9
$FILLMODE
 70
     1
  9
$QTEXTMODE
 70
     0
  9
$MIRRTEXT
 70
     1
  9
$DRAGMODE
 70
     2
  9
$LTSCALE
 40
1.0
  9
$OSMODE
 70
  3071
  9
$ATTMODE
 70
     1
  9
$TEXTSIZE
 40
0.2
  9
$TRACEWID
 40
0.05
  9
$TEXTSTYLE
  7
STANDARD
  9
$CLAYER
  8
0
  9
$CELTYPE
  6
BYLAYER
  9
$CECOLOR
 62
     4
  9
$DIMSCALE
 40
1.0
  9
$DIMASZ
 40
2.5
  9
$DIMEXO
 40
0.0625
  9
$DIMDLI
 40
0.38
  9
$DIMRND
 40
0.0
  9
$DIMDLE
 40
0.0
  9
$DIMEXE
 40
7.0
  9
$DIMTP
 40
0.02
  9
$DIMTM
 40
-0.001
  9
$DIMTXT
 40
2.799999999999998
  9
$DIMCEN
 40
0.09
  9
$DIMTSZ
 40
0.0
  9
$DIMTOL
 70
     0
  9
$DIMLIM
 70
     0
  9
$DIMTIH
 70
     1
  9
$DIMTOH
 70
     1
  9
$DIMSE1
 70
     0
  9
$DIMSE2
 70
     0
  9
$DIMTAD
 70
     0
  9
$DIMZIN
 70
     0
  9
$DIMBLK
  1

  9
$DIMASO
 70
     1
  9
$DIMSHO
 70
     1
  9
$DIMPOST
  1

  9
$DIMAPOST
  1

  9
$DIMALT
 70
     0
  9
$DIMALTD
 70
     2
  9
$DIMALTF
 40
25.399999999999999
  9
$DIMLFAC
 40
1.0
  9
$DIMTOFL
 70
     0
  9
$DIMTVP
 40
0.0
  9
$DIMTIX
 70
     0
  9
$DIMSOXD
 70
     0
  9
$DIMSAH
 70
     0
  9
$DIMBLK1
  1

  9
$DIMBLK2
  1

  9
$DIMSTYLE
  2
STANDARD
  9
$DIMCLRD
 70
     0
  9
$DIMCLRE
 70
     0
  9
$DIMCLRT
 70
     0
  9
$DIMTFAC
 40
0.75
  9
$DIMGAP
 40
0.09
  9
$LUNITS
 70
     2
  9
$LUPREC
 70
     8
  9
$SKETCHINC
 40
0.1
  9
$FILLETRAD
 40
0.5
  9
$AUNITS
 70
     0
  9
$AUPREC
 70
     0
  9
$MENU
  1
.
  9
$ELEVATION
 40
0.0
  9
$PELEVATION
 40
0.0
  9
$THICKNESS
 40
0.0
  9
$LIMCHECK
 70
     0
  9
$BLIPMODE
 70
     0
  9
$CHAMFERA
 40
0.5
  9
$CHAMFERB
 40
0.5
  9
$SKPOLY
 70
     0
  9
$TDCREATE
 40
2456064.6489923149
  9
$TDUPDATE
 40
2457324.4530913541
  9
$TDINDWG
 40
0.0024466435
  9
$TDUSRTIMER
 40
0.0024465856
  9
$USRTIMER
 70
     1
  9
$ANGBASE
 50
0.0
  9
$ANGDIR
 70
     0
  9
$PDMODE
 70
     2
  9
$PDSIZE
 40
0.03
  9
$PLINEWID
 40
0.0
  9
$COORDS
 70
     1
  9
$SPLFRAME
 70
     0
  9
$SPLINETYPE
 70
     6
  9
$SPLINESEGS
 70
     8
  9
$ATTDIA
 70
     1
  9
$ATTREQ
 70
     1
  9
$HANDLING
 70
     1
  9
$HANDSEED
  5
93F
  9
$SURFTAB1
 70
     6
  9
$SURFTAB2
 70
     6
  9
$SURFTYPE
 70
     6
  9
$SURFU
 70
     6
  9
$SURFV
 70
     6
  9
$UCSNAME
  2

  9
$UCSORG
 10
0.0
 20
0.0
 30
0.0
  9
$UCSXDIR
 10
1.0
 20
0.0
 30
0.0
  9
$UCSYDIR
 10
0.0
 20
1.0
 30
0.0
  9
$PUCSNAME
  2

  9
$PUCSORG
 10
0.0
 20
0.0
 30
0.0
  9
$PUCSXDIR
 10
1.0
 20
0.0
 30
0.0
  9
$PUCSYDIR
 10
0.0
 20
1.0
 30
0.0
  9
$USERI1
 70
     0
  9
$USERI2
 70
     0
  9
$USERI3
 70
     0
  9
$USERI4
 70
     0
  9
$USERI5
 70
     0
  9
$USERR1
 40
0.0
  9
$USERR2
 40
0.0
  9
$USERR3
 40
0.0
  9
$USERR4
 40
0.0
  9
$USERR5
 40
0.0
  9
$WORLDVIEW
 70
     1
  9
$SHADEDGE
 70
     3
  9
$SHADEDIF
 70
    70
  9
$TILEMODE
 70
     1
  9
$MAXACTVP
 70
    64
  9
$PLIMCHECK
 70
     0
  9
$PEXTMIN
 10
1.0000000000000000E+020
 20
1.0000000000000000E+020
 30
1.0000000000000000E+020
  9
$PEXTMAX
 10
-1.0000000000000000E+020
 20
-1.0000000000000000E+020
 30
-1.0000000000000000E+020
  9
$PLIMMIN
 10
-20.0
 20
-7.5
  9
$PLIMMAX
 10
277.0
 20
202.5
  9
$UNITMODE
 70
     0
  9
$VISRETAIN
 70
     1
  9
$PLINEGEN
 70
     0
  9
$PSLTSCALE
 70
     1
  0
ENDSEC
  0
SECTION
  2
TABLES
  0
TABLE
  2
VPORT
 70
     1
  0
VPORT
  2
*ACTIVE
 70
     0
 10
0.0
 20
0.0
 11
1.0
 21
1.0
 12
2.6331636748781331
 22
0.0000004232990705
 13
0.0
 23
0.0
 14
0.5
 24
0.5
 15
0.5
 25
0.5
 16
0.0
 26
0.0
 36
1.0
 17
14.5
 27
14.55000016838318
 37
0.0
 40
91.555094513381675
 41
1.643026004728132
 42
50.0
 43
0.0
 44
0.0
 50
0.0
 51
0.0
 71
     0
 72
 10000
 73
     1
 74
     3
 75
     1
 76
     0
 77
     0
 78
     0
  0
ENDTAB
  0
TABLE
  2
LTYPE
 70
    17
  0
LTYPE
  2
CONTINUOUS
 70
     0
  3
Solid line
 72
    65
 73
     0
 40
0.0
  0
LTYPE
  2
DASHED
 70
     0
  3
_ _ _ _ _ _ _ _ _ _ _ _ _ _ _ _
 72
    65
 73
     2
 40
4.799999999999998
 49
2.399999999999999
 49
-2.399999999999999
  0
LTYPE
  2
CENTER
 70
     0
  3
___ _ ___ _ ___ _ ___ _ ___ _ ___ _ ___ _ ___ _
 72
    65
 73
     4
 40
22.800000000000001
 49
15.0
 49
-3.0
 49
1.8
 49
-3.0
  0
LTYPE
  2
HIDDEN
 70
     0
  3
Hidden __ __ __ __ __ __ __ __ __ __ __ __ __ _
 72
    65
 73
     2
 40
0.375
 49
0.25
 49
-0.125
  0
LTYPE
  2
PHANTOM2
 70
     0
  3
Phantom (.5x) ___ _ _ ___ _ _ ___ _ _ ___ _ _
 72
    65
 73
     6
 40
1.25
 49
0.625
 49
-0.125
 49
0.125
 49
-0.125
 49
0.125
 49
-0.125
  0
LTYPE
  2
AMCONSTR
 70
     0
  3
_______________________
 72
    65
 73
     2
 40
9999.0
 49
9999.0
 49
0.0
  0
LTYPE
  2
CENTER2
 70
     0
  3
Center (.5x) ___ _ ___ _ ___ _ ___ _ ___ _ ___
 72
    65
 73
     4
 40
1.125
 49
0.75
 49
-0.125
 49
0.125
 49
-0.125
  0
LTYPE
  2
HIDDEN2
 70
     0
  3
Hidden (.5x) _ _ _ _ _ _ _ _ _ _ _ _ _ _ _ _ _
 72
    65
 73
     2
 40
0.1875
 49
0.125
 49
-0.0625
  0
LTYPE
  2
AMZIGZAG2
 70
     0
  3
/\/-/\/-/\/-/\/-/\/-/\/
 72
    65
 73
     2
 40
0.4401
 49
0.0001
 49
-0.4400000000000003
  0
LTYPE
  2
ACANSTGB
 70
     0
  3
__ . . __ . .
 72
    65
 73
     6
 40
0.35433070866
 49
0.15748031496
 49
-0.03937007874
 49
0.03937007874
 49
-0.03937007874
 49
0.03937007874
 49
-0.03937007874
  0
LTYPE
  2
ACANSTGL
 70
     0
  3
_ _ _ _ _
 72
    65
 73
     2
 40
0.11811023622
 49
0.07874015748
 49
-0.03937007874
  0
ENDTAB
  0
TABLE
  2
LAYER
 70
     7
  0
LAYER
  2
0
 70
     0
 62
     7
  6
CONTINUOUS
  0
LAYER
  2
ACAD_LAYER_245
 70
     0
 62
     2
  6
DASHED
  0
LAYER
  2
ACAD_LAYER_240
 70
     0
 62
     4
  6
CONTINUOUS
  0
LAYER
  2
ACAD_LAYER_241
 70
     0
 62
   211
  6
CONTINUOUS
  0
LAYER
  2
ACAD_LAYER_243
 70
     0
 62
   211
  6
DASHED
  0
LAYER
  2
ACAD_LAYER_246
 70
     0
 62
     3
  6
DASHED
  0
LAYER
  2
ACAD_LAYER_250
 70
     0
 62
     3
  6
CONTINUOUS
  0
ENDTAB
  0
TABLE
  2
STYLE
 70
     7
  0
STYLE
  2
STANDARD
 70
     0
 40
0.0
 41
1.0
 50
0.0
 71
     0
 42
0.2
  3
txt
  4

  0
STYLE
  2
CK_TEXT_STYLE_0003
 70
     0
 40
2.799999999999998
 41
1.0
 50
0.0
 71
     0
 42
0.2
  3
txt
  4

  0
STYLE
  2
CK_TEXT_STYLE_0004
 70
     0
 40
4.0
 41
1.0
 50
0.0
 71
     0
 42
0.2
  3
txt
  4

  0
STYLE
  2
ACANSGDT
 70
     0
 40
0.0
 41
1.0
 50
0.0
 71
     0
 42
2.799999999999998
  3
amgdt.shx
  4

  0
ENDTAB
  0
TABLE
  2
VIEW
 70
     0
  0
ENDTAB
  0
TABLE
  2
UCS
 70
     0
  0
ENDTAB
  0
TABLE
  2
APPID
 70
    18
  0
APPID
  2
ACAD
 70
     0
  0
APPID
  2
ACADANNOTATIVE
 70
     0
  0
APPID
  2
MCAD_NO_VIS
 70
     0
  0
APPID
  2
ACAD_TEMP_GRAPHIC
 70
     0
  0
APPID
  2
AD_DRAW
 70
     0
  0
APPID
  2
ACATTRIBSERVICES
 70
     0
  0
APPID
  2
DESIGNERASSEMBLIES
 70
     0
  0
APPID
  2
ACADM_DIM_EDIT
 70
     0
  0
APPID
  2
AMDT_DM_ADJ
 70
     0
  0
APPID
  2
GENIUS_GENSCREG_15
 70
     0
  0
APPID
  2
GENIUS_GENODEF_13
 70
     0
  0
APPID
  2
GENIUS_GENOBJ-N-SDF_13
 70
     0
  0
APPID
  2
ACAD_DSTYLE_DIMBREAK
 70
     0
  0
APPID
  2
ACAD_DSTYLE_DIMJAG
 70
     0
  0
APPID
  2
ACAD_NAV_VCDISPLAY
 70
     0
  0
APPID
  2
ACAECLAYERSTANDARD
 70
     0
  0
APPID
  2
ACAD_EXEMPT_FROM_CAD_STANDARDS
 70
     0
  0
APPID
  2
ACAD_MLEADERVER
 70
     0
  0
ENDTAB
  0
TABLE
  2
DIMSTYLE
 70
     8
  0
DIMSTYLE
  2
STANDARD
 70
     0
  3

  4

  5

  6

  7

 40
1.0
 41
0.18
 42
0.0625
 43
0.38
 44
0.18
 45
0.0
 46
0.0
 47
0.0
 48
0.0
140
0.18
141
0.09
142
0.0
143
25.399999999999999
144
1.0
145
0.0
146
1.0
147
0.09
 71
     0
 72
     0
 73
     1
 74
     1
 75
     0
 76
     0
 77
     0
 78
     0
170
     0
171
     2
172
     0
173
     0
174
     0
175
     0
176
     0
177
     0
178
     0
  0
DIMSTYLE
  2
AM_ANSI
 70
     0
  3

  4
mm
  5

  6

  7

 40
1.0
 41
0.1
 42
0.05
 43
0.5
 44
0.1
 45
0.0
 46
0.0
 47
0.1
 48
0.1
140
0.12
141
0.0
142
0.0
143
25.399999999999999
144
1.0
145
0.0
146
0.71
147
0.06
 71
     0
 72
     0
 73
     1
 74
     1
 75
     0
 76
     0
 77
     0
 78
     7
170
     0
171
     2
172
     0
173
     0
174
     0
175
     0
176
   256
177
   256
178
     2
  0
DIMSTYLE
  2
AM_ANSI$3
 70
     0
  3

  4
mm
  5

  6

  7

 40
1.0
 41
0.1
 42
0.05
 43
0.5
 44
0.1
 45
0.0
 46
0.0
 47
0.1
 48
0.1
140
0.12
141
0.0
142
0.0
143
25.399999999999999
144
1.0
145
0.0
146
0.71
147
0.06
 71
     0
 72
     0
 73
     1
 74
     1
 75
     0
 76
     0
 77
     0
 78
     7
170
     0
171
     2
172
     0
173
     0
174
     0
175
     0
176
   256
177
   256
178
     2
  0
DIMSTYLE
  2
AM_ANSI$4
 70
     0
  3

  4
mm
  5

  6

  7

 40
1.0
 41
0.1
 42
0.05
 43
0.5
 44
0.1
 45
0.0
 46
0.0
 47
0.1
 48
0.1
140
0.12
141
0.0
142
0.0
143
25.399999999999999
144
1.0
145
0.0
146
0.71
147
0.06
 71
     0
 72
     0
 73
     1
 74
     1
 75
     0
 76
     0
 77
     0
 78
     7
170
     0
171
     2
172
     0
173
     0
174
     0
175
     0
176
   256
177
   256
178
     2
  0
DIMSTYLE
  2
AM_ANSI$7
 70
     0
  3

  4
mm
  5

  6

  7

 40
1.0
 41
0.1
 42
0.05
 43
0.5
 44
0.1
 45
0.0
 46
0.0
 47
0.1
 48
0.1
140
0.24
141
0.0
142
0.0
143
25.399999999999999
144
1.0
145
0.0
146
0.71
147
0.06
 71
     0
 72
     0
 73
     1
 74
     1
 75
     0
 76
     0
 77
     0
 78
     7
170
     0
171
     2
172
     0
173
     0
174
     0
175
     0
176
   256
177
   256
178
     2
  0
DIMSTYLE
  2
AM_ANSI$SF
 70
     0
  3

  4
mm
  5

  6

  7

 40
1.0
 41
0.1
 42
0.05
 43
0.5
 44
0.1
 45
0.0
 46
0.0
 47
0.1
 48
0.1
140
0.12
141
0.0
142
0.0
143
25.399999999999999
144
1.0
145
0.0
146
0.71
147
0.06
 71
     0
 72
     0
 73
     1
 74
     1
 75
     1
 76
     1
 77
     0
 78
     7
170
     0
171
     2
172
     0
173
     0
174
     0
175
     0
176
   256
177
   256
178
     2
  0
DIMSTYLE
  2
AM_ANSI$SH
 70
     0
  3

  4
mm
  5

  6

  7

 40
1.0
 41
0.1
 42
0.05
 43
0.5
 44
0.1
 45
0.0
 46
0.0
 47
0.1
 48
0.1
140
0.12
141
0.0
142
0.0
143
25.399999999999999
144
1.0
145
0.0
146
0.71
147
0.06
 71
     0
 72
     0
 73
     1
 74
     1
 75
     1
 76
     1
 77
     0
 78
     7
170
     0
171
     2
172
     0
173
     1
174
     0
175
     0
176
   256
177
   256
178
     2
  0
ENDTAB
  0
ENDSEC
  0
SECTION
  2
BLOCKS
  0
BLOCK
  8
0
  2
$MODEL_SPACE
 70
     0
 10
0.0
 20
0.0
 30
0.0
  3
$MODEL_SPACE
  1

  0
ENDBLK
  5
841
  8
0
  0
BLOCK
 67
     1
  8
0
  2
$PAPER_SPACE
 70
     0
 10
0.0
 20
0.0
 30
0.0
  3
$PAPER_SPACE
  1

  0
ENDBLK
  5
83D
 67
     1
  8
0
  0
BLOCK
  8
0
 62
     4
  2
_ACMFILLEDHALF
 70
     0
 10
0.0
 20
0.0
 30
0.0
  3
_ACMFILLEDHALF
  1

  0
TRACE
  5
6FE
  8
0
 62
     0
 10
-0.8
 20
0.0
 30
0.0
 11
-1.0
 21
0.166666666
 31
0.0
 12
0.0
 22
0.0
 32
0.0
 13
0.0
 23
0.0
 33
0.0
  0
LINE
  5
6FF
  8
0
 62
     0
 10
-1.0
 20
0.0
 30
0.0
 11
-0.8
 21
0.0
 31
0.0
  0
ENDBLK
  5
6FD
  8
0
 62
     4
  0
ENDSEC
  0
SECTION
  2
ENTITIES
  0
LINE
  5
56
  8
ACAD_LAYER_250
  6
CONTINUOUS
 62
     3
 10
49.0
 20
28.950000000000099
 30
0.0
 11
49.0
 21
26.720000000000091
 31
0.0
  0
LINE
  5
57
  8
ACAD_LAYER_250
  6
CONTINUOUS
 62
     3
 10
49.37166666666667
 20
26.720000000000091
 30
0.0
 11
49.0
 21
28.950000000000099
 31
0.0
  0
LINE
  5
58
  8
ACAD_LAYER_250
  6
CONTINUOUS
 62
     3
 10
48.62833333333333
 20
26.720000000000091
 30
0.0
 11
49.0
 21
28.950000000000099
 31
0.0
  0
LINE
  5
59
  8
ACAD_LAYER_250
  6
CONTINUOUS
 62
     3
 10
56.0
 20
29.950000000000099
 30
0.0
 11
56.0
 21
27.720000000000098
 31
0.0
  0
LINE
  5
5A
  8
ACAD_LAYER_250
  6
CONTINUOUS
 62
     3
 10
56.37166666666667
 20
27.720000000000098
 30
0.0
 11
56.0
 21
29.950000000000099
 31
0.0
  0
LINE
  5
5B
  8
ACAD_LAYER_250
  6
CONTINUOUS
 62
     3
 10
55.62833333333333
 20
27.720000000000098
 30
0.0
 11
56.0
 21
29.950000000000099
 31
0.0
  0
LINE
  5
5C
  8
ACAD_LAYER_250
  6
CONTINUOUS
 62
     3
 10
0.0000001490114138
 20
42.0
 30
0.0
 11
2.2300001490114121
 21
42.0
 31
0.0
  0
LINE
  5
5D
  8
ACAD_LAYER_250
  6
CONTINUOUS
 62
     3
 10
2.2300001490114121
 20
42.371666666666663
 30
0.0
 11
0.0000001490114138
 21
42.0
 31
0.0
  0
LINE
  5
5E
  8
ACAD_LAYER_250
  6
CONTINUOUS
 62
     3
 10
2.2300001490114121
 20
41.62833333333333
 30
0.0
 11
0.0000001490114138
 21
42.0
 31
0.0
  0
LINE
  5
5F
  8
ACAD_LAYER_250
  6
CONTINUOUS
 62
     3
 10
35.000000149012664
 20
42.0
 30
0.0
 11
32.770000149012667
 21
42.0
 31
0.0
  0
LINE
  5
60
  8
ACAD_LAYER_250
  6
CONTINUOUS
 62
     3
 10
32.770000149012667
 20
41.62833333333333
 30
0.0
 11
35.000000149012664
 21
42.0
 31
0.0
  0
LINE
  5
61
  8
ACAD_LAYER_250
  6
CONTINUOUS
 62
     3
 10
32.770000149012667
 20
42.371666666666663
 30
0.0
 11
35.000000149012664
 21
42.0
 31
0.0
  0
LINE
  5
62
  8
ACAD_LAYER_250
  6
CONTINUOUS
 62
     3
 10
-12.00000000000002
 20
10.999999940395471
 30
0.0
 11
-12.00000000000002
 21
8.7699999403954632
 31
0.0
  0
LINE
  5
63
  8
ACAD_LAYER_250
  6
CONTINUOUS
 62
     3
 10
-11.62833333333335
 20
8.7699999403954632
 30
0.0
 11
-12.00000000000002
 21
10.999999940395471
 31
0.0
  0
LINE
  5
64
  8
ACAD_LAYER_250
  6
CONTINUOUS
 62
     3
 10
-12.37166666666668
 20
8.7699999403954632
 30
0.0
 11
-12.00000000000002
 21
10.999999940395471
 31
0.0
  0
LINE
  5
65
  8
ACAD_LAYER_250
  6
CONTINUOUS
 62
     3
 10
-12.00000000000002
 20
-10.999999940395471
 30
0.0
 11
-12.00000000000002
 21
-8.7699999403954632
 31
0.0
  0
LINE
  5
66
  8
ACAD_LAYER_250
  6
CONTINUOUS
 62
     3
 10
-12.37166666666668
 20
-8.7699999403954632
 30
0.0
 11
-12.00000000000002
 21
-10.999999940395471
 31
0.0
  0
LINE
  5
67
  8
ACAD_LAYER_250
  6
CONTINUOUS
 62
     3
 10
-11.62833333333336
 20
-8.7699999403954632
 30
0.0
 11
-12.00000000000002
 21
-10.999999940395471
 31
0.0
  0
LINE
  5
68
  8
ACAD_LAYER_250
  6
CONTINUOUS
 62
     3
 10
-20.99999999999401
 20
30.000000336766419
 30
0.0
 11
-20.99999999999401
 21
27.770000336766429
 31
0.0
  0
LINE
  5
69
  8
ACAD_LAYER_250
  6
CONTINUOUS
 62
     3
 10
-20.62833333332734
 20
27.770000336766429
 30
0.0
 11
-20.99999999999401
 21
30.000000336766419
 31
0.0
  0
LINE
  5
6A
  8
ACAD_LAYER_250
  6
CONTINUOUS
 62
     3
 10
-21.37166666666068
 20
27.770000336766429
 30
0.0
 11
-20.99999999999401
 21
30.000000336766419
 31
0.0
  0
LINE
  5
6B
  8
ACAD_LAYER_250
  6
CONTINUOUS
 62
     3
 10
-20.999999999994021
 20
-29.99999966621472
 30
0.0
 11
-20.999999999994021
 21
-27.769999666214719
 31
0.0
  0
LINE
  5
6C
  8
ACAD_LAYER_250
  6
CONTINUOUS
 62
     3
 10
-21.37166666666069
 20
-27.769999666214719
 30
0.0
 11
-20.999999999994021
 21
-29.99999966621472
 31
0.0
  0
LINE
  5
6D
  8
ACAD_LAYER_250
  6
CONTINUOUS
 62
     3
 10
-20.628333333327362
 20
-27.769999666214719
 30
0.0
 11
-20.999999999994021
 21
-29.99999966621472
 31
0.0
  0
LINE
  5
6E
  8
ACAD_LAYER_250
  6
CONTINUOUS
 62
     3
 10
-20.99999999999401
 20
27.770000336766429
 30
0.0
 11
-20.999999999994021
 21
-27.769999666214719
 31
0.0
  0
LINE
  5
6F
  8
ACAD_LAYER_250
  6
CONTINUOUS
 62
     3
 10
0.0000010132789612
 20
-29.99999966621473
 30
0.0
 11
-21.999999999994021
 21
-29.99999966621472
 31
0.0
  0
LINE
  5
70
  8
ACAD_LAYER_250
  6
CONTINUOUS
 62
     3
 10
0.000000149011413
 20
30.000000336766419
 30
0.0
 11
-21.99999999999401
 21
30.000000336766419
 31
0.0
  0
LINE
  5
71
  8
ACAD_LAYER_250
  6
CONTINUOUS
 62
     3
 10
-12.00000000000002
 20
8.7699999403954632
 30
0.0
 11
-12.00000000000002
 21
-8.7699999403954632
 31
0.0
  0
LINE
  5
72
  8
ACAD_LAYER_250
  6
CONTINUOUS
 62
     3
 10
-0.4999999999999483
 20
-10.999999940395471
 30
0.0
 11
-13.00000000000002
 21
-10.999999940395471
 31
0.0
  0
LINE
  5
73
  8
ACAD_LAYER_250
  6
CONTINUOUS
 62
     3
 10
-0.5000000000000227
 20
10.99999994039546
 30
0.0
 11
-13.00000000000002
 21
10.999999940395471
 31
0.0
  0
LINE
  5
74
  8
ACAD_LAYER_250
  6
CONTINUOUS
 62
     3
 10
49.0
 20
26.720000000000091
 30
0.0
 11
48.999999999999993
 21
-6.466666666666649
 31
0.0
  0
LINE
  5
75
  8
ACAD_LAYER_250
  6
CONTINUOUS
 62
     3
 10
35.498036675169693
 20
28.950000000000109
 30
0.0
 11
50.0
 21
28.950000000000099
 31
0.0
  0
LINE
  5
76
  8
ACAD_LAYER_250
  6
CONTINUOUS
 62
     3
 10
56.0
 20
27.720000000000098
 30
0.0
 11
55.999999999999993
 21
-6.466666666666649
 31
0.0
  0
LINE
  5
77
  8
ACAD_LAYER_250
  6
CONTINUOUS
 62
     3
 10
35.500000149012671
 20
29.950000000000109
 30
0.0
 11
57.0
 21
29.950000000000099
 31
0.0
  0
LINE
  5
78
  8
ACAD_LAYER_250
  6
CONTINUOUS
 62
     3
 10
2.2300001490114121
 20
42.0
 30
0.0
 11
32.770000149012667
 21
42.0
 31
0.0
  0
LINE
  5
79
  8
ACAD_LAYER_250
  6
CONTINUOUS
 62
     3
 10
35.000000149012664
 20
31.486005461584909
 30
0.0
 11
35.000000149012664
 21
43.0
 31
0.0
  0
LINE
  5
7A
  8
ACAD_LAYER_250
  6
CONTINUOUS
 62
     3
 10
0.000000149011413
 20
30.000000336766419
 30
0.0
 11
0.0000001490114138
 21
43.0
 31
0.0
  0
TEXT
  5
7C
  8
ACAD_LAYER_250
  6
CONTINUOUS
 62
    21
 10
48.0
 20
-6.1333333333333124
 30
0.0
 40
2.799999999999998
  1
\U+220557.9
 50
90.0
  7
CK_TEXT_STYLE_0003
  0
TEXT
  5
9F
  8
ACAD_LAYER_250
  6
CONTINUOUS
 62
    21
 10
55.0
 20
-6.1333333333333124
 30
0.0
 40
2.799999999999998
  1
\U+220559.9
 50
90.0
  7
CK_TEXT_STYLE_0003
  0
TEXT
  5
A0
  8
ACAD_LAYER_250
  6
CONTINUOUS
 62
    21
 10
14.433333482345381
 20
43.0
 30
0.0
 40
2.799999999999998
  1
35
  7
CK_TEXT_STYLE_0003
  0
TEXT
  5
A1
  8
ACAD_LAYER_250
  6
CONTINUOUS
 62
    21
 10
-21.999999999994021
 20
-4.1999996647241469
 30
0.0
 40
2.799999999999998
  1
\U+220560
 50
90.0
  7
CK_TEXT_STYLE_0003
  0
TEXT
  5
A2
  8
ACAD_LAYER_250
  6
CONTINUOUS
 62
    21
 10
-13.00000000000002
 20
-4.1999999999999984
 30
0.0
 40
2.799999999999998
  1
\U+220522
 50
90.0
  7
CK_TEXT_STYLE_0003
  0
LINE
  5
A3
  8
ACAD_LAYER_241
 10
35.000000149012664
 20
28.9689693812245
 30
0.0
 11
35.000000149012664
 21
30.98600546158492
 31
0.0
  0
LINE
  5
A4
  8
ACAD_LAYER_241
 10
28.312780428677801
 20
31.468968859683869
 30
0.0
 11
26.865611640860969
 21
25.98474371552771
 31
0.0
  0
LINE
  5
A5
  8
ACAD_LAYER_241
 10
34.524374525062541
 20
31.468968859683869
 30
0.0
 11
28.312780428677801
 21
31.468968859683869
 31
0.0
  0
LINE
  5
A6
  8
ACAD_LAYER_246
  6
DASHED
 62
     3
 10
34.400000120512949
 20
23.968968561660631
 30
0.0
 11
34.48246240184023
 21
23.968968561637212
 31
0.0
  0
LINE
  5
A7
  8
ACAD_LAYER_241
 10
34.48246240184023
 20
23.968968561637212
 30
0.0
 11
35.000000149012664
 21
28.9689693812245
 31
0.0
  0
POLYLINE
  5
A8
  8
ACAD_LAYER_241
 66
     1
 10
0.0
 20
0.0
 30
0.0
  0
VERTEX
  5
EA
  8
ACAD_LAYER_241
 10
35.000000149011932
 20
30.98600600504518
 30
0.0
  0
VERTEX
  5
EB
  8
ACAD_LAYER_241
 10
34.991020797207632
 20
31.08190634207083
 30
0.0
  0
VERTEX
  5
EC
  8
ACAD_LAYER_241
 10
34.96439907318122
 20
31.17320666627635
 30
0.0
  0
VERTEX
  5
ED
  8
ACAD_LAYER_241
 10
34.921072827131312
 20
31.256690580891121
 30
0.0
  0
VERTEX
  5
EE
  8
ACAD_LAYER_241
 10
34.862568388773518
 20
31.329417051524491
 30
0.0
  0
VERTEX
  5
EF
  8
ACAD_LAYER_241
 10
34.790946796644512
 20
31.388824015146369
 30
0.0
  0
VERTEX
  5
F0
  8
ACAD_LAYER_241
 10
34.708731190280027
 20
31.432818638378478
 30
0.0
  0
VERTEX
  5
F1
  8
ACAD_LAYER_241
 10
34.618817923149876
 20
31.459851045409088
 30
0.0
  0
VERTEX
  5
F2
  8
ACAD_LAYER_241
 10
34.524374527730522
 20
31.468968918188612
 30
0.0
  0
SEQEND
  5
F3
  8
ACAD_LAYER_241
  0
LINE
  5
A9
  8
ACAD_LAYER_243
  6
DASHED
 62
   211
 10
0.0000000000000519
 20
-10.999999940395471
 30
0.0
 11
18.999999389051421
 21
-10.999999940395471
 31
0.0
  0
LINE
  5
AA
  8
ACAD_LAYER_243
  6
DASHED
 62
   211
 10
21.999999880791041
 20
5.4999999701979707
 30
0.0
 11
18.999999389068421
 21
5.49999997019688
 31
0.0
  0
LINE
  5
AB
  8
ACAD_LAYER_243
  6
DASHED
 62
   211
 10
21.999999880790568
 20
8.5000004619361107
 30
0.0
 11
21.999999880791901
 21
0.0
 31
0.0
  0
LINE
  5
AC
  8
ACAD_LAYER_243
  6
DASHED
 62
   211
 10
18.999999389051361
 20
10.999999940395609
 30
0.0
 11
18.99999938906274
 21
0.0
 31
0.0
  0
LINE
  5
AD
  8
ACAD_LAYER_243
  6
DASHED
 62
   211
 10
21.99999988079108
 20
-5.4999999701976989
 30
0.0
 11
18.999999389057109
 21
-5.499999970197563
 31
0.0
  0
LINE
  5
AE
  8
ACAD_LAYER_243
  6
DASHED
 62
   211
 10
18.999999389051421
 20
-10.999999940395471
 30
0.0
 11
18.99999938906274
 21
0.0000000000001137
 31
0.0
  0
LINE
  5
AF
  8
ACAD_LAYER_243
  6
DASHED
 62
   211
 10
21.999999880790629
 20
-8.500000461935997
 30
0.0
 11
21.999999880791901
 21
0.0000000000001137
 31
0.0
  0
LINE
  5
B0
  8
ACAD_LAYER_243
  6
DASHED
 62
   211
 10
-0.0000000000000226
 20
10.99999994039546
 30
0.0
 11
18.999999389051361
 21
10.999999940395609
 31
0.0
  0
POLYLINE
  5
B1
  8
ACAD_LAYER_243
  6
DASHED
 62
   211
 66
     1
 10
0.0
 20
0.0
 30
0.0
 70
     8
  0
VERTEX
  5
F4
  8
ACAD_LAYER_243
  6
DASHED
 62
   211
 10
34.400000120512971
 20
8.5000004619361107
 30
0.0
 70
    32
  0
VERTEX
  5
F5
  8
ACAD_LAYER_243
  6
DASHED
 62
   211
 10
32.850000090547681
 20
8.5000004619361107
 30
0.0
 70
    32
  0
VERTEX
  5
F6
  8
ACAD_LAYER_243
  6
DASHED
 62
   211
 10
31.30000006058237
 20
8.5000004619361107
 30
0.0
 70
    32
  0
VERTEX
  5
F7
  8
ACAD_LAYER_243
  6
DASHED
 62
   211
 10
29.75000003061707
 20
8.5000004619361107
 30
0.0
 70
    32
  0
VERTEX
  5
F8
  8
ACAD_LAYER_243
  6
DASHED
 62
   211
 10
28.200000000651769
 20
8.5000004619361107
 30
0.0
 70
    32
  0
VERTEX
  5
F9
  8
ACAD_LAYER_243
  6
DASHED
 62
   211
 10
26.649999970686469
 20
8.5000004619361107
 30
0.0
 70
    32
  0
VERTEX
  5
FA
  8
ACAD_LAYER_243
  6
DASHED
 62
   211
 10
25.09999994072118
 20
8.5000004619361107
 30
0.0
 70
    32
  0
VERTEX
  5
FB
  8
ACAD_LAYER_243
  6
DASHED
 62
   211
 10
23.549999910755869
 20
8.5000004619361107
 30
0.0
 70
    32
  0
VERTEX
  5
FC
  8
ACAD_LAYER_243
  6
DASHED
 62
   211
 10
21.999999880790568
 20
8.5000004619361107
 30
0.0
 70
    32
  0
SEQEND
  5
FD
  8
ACAD_LAYER_243
  6
DASHED
 62
   211
  0
POLYLINE
  5
B2
  8
ACAD_LAYER_243
  6
DASHED
 62
   211
 66
     1
 10
0.0
 20
0.0
 30
0.0
 70
     8
  0
VERTEX
  5
FE
  8
ACAD_LAYER_243
  6
DASHED
 62
   211
 10
34.400000120512992
 20
-8.5000004619359526
 30
0.0
 70
    32
  0
VERTEX
  5
FF
  8
ACAD_LAYER_243
  6
DASHED
 62
   211
 10
32.850000090547702
 20
-8.5000004619359544
 30
0.0
 70
    32
  0
VERTEX
  5
100
  8
ACAD_LAYER_243
  6
DASHED
 62
   211
 10
31.300000060582398
 20
-8.5000004619359633
 30
0.0
 70
    32
  0
VERTEX
  5
101
  8
ACAD_LAYER_243
  6
DASHED
 62
   211
 10
29.750000030617109
 20
-8.5000004619359686
 30
0.0
 70
    32
  0
VERTEX
  5
102
  8
ACAD_LAYER_243
  6
DASHED
 62
   211
 10
28.200000000651809
 20
-8.5000004619359775
 30
0.0
 70
    32
  0
VERTEX
  5
103
  8
ACAD_LAYER_243
  6
DASHED
 62
   211
 10
26.649999970686508
 20
-8.500000461935981
 30
0.0
 70
    32
  0
VERTEX
  5
104
  8
ACAD_LAYER_243
  6
DASHED
 62
   211
 10
25.099999940721219
 20
-8.5000004619359864
 30
0.0
 70
    32
  0
VERTEX
  5
105
  8
ACAD_LAYER_243
  6
DASHED
 62
   211
 10
23.549999910755918
 20
-8.5000004619359864
 30
0.0
 70
    32
  0
VERTEX
  5
106
  8
ACAD_LAYER_243
  6
DASHED
 62
   211
 10
21.999999880790629
 20
-8.500000461935997
 30
0.0
 70
    32
  0
SEQEND
  5
107
  8
ACAD_LAYER_243
  6
DASHED
 62
   211
  0
LINE
  5
B3
  8
ACAD_LAYER_241
  6
CONTINUOUS
 62
   211
 10
10.99999809723519
 20
-30.804539794382212
 30
0.0
 11
10.999998097235309
 21
0.0000000000001137
 31
0.0
  0
LINE
  5
B4
  8
ACAD_LAYER_241
  6
CONTINUOUS
 62
   211
 10
8.6673429569659657
 20
-29.719563754974221
 30
0.0
 11
8.6673429569660492
 21
0.0000000000000853
 31
0.0
  0
LINE
  5
B5
  8
ACAD_LAYER_241
  6
CONTINUOUS
 62
   211
 10
6.999999284744062
 20
-29.99999966621418
 30
0.0
 11
6.999999284744062
 21
0.0000000000000853
 31
0.0
  0
LINE
  5
B6
  8
ACAD_LAYER_241
  6
CONTINUOUS
 62
   211
 10
33.561677124167858
 20
26.733506531110631
 30
0.0
 11
34.400000120512949
 21
23.968968561660631
 31
0.0
  0
LINE
  5
B7
  8
ACAD_LAYER_241
  6
CONTINUOUS
 62
   211
 10
6.999999284743863
 20
29.999999666214251
 30
0.0
 11
6.9999992847440353
 21
-0.0000000000000284
 31
0.0
  0
LINE
  5
B8
  8
ACAD_LAYER_241
  6
CONTINUOUS
 62
   211
 10
8.6673429569657685
 20
29.719563754974271
 30
0.0
 11
8.6673429569660243
 21
0.0
 31
0.0
  0
LINE
  5
B9
  8
ACAD_LAYER_241
  6
CONTINUOUS
 62
   211
 10
10.99999809723499
 20
30.80453979438229
 30
0.0
 11
10.999998097235281
 21
-0.0000000000000284
 31
0.0
  0
LINE
  5
BA
  8
ACAD_LAYER_241
  6
CONTINUOUS
 62
   211
 10
30.400000046938519
 20
26.931202039122709
 30
0.0
 11
30.314691830426309
 21
26.935096830129741
 31
0.0
  0
LINE
  5
BD
  8
ACAD_LAYER_241
  6
CONTINUOUS
 62
   211
 10
32.829129747071612
 20
26.87858307331927
 30
0.0
 11
31.25528211016541
 21
26.939421583409899
 31
0.0
  0
LINE
  5
BE
  8
ACAD_LAYER_241
  6
CONTINUOUS
 62
   211
 10
26.285962562109908
 20
27.13004530701685
 30
0.0
 11
25.004449988937811
 21
27.178835739039219
 31
0.0
  0
ARC
  5
BF
  8
ACAD_LAYER_241
  6
CONTINUOUS
 62
   211
 10
31.408139484607769
 20
27.668674109876179
 30
0.0
 40
1.564406650566013
 50
179.9416255115658
 51
215.45894559020661
  0
ARC
  5
C0
  8
ACAD_LAYER_241
  6
CONTINUOUS
 62
   211
 10
31.375337218958521
 20
27.67703905460451
 30
0.0
 40
1.5316185400973501
 50
328.82254560712641
 51
180.253297972192
  0
POLYLINE
  5
C1
  8
ACAD_LAYER_241
  6
CONTINUOUS
 62
   211
 66
     1
 10
0.0
 20
0.0
 30
0.0
  0
VERTEX
  5
108
  8
ACAD_LAYER_241
  6
CONTINUOUS
 62
   211
 10
32.829129747193193
 20
26.87858307331399
 30
0.0
  0
VERTEX
  5
109
  8
ACAD_LAYER_241
  6
CONTINUOUS
 62
   211
 10
33.052632026395678
 20
26.815289525783321
 30
0.0
  0
VERTEX
  5
10A
  8
ACAD_LAYER_241
  6
CONTINUOUS
 62
   211
 10
33.299982756108889
 20
26.766303221680388
 30
0.0
  0
VERTEX
  5
10B
  8
ACAD_LAYER_241
  6
CONTINUOUS
 62
   211
 10
33.561677124167858
 20
26.73350653111056
 30
0.0
  0
SEQEND
  5
10C
  8
ACAD_LAYER_241
  6
CONTINUOUS
 62
   211
  0
LINE
  5
C2
  8
ACAD_LAYER_241
  6
CONTINUOUS
 62
   211
 10
30.400000149011429
 20
26.93120239982288
 30
0.0
 11
31.255282110289439
 21
26.93942158340467
 31
0.0
  0
POLYLINE
  5
C3
  8
ACAD_LAYER_241
  6
CONTINUOUS
 62
   211
 66
     1
 10
0.0
 20
0.0
 30
0.0
  0
VERTEX
  5
10D
  8
ACAD_LAYER_241
  6
CONTINUOUS
 62
   211
 10
25.40522463724631
 20
30.886579626636529
 30
0.0
  0
VERTEX
  5
10E
  8
ACAD_LAYER_241
  6
CONTINUOUS
 62
   211
 10
24.403432080036701
 20
30.188654432265441
 30
0.0
  0
VERTEX
  5
10F
  8
ACAD_LAYER_241
  6
CONTINUOUS
 62
   211
 10
23.44152779008753
 20
28.454753554857579
 30
0.0
  0
SEQEND
  5
110
  8
ACAD_LAYER_241
  6
CONTINUOUS
 62
   211
  0
POLYLINE
  5
C4
  8
ACAD_LAYER_241
  6
CONTINUOUS
 62
   211
 66
     1
 10
0.0
 20
0.0
 30
0.0
  0
VERTEX
  5
111
  8
ACAD_LAYER_241
  6
CONTINUOUS
 62
   211
 10
26.294428686312909
 20
27.118638918526599
 30
0.0
  0
VERTEX
  5
112
  8
ACAD_LAYER_241
  6
CONTINUOUS
 62
   211
 10
26.368929832625451
 20
26.738914262941361
 30
0.0
  0
VERTEX
  5
113
  8
ACAD_LAYER_241
  6
CONTINUOUS
 62
   211
 10
26.521504109742281
 20
26.39402556687838
 30
0.0
  0
VERTEX
  5
114
  8
ACAD_LAYER_241
  6
CONTINUOUS
 62
   211
 10
26.746444694112508
 20
26.096872900849689
 30
0.0
  0
VERTEX
  5
115
  8
ACAD_LAYER_241
  6
CONTINUOUS
 62
   211
 10
27.035338003521009
 20
25.858570837145859
 30
0.0
  0
VERTEX
  5
116
  8
ACAD_LAYER_241
  6
CONTINUOUS
 62
   211
 10
27.377378395149229
 20
25.68803272508811
 30
0.0
  0
VERTEX
  5
117
  8
ACAD_LAYER_241
  6
CONTINUOUS
 62
   211
 10
27.759772335256152
 20
25.591637299890571
 30
0.0
  0
VERTEX
  5
118
  8
ACAD_LAYER_241
  6
CONTINUOUS
 62
   211
 10
28.168216923088409
 20
25.572990095153759
 30
0.0
  0
VERTEX
  5
119
  8
ACAD_LAYER_241
  6
CONTINUOUS
 62
   211
 10
28.587434870513839
 20
25.632788583014879
 30
0.0
  0
VERTEX
  5
11A
  8
ACAD_LAYER_241
  6
CONTINUOUS
 62
   211
 10
29.00174592722724
 20
25.768796086195959
 30
0.0
  0
VERTEX
  5
11B
  8
ACAD_LAYER_241
  6
CONTINUOUS
 62
   211
 10
29.395653378182491
 20
25.975925437732041
 30
0.0
  0
VERTEX
  5
11C
  8
ACAD_LAYER_241
  6
CONTINUOUS
 62
   211
 10
29.75442367614961
 20
26.246429259206771
 30
0.0
  0
VERTEX
  5
11D
  8
ACAD_LAYER_241
  6
CONTINUOUS
 62
   211
 10
30.064637529066459
 20
26.570189740408789
 30
0.0
  0
VERTEX
  5
11E
  8
ACAD_LAYER_241
  6
CONTINUOUS
 62
   211
 10
30.314691829547641
 20
26.93509708161379
 30
0.0
  0
SEQEND
  5
11F
  8
ACAD_LAYER_241
  6
CONTINUOUS
 62
   211
  0
POLYLINE
  5
C6
  8
ACAD_LAYER_241
  6
CONTINUOUS
 62
   211
 66
     1
 10
0.0
 20
0.0
 30
0.0
  0
VERTEX
  5
319
  8
ACAD_LAYER_241
  6
CONTINUOUS
 62
   211
 10
25.0044499890727
 20
27.178835739033499
 30
0.0
  0
VERTEX
  5
31A
  8
ACAD_LAYER_241
  6
CONTINUOUS
 62
   211
 10
24.96853051150428
 20
27.18041007680349
 30
0.0
  0
VERTEX
  5
31B
  8
ACAD_LAYER_241
  6
CONTINUOUS
 62
   211
 10
24.932704608299161
 20
27.18239785822853
 30
0.0
  0
VERTEX
  5
31C
  8
ACAD_LAYER_241
  6
CONTINUOUS
 62
   211
 10
24.89699109719054
 20
27.18479704773382
 30
0.0
  0
VERTEX
  5
31D
  8
ACAD_LAYER_241
  6
CONTINUOUS
 62
   211
 10
24.861408795911611
 20
27.187605609744519
 30
0.0
  0
VERTEX
  5
31E
  8
ACAD_LAYER_241
  6
CONTINUOUS
 62
   211
 10
24.825976522195589
 20
27.190821508685801
 30
0.0
  0
VERTEX
  5
31F
  8
ACAD_LAYER_241
  6
CONTINUOUS
 62
   211
 10
24.790713093775679
 20
27.19444270898283
 30
0.0
  0
VERTEX
  5
320
  8
ACAD_LAYER_241
  6
CONTINUOUS
 62
   211
 10
24.75563732838506
 20
27.198467175060799
 30
0.0
  0
VERTEX
  5
321
  8
ACAD_LAYER_241
  6
CONTINUOUS
 62
   211
 10
24.720768043756959
 20
27.202892871344851
 30
0.0
  0
VERTEX
  5
322
  8
ACAD_LAYER_241
  6
CONTINUOUS
 62
   211
 10
24.686124057624571
 20
27.207717762260192
 30
0.0
  0
VERTEX
  5
323
  8
ACAD_LAYER_241
  6
CONTINUOUS
 62
   211
 10
24.65172418772109
 20
27.212939812231969
 30
0.0
  0
VERTEX
  5
324
  8
ACAD_LAYER_241
  6
CONTINUOUS
 62
   211
 10
24.617587251779732
 20
27.21855698568536
 30
0.0
  0
VERTEX
  5
325
  8
ACAD_LAYER_241
  6
CONTINUOUS
 62
   211
 10
24.583732067533681
 20
27.224567247045531
 30
0.0
  0
VERTEX
  5
326
  8
ACAD_LAYER_241
  6
CONTINUOUS
 62
   211
 10
24.550177452716159
 20
27.230968560737669
 30
0.0
  0
VERTEX
  5
327
  8
ACAD_LAYER_241
  6
CONTINUOUS
 62
   211
 10
24.516981821770599
 20
27.237745733267321
 30
0.0
  0
VERTEX
  5
328
  8
ACAD_LAYER_241
  6
CONTINUOUS
 62
   211
 10
24.484193371717549
 20
27.24488126797382
 30
0.0
  0
VERTEX
  5
329
  8
ACAD_LAYER_241
  6
CONTINUOUS
 62
   211
 10
24.45181559415602
 20
27.252369674532989
 30
0.0
  0
VERTEX
  5
32A
  8
ACAD_LAYER_241
  6
CONTINUOUS
 62
   211
 10
24.419851980684889
 20
27.26020546262065
 30
0.0
  0
VERTEX
  5
32B
  8
ACAD_LAYER_241
  6
CONTINUOUS
 62
   211
 10
24.388306022903141
 20
27.268383141912629
 30
0.0
  0
VERTEX
  5
32C
  8
ACAD_LAYER_241
  6
CONTINUOUS
 62
   211
 10
24.357181212409682
 20
27.276897222084749
 30
0.0
  0
VERTEX
  5
32D
  8
ACAD_LAYER_241
  6
CONTINUOUS
 62
   211
 10
24.326481040803468
 20
27.28574221281281
 30
0.0
  0
VERTEX
  5
32E
  8
ACAD_LAYER_241
  6
CONTINUOUS
 62
   211
 10
24.296208999683451
 20
27.29491262377266
 30
0.0
  0
VERTEX
  5
32F
  8
ACAD_LAYER_241
  6
CONTINUOUS
 62
   211
 10
24.266368580648521
 20
27.304402964640111
 30
0.0
  0
VERTEX
  5
330
  8
ACAD_LAYER_241
  6
CONTINUOUS
 62
   211
 10
24.236963275297668
 20
27.314207745090979
 30
0.0
  0
VERTEX
  5
331
  8
ACAD_LAYER_241
  6
CONTINUOUS
 62
   211
 10
24.20799657522981
 20
27.32432147480111
 30
0.0
  0
VERTEX
  5
332
  8
ACAD_LAYER_241
  6
CONTINUOUS
 62
   211
 10
24.179471972043881
 20
27.334738663446299
 30
0.0
  0
VERTEX
  5
333
  8
ACAD_LAYER_241
  6
CONTINUOUS
 62
   211
 10
24.151392957338839
 20
27.345453820702389
 30
0.0
  0
VERTEX
  5
334
  8
ACAD_LAYER_241
  6
CONTINUOUS
 62
   211
 10
24.123817155326449
 20
27.356439735105429
 30
0.0
  0
VERTEX
  5
335
  8
ACAD_LAYER_241
  6
CONTINUOUS
 62
   211
 10
24.096798602336019
 20
27.36766754761102
 30
0.0
  0
VERTEX
  5
336
  8
ACAD_LAYER_241
  6
CONTINUOUS
 62
   211
 10
24.07033540814286
 20
27.379129296524301
 30
0.0
  0
VERTEX
  5
337
  8
ACAD_LAYER_241
  6
CONTINUOUS
 62
   211
 10
24.04442568252227
 20
27.390817020150411
 30
0.0
  0
VERTEX
  5
338
  8
ACAD_LAYER_241
  6
CONTINUOUS
 62
   211
 10
24.01906753524948
 20
27.402722756794489
 30
0.0
  0
VERTEX
  5
339
  8
ACAD_LAYER_241
  6
CONTINUOUS
 62
   211
 10
23.994259076099819
 20
27.414838544761661
 30
0.0
  0
VERTEX
  5
33A
  8
ACAD_LAYER_241
  6
CONTINUOUS
 62
   211
 10
23.969998414848551
 20
27.427156422357061
 30
0.0
  0
VERTEX
  5
33B
  8
ACAD_LAYER_241
  6
CONTINUOUS
 62
   211
 10
23.946283661270961
 20
27.439668427885831
 30
0.0
  0
VERTEX
  5
33C
  8
ACAD_LAYER_241
  6
CONTINUOUS
 62
   211
 10
23.92311292514232
 20
27.4523665996531
 30
0.0
  0
VERTEX
  5
33D
  8
ACAD_LAYER_241
  6
CONTINUOUS
 62
   211
 10
23.900484316237929
 20
27.465242975964021
 30
0.0
  0
VERTEX
  5
33E
  8
ACAD_LAYER_241
  6
CONTINUOUS
 62
   211
 10
23.87839594433305
 20
27.478289595123702
 30
0.0
  0
VERTEX
  5
33F
  8
ACAD_LAYER_241
  6
CONTINUOUS
 62
   211
 10
23.856845919202989
 20
27.491498495437291
 30
0.0
  0
VERTEX
  5
340
  8
ACAD_LAYER_241
  6
CONTINUOUS
 62
   211
 10
23.835832350623011
 20
27.50486171520992
 30
0.0
  0
VERTEX
  5
341
  8
ACAD_LAYER_241
  6
CONTINUOUS
 62
   211
 10
23.815353348368401
 20
27.518371292746739
 30
0.0
  0
VERTEX
  5
342
  8
ACAD_LAYER_241
  6
CONTINUOUS
 62
   211
 10
23.795407022214441
 20
27.532019266352869
 30
0.0
  0
VERTEX
  5
343
  8
ACAD_LAYER_241
  6
CONTINUOUS
 62
   211
 10
23.775991481936408
 20
27.545797674333439
 30
0.0
  0
VERTEX
  5
344
  8
ACAD_LAYER_241
  6
CONTINUOUS
 62
   211
 10
23.757104837309608
 20
27.559698554993609
 30
0.0
  0
VERTEX
  5
345
  8
ACAD_LAYER_241
  6
CONTINUOUS
 62
   211
 10
23.73874519810931
 20
27.573713946638481
 30
0.0
  0
VERTEX
  5
346
  8
ACAD_LAYER_241
  6
CONTINUOUS
 62
   211
 10
23.72091067411079
 20
27.58783588757321
 30
0.0
  0
VERTEX
  5
347
  8
ACAD_LAYER_241
  6
CONTINUOUS
 62
   211
 10
23.703599375089318
 20
27.602056416102929
 30
0.0
  0
VERTEX
  5
348
  8
ACAD_LAYER_241
  6
CONTINUOUS
 62
   211
 10
23.68680941082021
 20
27.61636757053278
 30
0.0
  0
VERTEX
  5
349
  8
ACAD_LAYER_241
  6
CONTINUOUS
 62
   211
 10
23.67053889107871
 20
27.63076138916788
 30
0.0
  0
VERTEX
  5
34A
  8
ACAD_LAYER_241
  6
CONTINUOUS
 62
   211
 10
23.654785925640141
 20
27.645229910313379
 30
0.0
  0
VERTEX
  5
34B
  8
ACAD_LAYER_241
  6
CONTINUOUS
 62
   211
 10
23.639548624279751
 20
27.659765172274408
 30
0.0
  0
VERTEX
  5
34C
  8
ACAD_LAYER_241
  6
CONTINUOUS
 62
   211
 10
23.624825096772842
 20
27.674359213356109
 30
0.0
  0
VERTEX
  5
34D
  8
ACAD_LAYER_241
  6
CONTINUOUS
 62
   211
 10
23.610613452894679
 20
27.6890040718636
 30
0.0
  0
VERTEX
  5
34E
  8
ACAD_LAYER_241
  6
CONTINUOUS
 62
   211
 10
23.596890743502129
 20
27.703714130478481
 30
0.0
  0
VERTEX
  5
34F
  8
ACAD_LAYER_241
  6
CONTINUOUS
 62
   211
 10
23.583634288394819
 20
27.718503655494811
 30
0.0
  0
VERTEX
  5
350
  8
ACAD_LAYER_241
  6
CONTINUOUS
 62
   211
 10
23.570842600762251
 20
27.73336451063647
 30
0.0
  0
VERTEX
  5
351
  8
ACAD_LAYER_241
  6
CONTINUOUS
 62
   211
 10
23.55851419379389
 20
27.748288559627369
 30
0.0
  0
VERTEX
  5
352
  8
ACAD_LAYER_241
  6
CONTINUOUS
 62
   211
 10
23.54664758067922
 20
27.763267666191361
 30
0.0
  0
VERTEX
  5
353
  8
ACAD_LAYER_241
  6
CONTINUOUS
 62
   211
 10
23.535241274607731
 20
27.778293694052358
 30
0.0
  0
VERTEX
  5
354
  8
ACAD_LAYER_241
  6
CONTINUOUS
 62
   211
 10
23.524293788768901
 20
27.79335850693424
 30
0.0
  0
VERTEX
  5
355
  8
ACAD_LAYER_241
  6
CONTINUOUS
 62
   211
 10
23.513803636352211
 20
27.80845396856089
 30
0.0
  0
VERTEX
  5
356
  8
ACAD_LAYER_241
  6
CONTINUOUS
 62
   211
 10
23.503769330547151
 20
27.823571942656201
 30
0.0
  0
VERTEX
  5
357
  8
ACAD_LAYER_241
  6
CONTINUOUS
 62
   211
 10
23.49418938454318
 20
27.838704292944019
 30
0.0
  0
VERTEX
  5
358
  8
ACAD_LAYER_241
  6
CONTINUOUS
 62
   211
 10
23.485062311529809
 20
27.853842883148278
 30
0.0
  0
VERTEX
  5
359
  8
ACAD_LAYER_241
  6
CONTINUOUS
 62
   211
 10
23.476386624696499
 20
27.868979576992849
 30
0.0
  0
VERTEX
  5
35A
  8
ACAD_LAYER_241
  6
CONTINUOUS
 62
   211
 10
23.468160837232741
 20
27.88410623820161
 30
0.0
  0
VERTEX
  5
35B
  8
ACAD_LAYER_241
  6
CONTINUOUS
 62
   211
 10
23.460376656807352
 20
27.899217416186339
 30
0.0
  0
VERTEX
  5
35C
  8
ACAD_LAYER_241
  6
CONTINUOUS
 62
   211
 10
23.4530230774842
 20
27.914312818838681
 30
0.0
  0
VERTEX
  5
35D
  8
ACAD_LAYER_241
  6
CONTINUOUS
 62
   211
 10
23.44609454204539
 20
27.929392047602271
 30
0.0
  0
VERTEX
  5
35E
  8
ACAD_LAYER_241
  6
CONTINUOUS
 62
   211
 10
23.439585493273011
 20
27.944454703920769
 30
0.0
  0
VERTEX
  5
35F
  8
ACAD_LAYER_241
  6
CONTINUOUS
 62
   211
 10
23.433490373949159
 20
27.959500389237839
 30
0.0
  0
VERTEX
  5
360
  8
ACAD_LAYER_241
  6
CONTINUOUS
 62
   211
 10
23.427803626855919
 20
27.974528704997152
 30
0.0
  0
VERTEX
  5
361
  8
ACAD_LAYER_241
  6
CONTINUOUS
 62
   211
 10
23.422519694775399
 20
27.989539252642349
 30
0.0
  0
VERTEX
  5
362
  8
ACAD_LAYER_241
  6
CONTINUOUS
 62
   211
 10
23.417633020489681
 20
28.004531633617091
 30
0.0
  0
VERTEX
  5
363
  8
ACAD_LAYER_241
  6
CONTINUOUS
 62
   211
 10
23.413138046780851
 20
28.019505449365049
 30
0.0
  0
VERTEX
  5
364
  8
ACAD_LAYER_241
  6
CONTINUOUS
 62
   211
 10
23.40902921643103
 20
28.034460301329869
 30
0.0
  0
VERTEX
  5
365
  8
ACAD_LAYER_241
  6
CONTINUOUS
 62
   211
 10
23.405300972222278
 20
28.049395790955209
 30
0.0
  0
VERTEX
  5
366
  8
ACAD_LAYER_241
  6
CONTINUOUS
 62
   211
 10
23.40194775693671
 20
28.06431151968474
 30
0.0
  0
VERTEX
  5
367
  8
ACAD_LAYER_241
  6
CONTINUOUS
 62
   211
 10
23.398964013356409
 20
28.079207088962111
 30
0.0
  0
VERTEX
  5
368
  8
ACAD_LAYER_241
  6
CONTINUOUS
 62
   211
 10
23.39634697151876
 20
28.09408539957408
 30
0.0
  0
VERTEX
  5
369
  8
ACAD_LAYER_241
  6
CONTINUOUS
 62
   211
 10
23.394095465674781
 20
28.10894802992803
 30
0.0
  0
VERTEX
  5
36A
  8
ACAD_LAYER_241
  6
CONTINUOUS
 62
   211
 10
23.39220634492699
 20
28.123792597898511
 30
0.0
  0
VERTEX
  5
36B
  8
ACAD_LAYER_241
  6
CONTINUOUS
 62
   211
 10
23.390676458377929
 20
28.13861672136008
 30
0.0
  0
VERTEX
  5
36C
  8
ACAD_LAYER_241
  6
CONTINUOUS
 62
   211
 10
23.389502655130109
 20
28.153418018187281
 30
0.0
  0
VERTEX
  5
36D
  8
ACAD_LAYER_241
  6
CONTINUOUS
 62
   211
 10
23.388681784286039
 20
28.168194106254681
 30
0.0
  0
VERTEX
  5
36E
  8
ACAD_LAYER_241
  6
CONTINUOUS
 62
   211
 10
23.388210694948281
 20
28.182942603436821
 30
0.0
  0
VERTEX
  5
36F
  8
ACAD_LAYER_241
  6
CONTINUOUS
 62
   211
 10
23.388086236219358
 20
28.19766112760826
 30
0.0
  0
VERTEX
  5
370
  8
ACAD_LAYER_241
  6
CONTINUOUS
 62
   211
 10
23.388305257201761
 20
28.212347296643561
 30
0.0
  0
VERTEX
  5
371
  8
ACAD_LAYER_241
  6
CONTINUOUS
 62
   211
 10
23.388864606998052
 20
28.226998728417279
 30
0.0
  0
VERTEX
  5
372
  8
ACAD_LAYER_241
  6
CONTINUOUS
 62
   211
 10
23.389761134710749
 20
28.241613040803959
 30
0.0
  0
VERTEX
  5
373
  8
ACAD_LAYER_241
  6
CONTINUOUS
 62
   211
 10
23.39099168944238
 20
28.25618785167817
 30
0.0
  0
VERTEX
  5
374
  8
ACAD_LAYER_241
  6
CONTINUOUS
 62
   211
 10
23.39255312029546
 20
28.270720778914448
 30
0.0
  0
VERTEX
  5
375
  8
ACAD_LAYER_241
  6
CONTINUOUS
 62
   211
 10
23.394442276372519
 20
28.285209440387369
 30
0.0
  0
VERTEX
  5
376
  8
ACAD_LAYER_241
  6
CONTINUOUS
 62
   211
 10
23.396656006776091
 20
28.29965145397146
 30
0.0
  0
VERTEX
  5
377
  8
ACAD_LAYER_241
  6
CONTINUOUS
 62
   211
 10
23.399191160608702
 20
28.314044437541309
 30
0.0
  0
VERTEX
  5
378
  8
ACAD_LAYER_241
  6
CONTINUOUS
 62
   211
 10
23.40204458697287
 20
28.328386008971449
 30
0.0
  0
VERTEX
  5
379
  8
ACAD_LAYER_241
  6
CONTINUOUS
 62
   211
 10
23.405213134971131
 20
28.342673786136441
 30
0.0
  0
VERTEX
  5
37A
  8
ACAD_LAYER_241
  6
CONTINUOUS
 62
   211
 10
23.40869365370601
 20
28.356905386910832
 30
0.0
  0
VERTEX
  5
37B
  8
ACAD_LAYER_241
  6
CONTINUOUS
 62
   211
 10
23.412482992280019
 20
28.371078429169192
 30
0.0
  0
VERTEX
  5
37C
  8
ACAD_LAYER_241
  6
CONTINUOUS
 62
   211
 10
23.41657799979571
 20
28.385190530786058
 30
0.0
  0
VERTEX
  5
37D
  8
ACAD_LAYER_241
  6
CONTINUOUS
 62
   211
 10
23.42097552535559
 20
28.399239309635998
 30
0.0
  0
VERTEX
  5
37E
  8
ACAD_LAYER_241
  6
CONTINUOUS
 62
   211
 10
23.425672418062181
 20
28.41322238359357
 30
0.0
  0
VERTEX
  5
37F
  8
ACAD_LAYER_241
  6
CONTINUOUS
 62
   211
 10
23.430665527018029
 20
28.42713737053332
 30
0.0
  0
VERTEX
  5
380
  8
ACAD_LAYER_241
  6
CONTINUOUS
 62
   211
 10
23.435951701325649
 20
28.440981888329802
 30
0.0
  0
VERTEX
  5
381
  8
ACAD_LAYER_241
  6
CONTINUOUS
 62
   211
 10
23.44152779008758
 20
28.454753554857579
 30
0.0
  0
SEQEND
  5
382
  8
ACAD_LAYER_241
  6
CONTINUOUS
 62
   211
  0
TEXT
  5
C9
  8
ACAD_LAYER_241
  6
CONTINUOUS
 62
    21
 10
-28.761904761904759
 20
56.0
 30
0.0
 40
4.0
  1
FM22-PLS636-35
  7
CK_TEXT_STYLE_0004
  0
LINE
  5
CA
  8
ACAD_LAYER_240
  6
CONTINUOUS
 62
     4
 10
-0.000000000000003
 20
5.2000000000000064
 30
0.0
 11
-0.0000000000000853
 21
29.500000336766419
 31
0.0
  0
LINE
  5
CB
  8
ACAD_LAYER_240
  6
CONTINUOUS
 62
     4
 10
-0.000000000000003
 20
5.2000000000000064
 30
0.0
 11
5.9999999999999947
 21
5.200000000000025
 31
0.0
  0
LINE
  5
CC
  8
ACAD_LAYER_240
  6
CONTINUOUS
 62
     4
 10
0.0000000000000322
 20
-5.1999999999999931
 30
0.0
 11
6.0000000000000311
 21
-5.1999999999999771
 31
0.0
  0
LINE
  5
CD
  8
ACAD_LAYER_240
  6
CONTINUOUS
 62
     4
 10
6.0000000000000311
 20
-5.1999999999999771
 30
0.0
 11
5.9999999999999947
 21
5.200000000000025
 31
0.0
  0
LINE
  5
CE
  8
ACAD_LAYER_240
  6
CONTINUOUS
 62
     4
 10
6.99999928474426
 20
-29.99999966621408
 30
0.0
 11
0.5000010132789612
 21
-29.99999966621473
 31
0.0
  0
LINE
  5
CF
  8
ACAD_LAYER_240
  6
CONTINUOUS
 62
     4
 10
0.0000000000001145
 20
-29.500000336766391
 30
0.0
 11
0.0000000000000322
 21
-5.1999999999999931
 31
0.0
  0
LINE
  5
D0
  8
ACAD_LAYER_240
  6
CONTINUOUS
 62
     4
 10
11.54137791595755
 20
30.8999996632337
 30
0.0
 11
11.282903193303889
 21
30.854423595803269
 31
0.0
  0
LINE
  5
D1
  8
ACAD_LAYER_240
  6
CONTINUOUS
 62
     4
 10
6.999999284744062
 20
29.999999666214141
 30
0.0
 11
7.8671439217287391
 21
29.767650583182888
 31
0.0
  0
LINE
  5
D2
  8
ACAD_LAYER_240
  6
CONTINUOUS
 62
     4
 10
10.30384749174098
 20
30.498076567053928
 30
0.0
 11
9.3847792627852584
 21
29.96745180674057
 31
0.0
  0
LINE
  5
D3
  8
ACAD_LAYER_240
  6
CONTINUOUS
 62
     4
 10
6.999999284744062
 20
29.999999666214141
 30
0.0
 11
0.5000010132787625
 21
29.999999666214141
 31
0.0
  0
LINE
  5
D4
  8
ACAD_LAYER_240
  6
CONTINUOUS
 62
     4
 10
11.541377915957749
 20
-30.899999663233601
 30
0.0
 11
11.28290319330409
 21
-30.85442359580318
 31
0.0
  0
LINE
  5
D5
  8
ACAD_LAYER_240
  6
CONTINUOUS
 62
     4
 10
10.30384749174118
 20
-30.498076567053861
 30
0.0
 11
9.3847792627854556
 21
-29.967451806740481
 31
0.0
  0
LINE
  5
D6
  8
ACAD_LAYER_240
  6
CONTINUOUS
 62
     4
 10
6.99999928474426
 20
-29.99999966621408
 30
0.0
 11
7.8671439217289372
 21
-29.767650583182839
 31
0.0
  0
LINE
  5
D7
  8
ACAD_LAYER_240
  6
CONTINUOUS
 62
     4
 10
11.54137982583339
 20
30.900000000000659
 30
0.0
 11
25.638337394069051
 21
30.899999663233761
 31
0.0
  0
LINE
  5
D8
  8
ACAD_LAYER_240
  6
CONTINUOUS
 62
     4
 10
34.400000120512949
 20
23.968968561660631
 30
0.0
 11
34.40000012051302
 21
-29.799999669194111
 31
0.0
  0
LINE
  5
D9
  8
ACAD_LAYER_240
  6
CONTINUOUS
 62
     4
 10
11.541377915957749
 20
-30.899999663233601
 30
0.0
 11
33.300000126473407
 21
-30.89999966323365
 31
0.0
  0
LINE
  5
DA
  8
ACAD_LAYER_240
  6
CONTINUOUS
 62
     4
 10
28.160884422295361
 20
30.893340153126129
 30
0.0
 11
27.723386250041781
 21
30.891638382218979
 31
0.0
  0
ARC
  5
DB
  8
ACAD_LAYER_240
  6
CONTINUOUS
 62
     4
 10
0.500000149011413
 20
29.500000336766419
 30
0.0
 40
0.5
 50
90.0
 51
180.0
  0
ARC
  5
DC
  8
ACAD_LAYER_240
  6
CONTINUOUS
 62
     4
 10
11.803847726304809
 20
27.900000336766428
 30
0.0
 40
3.0
 50
100.0000000000002
 51
120.0000000000006
  0
ARC
  5
DD
  8
ACAD_LAYER_240
  6
CONTINUOUS
 62
     4
 10
8.3847784600915816
 20
31.699502467436389
 30
0.0
 40
1.9999999999999889
 50
255.0000000000004
 51
300.00000000000051
  0
ARC
  5
DE
  8
ACAD_LAYER_240
  6
CONTINUOUS
 62
     4
 10
8.3847784600917752
 20
-31.699502467436329
 30
0.0
 40
1.9999999999999889
 50
60.000000000000277
 51
104.9999999999996
  0
ARC
  5
DF
  8
ACAD_LAYER_240
  6
CONTINUOUS
 62
     4
 10
0.5000001490116121
 20
-29.500000336766391
 30
0.0
 40
0.5
 50
180.0
 51
270.0
  0
ARC
  5
E0
  8
ACAD_LAYER_240
  6
CONTINUOUS
 62
     4
 10
11.80384772630498
 20
-27.900000336766311
 30
0.0
 40
3.0
 50
240.0000000000002
 51
259.99999999999972
  0
POLYLINE
  5
E1
  8
ACAD_LAYER_240
  6
CONTINUOUS
 62
     4
 66
     1
 10
0.0
 20
0.0
 30
0.0
  0
VERTEX
  5
40D
  8
ACAD_LAYER_240
  6
CONTINUOUS
 62
     4
 10
25.40522462691743
 20
30.88657962490953
 30
0.0
  0
VERTEX
  5
40E
  8
ACAD_LAYER_240
  6
CONTINUOUS
 62
     4
 10
25.410678330025931
 20
30.887437334609789
 30
0.0
  0
VERTEX
  5
40F
  8
ACAD_LAYER_240
  6
CONTINUOUS
 62
     4
 10
25.416589101349292
 20
30.888263689692199
 30
0.0
  0
VERTEX
  5
410
  8
ACAD_LAYER_240
  6
CONTINUOUS
 62
     4
 10
25.422953859326991
 20
30.88905898607376
 30
0.0
  0
VERTEX
  5
411
  8
ACAD_LAYER_240
  6
CONTINUOUS
 62
     4
 10
25.42976952239848
 20
30.889823519671442
 30
0.0
  0
VERTEX
  5
412
  8
ACAD_LAYER_240
  6
CONTINUOUS
 62
     4
 10
25.437033009003219
 20
30.890557586402291
 30
0.0
  0
VERTEX
  5
413
  8
ACAD_LAYER_240
  6
CONTINUOUS
 62
     4
 10
25.444741237580679
 20
30.891261482183289
 30
0.0
  0
VERTEX
  5
414
  8
ACAD_LAYER_240
  6
CONTINUOUS
 62
     4
 10
25.452891126570321
 20
30.89193550293146
 30
0.0
  0
VERTEX
  5
415
  8
ACAD_LAYER_240
  6
CONTINUOUS
 62
     4
 10
25.46147959441161
 20
30.892579944563789
 30
0.0
  0
VERTEX
  5
416
  8
ACAD_LAYER_240
  6
CONTINUOUS
 62
     4
 10
25.470503559543989
 20
30.893195102997311
 30
0.0
  0
VERTEX
  5
417
  8
ACAD_LAYER_240
  6
CONTINUOUS
 62
     4
 10
25.479959940406928
 20
30.893781274148981
 30
0.0
  0
VERTEX
  5
418
  8
ACAD_LAYER_240
  6
CONTINUOUS
 62
     4
 10
25.4898456554399
 20
30.894338753935831
 30
0.0
  0
VERTEX
  5
419
  8
ACAD_LAYER_240
  6
CONTINUOUS
 62
     4
 10
25.500157623082359
 20
30.89486783827488
 30
0.0
  0
VERTEX
  5
41A
  8
ACAD_LAYER_240
  6
CONTINUOUS
 62
     4
 10
25.510892761773771
 20
30.89536882308311
 30
0.0
  0
VERTEX
  5
41B
  8
ACAD_LAYER_240
  6
CONTINUOUS
 62
     4
 10
25.522047989953599
 20
30.89584200427754
 30
0.0
  0
VERTEX
  5
41C
  8
ACAD_LAYER_240
  6
CONTINUOUS
 62
     4
 10
25.533620226061281
 20
30.89628767777517
 30
0.0
  0
VERTEX
  5
41D
  8
ACAD_LAYER_240
  6
CONTINUOUS
 62
     4
 10
25.54560638853631
 20
30.896706139492998
 30
0.0
  0
VERTEX
  5
41E
  8
ACAD_LAYER_240
  6
CONTINUOUS
 62
     4
 10
25.558003395818151
 20
30.89709768534804
 30
0.0
  0
VERTEX
  5
41F
  8
ACAD_LAYER_240
  6
CONTINUOUS
 62
     4
 10
25.570808166346229
 20
30.897462611257289
 30
0.0
  0
VERTEX
  5
420
  8
ACAD_LAYER_240
  6
CONTINUOUS
 62
     4
 10
25.584017618560029
 20
30.897801213137761
 30
0.0
  0
VERTEX
  5
421
  8
ACAD_LAYER_240
  6
CONTINUOUS
 62
     4
 10
25.59762867089902
 20
30.89811378690645
 30
0.0
  0
VERTEX
  5
422
  8
ACAD_LAYER_240
  6
CONTINUOUS
 62
     4
 10
25.611638241802659
 20
30.898400628480381
 30
0.0
  0
VERTEX
  5
423
  8
ACAD_LAYER_240
  6
CONTINUOUS
 62
     4
 10
25.626043249710388
 20
30.89866203377651
 30
0.0
  0
VERTEX
  5
424
  8
ACAD_LAYER_240
  6
CONTINUOUS
 62
     4
 10
25.640840613061709
 20
30.898898298711899
 30
0.0
  0
VERTEX
  5
425
  8
ACAD_LAYER_240
  6
CONTINUOUS
 62
     4
 10
25.656027250296031
 20
30.89910971920353
 30
0.0
  0
VERTEX
  5
426
  8
ACAD_LAYER_240
  6
CONTINUOUS
 62
     4
 10
25.671600079852858
 20
30.899296591168401
 30
0.0
  0
VERTEX
  5
427
  8
ACAD_LAYER_240
  6
CONTINUOUS
 62
     4
 10
25.687556020171641
 20
30.899459210523521
 30
0.0
  0
VERTEX
  5
428
  8
ACAD_LAYER_240
  6
CONTINUOUS
 62
     4
 10
25.7039149390197
 20
30.899598613964841
 30
0.0
  0
VERTEX
  5
429
  8
ACAD_LAYER_240
  6
CONTINUOUS
 62
     4
 10
25.720691778471679
 20
30.899716058377901
 30
0.0
  0
VERTEX
  5
42A
  8
ACAD_LAYER_240
  6
CONTINUOUS
 62
     4
 10
25.737876068428051
 20
30.89981216996409
 30
0.0
  0
VERTEX
  5
42B
  8
ACAD_LAYER_240
  6
CONTINUOUS
 62
     4
 10
25.75545733878927
 20
30.899887574924779
 30
0.0
  0
VERTEX
  5
42C
  8
ACAD_LAYER_240
  6
CONTINUOUS
 62
     4
 10
25.773425119455819
 20
30.899942899461379
 30
0.0
  0
VERTEX
  5
42D
  8
ACAD_LAYER_240
  6
CONTINUOUS
 62
     4
 10
25.79176894032814
 20
30.899978769775259
 30
0.0
  0
VERTEX
  5
42E
  8
ACAD_LAYER_240
  6
CONTINUOUS
 62
     4
 10
25.810478331306719
 20
30.899995812067811
 30
0.0
  0
VERTEX
  5
42F
  8
ACAD_LAYER_240
  6
CONTINUOUS
 62
     4
 10
25.829542822292002
 20
30.899994652540421
 30
0.0
  0
VERTEX
  5
430
  8
ACAD_LAYER_240
  6
CONTINUOUS
 62
     4
 10
25.848951943184471
 20
30.899975917394489
 30
0.0
  0
VERTEX
  5
431
  8
ACAD_LAYER_240
  6
CONTINUOUS
 62
     4
 10
25.868695223884568
 20
30.899940232831391
 30
0.0
  0
VERTEX
  5
432
  8
ACAD_LAYER_240
  6
CONTINUOUS
 62
     4
 10
25.888762194292791
 20
30.899888225052511
 30
0.0
  0
VERTEX
  5
433
  8
ACAD_LAYER_240
  6
CONTINUOUS
 62
     4
 10
25.909142384309568
 20
30.899820520259251
 30
0.0
  0
VERTEX
  5
434
  8
ACAD_LAYER_240
  6
CONTINUOUS
 62
     4
 10
25.929825323835392
 20
30.899737744652981
 30
0.0
  0
VERTEX
  5
435
  8
ACAD_LAYER_240
  6
CONTINUOUS
 62
     4
 10
25.950805493350739
 20
30.89964078053157
 30
0.0
  0
VERTEX
  5
436
  8
ACAD_LAYER_240
  6
CONTINUOUS
 62
     4
 10
25.97208450423518
 20
30.899530525718109
 30
0.0
  0
VERTEX
  5
437
  8
ACAD_LAYER_240
  6
CONTINUOUS
 62
     4
 10
25.99366258273783
 20
30.89940762970183
 30
0.0
  0
VERTEX
  5
438
  8
ACAD_LAYER_240
  6
CONTINUOUS
 62
     4
 10
26.015539955107759
 20
30.899272741971959
 30
0.0
  0
VERTEX
  5
439
  8
ACAD_LAYER_240
  6
CONTINUOUS
 62
     4
 10
26.03771684759408
 20
30.89912651201773
 30
0.0
  0
VERTEX
  5
43A
  8
ACAD_LAYER_240
  6
CONTINUOUS
 62
     4
 10
26.060193486445868
 20
30.898969589328381
 30
0.0
  0
VERTEX
  5
43B
  8
ACAD_LAYER_240
  6
CONTINUOUS
 62
     4
 10
26.082970097912241
 20
30.898802623393141
 30
0.0
  0
VERTEX
  5
43C
  8
ACAD_LAYER_240
  6
CONTINUOUS
 62
     4
 10
26.106046908242281
 20
30.898626263701239
 30
0.0
  0
VERTEX
  5
43D
  8
ACAD_LAYER_240
  6
CONTINUOUS
 62
     4
 10
26.129424143685071
 20
30.89844115974191
 30
0.0
  0
VERTEX
  5
43E
  8
ACAD_LAYER_240
  6
CONTINUOUS
 62
     4
 10
26.15310203048973
 20
30.89824796100439
 30
0.0
  0
VERTEX
  5
43F
  8
ACAD_LAYER_240
  6
CONTINUOUS
 62
     4
 10
26.177080794905329
 20
30.898047316977891
 30
0.0
  0
VERTEX
  5
440
  8
ACAD_LAYER_240
  6
CONTINUOUS
 62
     4
 10
26.201360663180971
 20
30.897839877151672
 30
0.0
  0
VERTEX
  5
441
  8
ACAD_LAYER_240
  6
CONTINUOUS
 62
     4
 10
26.225941861565762
 20
30.897626291014952
 30
0.0
  0
VERTEX
  5
442
  8
ACAD_LAYER_240
  6
CONTINUOUS
 62
     4
 10
26.250821566802141
 20
30.89740725176846
 30
0.0
  0
VERTEX
  5
443
  8
ACAD_LAYER_240
  6
CONTINUOUS
 62
     4
 10
26.27598796551813
 20
30.89718348164206
 30
0.0
  0
VERTEX
  5
444
  8
ACAD_LAYER_240
  6
CONTINUOUS
 62
     4
 10
26.301427798791181
 20
30.896955673668639
 30
0.0
  0
VERTEX
  5
445
  8
ACAD_LAYER_240
  6
CONTINUOUS
 62
     4
 10
26.327127807698702
 20
30.896724520881111
 30
0.0
  0
VERTEX
  5
446
  8
ACAD_LAYER_240
  6
CONTINUOUS
 62
     4
 10
26.35307473331811
 20
30.89649071631235
 30
0.0
  0
VERTEX
  5
447
  8
ACAD_LAYER_240
  6
CONTINUOUS
 62
     4
 10
26.37925531672688
 20
30.896254952995271
 30
0.0
  0
VERTEX
  5
448
  8
ACAD_LAYER_240
  6
CONTINUOUS
 62
     4
 10
26.405656299002409
 20
30.896017923962759
 30
0.0
  0
VERTEX
  5
449
  8
ACAD_LAYER_240
  6
CONTINUOUS
 62
     4
 10
26.43226442122215
 20
30.89578032224771
 30
0.0
  0
VERTEX
  5
44A
  8
ACAD_LAYER_240
  6
CONTINUOUS
 62
     4
 10
26.459066424463519
 20
30.895542840883021
 30
0.0
  0
VERTEX
  5
44B
  8
ACAD_LAYER_240
  6
CONTINUOUS
 62
     4
 10
26.48604904980397
 20
30.895306172901599
 30
0.0
  0
VERTEX
  5
44C
  8
ACAD_LAYER_240
  6
CONTINUOUS
 62
     4
 10
26.513199038320899
 20
30.895071011336331
 30
0.0
  0
VERTEX
  5
44D
  8
ACAD_LAYER_240
  6
CONTINUOUS
 62
     4
 10
26.540503131091761
 20
30.89483804922013
 30
0.0
  0
VERTEX
  5
44E
  8
ACAD_LAYER_240
  6
CONTINUOUS
 62
     4
 10
26.567948069193989
 20
30.89460797958586
 30
0.0
  0
VERTEX
  5
44F
  8
ACAD_LAYER_240
  6
CONTINUOUS
 62
     4
 10
26.595543679031451
 20
30.894381232128652
 30
0.0
  0
VERTEX
  5
450
  8
ACAD_LAYER_240
  6
CONTINUOUS
 62
     4
 10
26.623309007652029
 20
30.894158054701752
 30
0.0
  0
VERTEX
  5
451
  8
ACAD_LAYER_240
  6
CONTINUOUS
 62
     4
 10
26.65124462709921
 20
30.893938867575251
 30
0.0
  0
VERTEX
  5
452
  8
ACAD_LAYER_240
  6
CONTINUOUS
 62
     4
 10
26.679351109416441
 20
30.893724091019269
 30
0.0
  0
VERTEX
  5
453
  8
ACAD_LAYER_240
  6
CONTINUOUS
 62
     4
 10
26.707629026647179
 20
30.8935141453039
 30
0.0
  0
VERTEX
  5
454
  8
ACAD_LAYER_240
  6
CONTINUOUS
 62
     4
 10
26.736078950834919
 20
30.89330945069927
 30
0.0
  0
VERTEX
  5
455
  8
ACAD_LAYER_240
  6
CONTINUOUS
 62
     4
 10
26.76470145402309
 20
30.893110427475431
 30
0.0
  0
VERTEX
  5
456
  8
ACAD_LAYER_240
  6
CONTINUOUS
 62
     4
 10
26.793497108255181
 20
30.892917495902541
 30
0.0
  0
VERTEX
  5
457
  8
ACAD_LAYER_240
  6
CONTINUOUS
 62
     4
 10
26.822466485574651
 20
30.89273107625068
 30
0.0
  0
VERTEX
  5
458
  8
ACAD_LAYER_240
  6
CONTINUOUS
 62
     4
 10
26.851610158024961
 20
30.89255158878996
 30
0.0
  0
VERTEX
  5
459
  8
ACAD_LAYER_240
  6
CONTINUOUS
 62
     4
 10
26.880928697649569
 20
30.892379453790479
 30
0.0
  0
VERTEX
  5
45A
  8
ACAD_LAYER_240
  6
CONTINUOUS
 62
     4
 10
26.910422676491962
 20
30.892215091522331
 30
0.0
  0
VERTEX
  5
45B
  8
ACAD_LAYER_240
  6
CONTINUOUS
 62
     4
 10
26.940092666595579
 20
30.89205892225565
 30
0.0
  0
VERTEX
  5
45C
  8
ACAD_LAYER_240
  6
CONTINUOUS
 62
     4
 10
26.96989677987111
 20
30.891912127341669
 30
0.0
  0
VERTEX
  5
45D
  8
ACAD_LAYER_240
  6
CONTINUOUS
 62
     4
 10
26.999787666199278
 20
30.891775621343889
 30
0.0
  0
VERTEX
  5
45E
  8
ACAD_LAYER_240
  6
CONTINUOUS
 62
     4
 10
27.029757704578611
 20
30.891649424350739
 30
0.0
  0
VERTEX
  5
45F
  8
ACAD_LAYER_240
  6
CONTINUOUS
 62
     4
 10
27.059799274007641
 20
30.891533556450678
 30
0.0
  0
VERTEX
  5
460
  8
ACAD_LAYER_240
  6
CONTINUOUS
 62
     4
 10
27.089904753484891
 20
30.891428037732151
 30
0.0
  0
VERTEX
  5
461
  8
ACAD_LAYER_240
  6
CONTINUOUS
 62
     4
 10
27.120066522008891
 20
30.891332888283621
 30
0.0
  0
VERTEX
  5
462
  8
ACAD_LAYER_240
  6
CONTINUOUS
 62
     4
 10
27.150276958578189
 20
30.89124812819351
 30
0.0
  0
VERTEX
  5
463
  8
ACAD_LAYER_240
  6
CONTINUOUS
 62
     4
 10
27.180528442191271
 20
30.891173777550289
 30
0.0
  0
VERTEX
  5
464
  8
ACAD_LAYER_240
  6
CONTINUOUS
 62
     4
 10
27.21081335184671
 20
30.89110985644238
 30
0.0
  0
VERTEX
  5
465
  8
ACAD_LAYER_240
  6
CONTINUOUS
 62
     4
 10
27.241124066543009
 20
30.891056384958269
 30
0.0
  0
VERTEX
  5
466
  8
ACAD_LAYER_240
  6
CONTINUOUS
 62
     4
 10
27.271452965278719
 20
30.891013383186351
 30
0.0
  0
VERTEX
  5
467
  8
ACAD_LAYER_240
  6
CONTINUOUS
 62
     4
 10
27.301792427052352
 20
30.89098087121512
 30
0.0
  0
VERTEX
  5
468
  8
ACAD_LAYER_240
  6
CONTINUOUS
 62
     4
 10
27.33213483086244
 20
30.890958869133009
 30
0.0
  0
VERTEX
  5
469
  8
ACAD_LAYER_240
  6
CONTINUOUS
 62
     4
 10
27.362472555707509
 20
30.890947397028452
 30
0.0
  0
VERTEX
  5
46A
  8
ACAD_LAYER_240
  6
CONTINUOUS
 62
     4
 10
27.392797980586099
 20
30.890946474989921
 30
0.0
  0
VERTEX
  5
46B
  8
ACAD_LAYER_240
  6
CONTINUOUS
 62
     4
 10
27.423103484496739
 20
30.890956123105848
 30
0.0
  0
VERTEX
  5
46C
  8
ACAD_LAYER_240
  6
CONTINUOUS
 62
     4
 10
27.453381446437952
 20
30.890976361464681
 30
0.0
  0
VERTEX
  5
46D
  8
ACAD_LAYER_240
  6
CONTINUOUS
 62
     4
 10
27.483624245408269
 20
30.891007210154871
 30
0.0
  0
VERTEX
  5
46E
  8
ACAD_LAYER_240
  6
CONTINUOUS
 62
     4
 10
27.51382426040621
 20
30.89104868926486
 30
0.0
  0
VERTEX
  5
46F
  8
ACAD_LAYER_240
  6
CONTINUOUS
 62
     4
 10
27.543973870430321
 20
30.89110081888311
 30
0.0
  0
VERTEX
  5
470
  8
ACAD_LAYER_240
  6
CONTINUOUS
 62
     4
 10
27.574065454479111
 20
30.891163619098052
 30
0.0
  0
VERTEX
  5
471
  8
ACAD_LAYER_240
  6
CONTINUOUS
 62
     4
 10
27.60409139155113
 20
30.891237109998151
 30
0.0
  0
VERTEX
  5
472
  8
ACAD_LAYER_240
  6
CONTINUOUS
 62
     4
 10
27.6340440606449
 20
30.891321311671842
 30
0.0
  0
VERTEX
  5
473
  8
ACAD_LAYER_240
  6
CONTINUOUS
 62
     4
 10
27.66391584075895
 20
30.89141624420758
 30
0.0
  0
VERTEX
  5
474
  8
ACAD_LAYER_240
  6
CONTINUOUS
 62
     4
 10
27.69369911089181
 20
30.891521927693791
 30
0.0
  0
VERTEX
  5
475
  8
ACAD_LAYER_240
  6
CONTINUOUS
 62
     4
 10
27.723386250042012
 20
30.891638382218961
 30
0.0
  0
SEQEND
  5
476
  8
ACAD_LAYER_240
  6
CONTINUOUS
 62
     4
  0
POLYLINE
  5
E2
  8
ACAD_LAYER_240
  6
CONTINUOUS
 62
     4
 66
     1
 10
0.0
 20
0.0
 30
0.0
 70
     8
  0
VERTEX
  5
477
  8
ACAD_LAYER_240
  6
CONTINUOUS
 62
     4
 10
33.300000126473407
 20
-30.89999966323365
 30
0.0
 70
    32
  0
VERTEX
  5
478
  8
ACAD_LAYER_240
  6
CONTINUOUS
 62
     4
 10
33.437500125728349
 20
-30.762499663978701
 30
0.0
 70
    32
  0
VERTEX
  5
479
  8
ACAD_LAYER_240
  6
CONTINUOUS
 62
     4
 10
33.575000124983283
 20
-30.62499966472377
 30
0.0
 70
    32
  0
VERTEX
  5
47A
  8
ACAD_LAYER_240
  6
CONTINUOUS
 62
     4
 10
33.71250012423824
 20
-30.487499665468821
 30
0.0
 70
    32
  0
VERTEX
  5
47B
  8
ACAD_LAYER_240
  6
CONTINUOUS
 62
     4
 10
33.850000123493167
 20
-30.349999666213879
 30
0.0
 70
    32
  0
VERTEX
  5
47C
  8
ACAD_LAYER_240
  6
CONTINUOUS
 62
     4
 10
33.987500122748123
 20
-30.21249966695893
 30
0.0
 70
    32
  0
VERTEX
  5
47D
  8
ACAD_LAYER_240
  6
CONTINUOUS
 62
     4
 10
34.125000122003051
 20
-30.074999667703981
 30
0.0
 70
    32
  0
VERTEX
  5
47E
  8
ACAD_LAYER_240
  6
CONTINUOUS
 62
     4
 10
34.262500121258
 20
-29.93749966844905
 30
0.0
 70
    32
  0
VERTEX
  5
47F
  8
ACAD_LAYER_240
  6
CONTINUOUS
 62
     4
 10
34.400000120512949
 20
-29.799999669194111
 30
0.0
 70
    32
  0
SEQEND
  5
480
  8
ACAD_LAYER_240
  6
CONTINUOUS
 62
     4
  0
LINE
  5
E3
  8
ACAD_LAYER_245
  6
DASHED
 62
     2
 10
-2.4424790710624791
 20
0.0
 30
0.0
 11
36.870336861967438
 21
0.0000000000001137
 31
0.0
  0
LINE
  5
729
  8
ACAD_LAYER_250
  6
CONTINUOUS
 62
     3
 10
62.024374378717852
 20
31.468968918188601
 30
0.0
 11
62.024374378717852
 21
29.238968918188601
 31
0.0
  0
LINE
  5
72A
  8
ACAD_LAYER_250
  6
CONTINUOUS
 62
     3
 10
62.396041045384521
 20
29.238968918188601
 30
0.0
 11
62.024374378717852
 21
31.468968918188601
 31
0.0
  0
LINE
  5
72B
  8
ACAD_LAYER_250
  6
CONTINUOUS
 62
     3
 10
61.652707712051182
 20
29.238968918188601
 30
0.0
 11
62.024374378717852
 21
31.468968918188601
 31
0.0
  0
LINE
  5
72C
  8
ACAD_LAYER_250
  6
CONTINUOUS
 62
     3
 10
62.024374378717852
 20
29.238968918188601
 30
0.0
 11
62.024374378717837
 21
-4.947697748478145
 31
0.0
  0
LINE
  5
72D
  8
ACAD_LAYER_250
  6
CONTINUOUS
 62
     3
 10
35.5
 20
31.5
 30
0.0
 11
63.024374378717852
 21
31.468968918188601
 31
0.0
  0
TEXT
  5
72E
  8
ACAD_LAYER_250
  6
CONTINUOUS
 62
    21
 10
61.024374378717852
 20
-4.6143644151448111
 30
0.0
 40
2.799999999999998
  1
\U+220563
 50
90.0
  7
CK_TEXT_STYLE_0003
  0
VIEWPORT
  5
E5
 67
     1
  8
0
 62
     4
 10
128.5
 20
97.5
 30
0.0
 40
314.226
 41
222.18000000000001
 68
     1
 69
     1
1001
ACAD
1000
MVIEW
1002
{
1070
    16
1010
0.0
1020
0.0
1030
0.0
1010
0.0
1020
0.0
1030
1.0
1040
0.0
1040
222.18000000000001
1040
128.5
1040
97.5
1040
50.0
1040
0.0
1040
0.0
1070
     0
1070
   100
1070
     1
1070
     3
1070
     0
1070
     0
1070
     0
1070
     0
1040
0.0
1040
0.0
1040
0.0
1040
10.0
1040
10.0
1040
10.0
1040
10.0
1070
     0
1002
{
1002
}
1002
}
1001
GENIUS_GENODEF_13
1002
{
1000
HIER
1070
     0
1002
}
1002
{
1000
MANEDIT
1070
     0
1002
}
1002
{
1000
NOSEL
1070
     0
1002
}
1002
{
1000
BEHIND
1070
     0
1002
}
1002
{
1000
OTHER
1070
     0
1002
}
1002
{
1000
REACTOR
1002
}
1001
GENIUS_GENOBJ-N-SDF_13
1002
{
1000
OWNER
1000
GEN
1002
}
1001
GENIUS_GENSCREG_15
1000
PF
1040
1.0
1000
DF
1040
1.0
1000
MIN
1011
-28.613
1021
0.0
1031
0.0
1021
-13.59
1031
0.0
1000
MAX
1011
285.613
1021
0.0
1031
0.0
1021
208.59
1031
0.0
1000
FLAGS
1070
     4
  0
ENDSEC
  0
EOF
