  0
SECTION
  2
HEADER
  9
$ACADVER
  1
AC1009
  9
$INSBASE
 10
0.0
 20
0.0
 30
0.0
  9
$EXTMIN
 10
-21.76600589132866
 20
-24.402950167229172
 30
-0.0000000349181948
  9
$EXTMAX
 10
58.94106036221558
 20
53.004727585163437
 30
0.0000000814935747
  9
$LIMMIN
 10
0.0
 20
0.0
  9
$LIMMAX
 10
12.0
 20
9.0
  9
$ORTHOMODE
 70
     1
  9
$REGENMODE
 70
     1
  9
$FILLMODE
 70
     1
  9
$QTEXTMODE
 70
     0
  9
$MIRRTEXT
 70
     1
  9
$DRAGMODE
 70
     2
  9
$LTSCALE
 40
1.0
  9
$OSMODE
 70
  3071
  9
$ATTMODE
 70
     1
  9
$TEXTSIZE
 40
0.2
  9
$TRACEWID
 40
0.05
  9
$TEXTSTYLE
  7
STANDARD
  9
$CLAYER
  8
0
  9
$CELTYPE
  6
BYLAYER
  9
$CECOLOR
 62
     4
  9
$DIMSCALE
 40
1.0
  9
$DIMASZ
 40
2.5
  9
$DIMEXO
 40
0.0625
  9
$DIMDLI
 40
0.38
  9
$DIMRND
 40
0.0
  9
$DIMDLE
 40
0.0
  9
$DIMEXE
 40
7.0
  9
$DIMTP
 40
0.02
  9
$DIMTM
 40
-0.001
  9
$DIMTXT
 40
2.799999999999998
  9
$DIMCEN
 40
0.09
  9
$DIMTSZ
 40
0.0
  9
$DIMTOL
 70
     0
  9
$DIMLIM
 70
     0
  9
$DIMTIH
 70
     1
  9
$DIMTOH
 70
     1
  9
$DIMSE1
 70
     0
  9
$DIMSE2
 70
     0
  9
$DIMTAD
 70
     0
  9
$DIMZIN
 70
     0
  9
$DIMBLK
  1

  9
$DIMASO
 70
     1
  9
$DIMSHO
 70
     1
  9
$DIMPOST
  1

  9
$DIMAPOST
  1

  9
$DIMALT
 70
     0
  9
$DIMALTD
 70
     2
  9
$DIMALTF
 40
25.399999999999999
  9
$DIMLFAC
 40
1.0
  9
$DIMTOFL
 70
     0
  9
$DIMTVP
 40
0.0
  9
$DIMTIX
 70
     0
  9
$DIMSOXD
 70
     0
  9
$DIMSAH
 70
     0
  9
$DIMBLK1
  1

  9
$DIMBLK2
  1

  9
$DIMSTYLE
  2
STANDARD
  9
$DIMCLRD
 70
     0
  9
$DIMCLRE
 70
     0
  9
$DIMCLRT
 70
     0
  9
$DIMTFAC
 40
0.75
  9
$DIMGAP
 40
0.09
  9
$LUNITS
 70
     2
  9
$LUPREC
 70
     8
  9
$SKETCHINC
 40
0.1
  9
$FILLETRAD
 40
0.5
  9
$AUNITS
 70
     0
  9
$AUPREC
 70
     0
  9
$MENU
  1
.
  9
$ELEVATION
 40
0.0
  9
$PELEVATION
 40
0.0
  9
$THICKNESS
 40
0.0
  9
$LIMCHECK
 70
     0
  9
$BLIPMODE
 70
     0
  9
$CHAMFERA
 40
0.5
  9
$CHAMFERB
 40
0.5
  9
$SKPOLY
 70
     0
  9
$TDCREATE
 40
2456064.637453611
  9
$TDUPDATE
 40
2457324.453561319
  9
$TDINDWG
 40
0.003565081
  9
$TDUSRTIMER
 40
0.0035650116
  9
$USRTIMER
 70
     1
  9
$ANGBASE
 50
0.0
  9
$ANGDIR
 70
     0
  9
$PDMODE
 70
     2
  9
$PDSIZE
 40
0.03
  9
$PLINEWID
 40
0.0
  9
$COORDS
 70
     1
  9
$SPLFRAME
 70
     0
  9
$SPLINETYPE
 70
     6
  9
$SPLINESEGS
 70
     8
  9
$ATTDIA
 70
     1
  9
$ATTREQ
 70
     1
  9
$HANDLING
 70
     1
  9
$HANDSEED
  5
9D6
  9
$SURFTAB1
 70
     6
  9
$SURFTAB2
 70
     6
  9
$SURFTYPE
 70
     6
  9
$SURFU
 70
     6
  9
$SURFV
 70
     6
  9
$UCSNAME
  2

  9
$UCSORG
 10
0.0
 20
0.0
 30
0.0
  9
$UCSXDIR
 10
1.0
 20
0.0
 30
0.0
  9
$UCSYDIR
 10
0.0
 20
1.0
 30
0.0
  9
$PUCSNAME
  2

  9
$PUCSORG
 10
0.0
 20
0.0
 30
0.0
  9
$PUCSXDIR
 10
1.0
 20
0.0
 30
0.0
  9
$PUCSYDIR
 10
0.0
 20
1.0
 30
0.0
  9
$USERI1
 70
     0
  9
$USERI2
 70
     0
  9
$USERI3
 70
     0
  9
$USERI4
 70
     0
  9
$USERI5
 70
     0
  9
$USERR1
 40
0.0
  9
$USERR2
 40
0.0
  9
$USERR3
 40
0.0
  9
$USERR4
 40
0.0
  9
$USERR5
 40
0.0
  9
$WORLDVIEW
 70
     1
  9
$SHADEDGE
 70
     3
  9
$SHADEDIF
 70
    70
  9
$TILEMODE
 70
     1
  9
$MAXACTVP
 70
    64
  9
$PLIMCHECK
 70
     0
  9
$PEXTMIN
 10
1.0000000000000000E+020
 20
1.0000000000000000E+020
 30
1.0000000000000000E+020
  9
$PEXTMAX
 10
-1.0000000000000000E+020
 20
-1.0000000000000000E+020
 30
-1.0000000000000000E+020
  9
$PLIMMIN
 10
-20.0
 20
-7.5
  9
$PLIMMAX
 10
277.0
 20
202.5
  9
$UNITMODE
 70
     0
  9
$VISRETAIN
 70
     1
  9
$PLINEGEN
 70
     0
  9
$PSLTSCALE
 70
     1
  0
ENDSEC
  0
SECTION
  2
TABLES
  0
TABLE
  2
VPORT
 70
     1
  0
VPORT
  2
*ACTIVE
 70
     0
 10
0.0
 20
0.0
 11
1.0
 21
1.0
 12
2.6306724739897471
 22
0.0008884735287893
 13
0.0
 23
0.0
 14
0.5
 24
0.5
 15
0.5
 25
0.5
 16
0.0
 26
0.0
 36
1.0
 17
15.956854761453711
 27
14.30000023543835
 37
0.0
 40
77.956020215809787
 41
1.643026004728132
 42
50.0
 43
0.0
 44
0.0
 50
0.0
 51
0.0
 71
     0
 72
 10000
 73
     1
 74
     3
 75
     1
 76
     0
 77
     0
 78
     0
  0
ENDTAB
  0
TABLE
  2
LTYPE
 70
    17
  0
LTYPE
  2
CONTINUOUS
 70
     0
  3
Solid line
 72
    65
 73
     0
 40
0.0
  0
LTYPE
  2
DASHED
 70
     0
  3
_ _ _ _ _ _ _ _ _ _ _ _ _ _ _ _
 72
    65
 73
     2
 40
4.799999999999998
 49
2.399999999999999
 49
-2.399999999999999
  0
LTYPE
  2
CENTER
 70
     0
  3
___ _ ___ _ ___ _ ___ _ ___ _ ___ _ ___ _ ___ _
 72
    65
 73
     4
 40
22.800000000000001
 49
15.0
 49
-3.0
 49
1.8
 49
-3.0
  0
LTYPE
  2
HIDDEN
 70
     0
  3
Hidden __ __ __ __ __ __ __ __ __ __ __ __ __ _
 72
    65
 73
     2
 40
0.375
 49
0.25
 49
-0.125
  0
LTYPE
  2
PHANTOM2
 70
     0
  3
Phantom (.5x) ___ _ _ ___ _ _ ___ _ _ ___ _ _
 72
    65
 73
     6
 40
1.25
 49
0.625
 49
-0.125
 49
0.125
 49
-0.125
 49
0.125
 49
-0.125
  0
LTYPE
  2
AMCONSTR
 70
     0
  3
_______________________
 72
    65
 73
     2
 40
9999.0
 49
9999.0
 49
0.0
  0
LTYPE
  2
CENTER2
 70
     0
  3
Center (.5x) ___ _ ___ _ ___ _ ___ _ ___ _ ___
 72
    65
 73
     4
 40
1.125
 49
0.75
 49
-0.125
 49
0.125
 49
-0.125
  0
LTYPE
  2
HIDDEN2
 70
     0
  3
Hidden (.5x) _ _ _ _ _ _ _ _ _ _ _ _ _ _ _ _ _
 72
    65
 73
     2
 40
0.1875
 49
0.125
 49
-0.0625
  0
LTYPE
  2
AMZIGZAG2
 70
     0
  3
/\/-/\/-/\/-/\/-/\/-/\/
 72
    65
 73
     2
 40
0.4401
 49
0.0001
 49
-0.4400000000000003
  0
LTYPE
  2
ACANSTGB
 70
     0
  3
__ . . __ . .
 72
    65
 73
     6
 40
0.35433070866
 49
0.15748031496
 49
-0.03937007874
 49
0.03937007874
 49
-0.03937007874
 49
0.03937007874
 49
-0.03937007874
  0
LTYPE
  2
ACANSTGL
 70
     0
  3
_ _ _ _ _
 72
    65
 73
     2
 40
0.11811023622
 49
0.07874015748
 49
-0.03937007874
  0
ENDTAB
  0
TABLE
  2
LAYER
 70
     7
  0
LAYER
  2
0
 70
     0
 62
     7
  6
CONTINUOUS
  0
LAYER
  2
ACAD_LAYER_245
 70
     0
 62
     2
  6
DASHED
  0
LAYER
  2
ACAD_LAYER_240
 70
     0
 62
     4
  6
CONTINUOUS
  0
LAYER
  2
ACAD_LAYER_241
 70
     0
 62
   211
  6
CONTINUOUS
  0
LAYER
  2
ACAD_LAYER_243
 70
     0
 62
   211
  6
DASHED
  0
LAYER
  2
ACAD_LAYER_246
 70
     0
 62
     3
  6
DASHED
  0
LAYER
  2
ACAD_LAYER_250
 70
     0
 62
     3
  6
CONTINUOUS
  0
ENDTAB
  0
TABLE
  2
STYLE
 70
     7
  0
STYLE
  2
STANDARD
 70
     0
 40
0.0
 41
1.0
 50
0.0
 71
     0
 42
0.2
  3
txt
  4

  0
STYLE
  2
CK_TEXT_STYLE_0001
 70
     0
 40
2.799999999999998
 41
1.0
 50
0.0
 71
     0
 42
0.2
  3
txt
  4

  0
STYLE
  2
CK_TEXT_STYLE_0002
 70
     0
 40
4.0
 41
1.0
 50
0.0
 71
     0
 42
0.2
  3
txt
  4

  0
STYLE
  2
ACANSGDT
 70
     0
 40
0.0
 41
1.0
 50
0.0
 71
     0
 42
2.799999999999998
  3
amgdt.shx
  4

  0
ENDTAB
  0
TABLE
  2
VIEW
 70
     0
  0
ENDTAB
  0
TABLE
  2
UCS
 70
     0
  0
ENDTAB
  0
TABLE
  2
APPID
 70
    18
  0
APPID
  2
ACAD
 70
     0
  0
APPID
  2
ACADANNOTATIVE
 70
     0
  0
APPID
  2
MCAD_NO_VIS
 70
     0
  0
APPID
  2
ACAD_TEMP_GRAPHIC
 70
     0
  0
APPID
  2
AD_DRAW
 70
     0
  0
APPID
  2
ACATTRIBSERVICES
 70
     0
  0
APPID
  2
DESIGNERASSEMBLIES
 70
     0
  0
APPID
  2
ACADM_DIM_EDIT
 70
     0
  0
APPID
  2
AMDT_DM_ADJ
 70
     0
  0
APPID
  2
GENIUS_GENSCREG_15
 70
     0
  0
APPID
  2
GENIUS_GENODEF_13
 70
     0
  0
APPID
  2
GENIUS_GENOBJ-N-SDF_13
 70
     0
  0
APPID
  2
ACAD_DSTYLE_DIMBREAK
 70
     0
  0
APPID
  2
ACAD_DSTYLE_DIMJAG
 70
     0
  0
APPID
  2
ACAD_NAV_VCDISPLAY
 70
     0
  0
APPID
  2
ACAECLAYERSTANDARD
 70
     0
  0
APPID
  2
ACAD_EXEMPT_FROM_CAD_STANDARDS
 70
     0
  0
APPID
  2
ACAD_MLEADERVER
 70
     0
  0
ENDTAB
  0
TABLE
  2
DIMSTYLE
 70
     8
  0
DIMSTYLE
  2
STANDARD
 70
     0
  3

  4

  5

  6

  7

 40
1.0
 41
0.18
 42
0.0625
 43
0.38
 44
0.18
 45
0.0
 46
0.0
 47
0.0
 48
0.0
140
0.18
141
0.09
142
0.0
143
25.399999999999999
144
1.0
145
0.0
146
1.0
147
0.09
 71
     0
 72
     0
 73
     1
 74
     1
 75
     0
 76
     0
 77
     0
 78
     0
170
     0
171
     2
172
     0
173
     0
174
     0
175
     0
176
     0
177
     0
178
     0
  0
DIMSTYLE
  2
AM_ANSI
 70
     0
  3

  4
mm
  5

  6

  7

 40
1.0
 41
0.1
 42
0.05
 43
0.5
 44
0.1
 45
0.0
 46
0.0
 47
0.1
 48
0.1
140
0.12
141
0.0
142
0.0
143
25.399999999999999
144
1.0
145
0.0
146
0.71
147
0.06
 71
     0
 72
     0
 73
     1
 74
     1
 75
     0
 76
     0
 77
     0
 78
     7
170
     0
171
     2
172
     0
173
     0
174
     0
175
     0
176
   256
177
   256
178
     2
  0
DIMSTYLE
  2
AM_ANSI$3
 70
     0
  3

  4
mm
  5

  6

  7

 40
1.0
 41
0.1
 42
0.05
 43
0.5
 44
0.1
 45
0.0
 46
0.0
 47
0.1
 48
0.1
140
0.12
141
0.0
142
0.0
143
25.399999999999999
144
1.0
145
0.0
146
0.71
147
0.06
 71
     0
 72
     0
 73
     1
 74
     1
 75
     0
 76
     0
 77
     0
 78
     7
170
     0
171
     2
172
     0
173
     0
174
     0
175
     0
176
   256
177
   256
178
     2
  0
DIMSTYLE
  2
AM_ANSI$4
 70
     0
  3

  4
mm
  5

  6

  7

 40
1.0
 41
0.1
 42
0.05
 43
0.5
 44
0.1
 45
0.0
 46
0.0
 47
0.1
 48
0.1
140
0.12
141
0.0
142
0.0
143
25.399999999999999
144
1.0
145
0.0
146
0.71
147
0.06
 71
     0
 72
     0
 73
     1
 74
     1
 75
     0
 76
     0
 77
     0
 78
     7
170
     0
171
     2
172
     0
173
     0
174
     0
175
     0
176
   256
177
   256
178
     2
  0
DIMSTYLE
  2
AM_ANSI$7
 70
     0
  3

  4
mm
  5

  6

  7

 40
1.0
 41
0.1
 42
0.05
 43
0.5
 44
0.1
 45
0.0
 46
0.0
 47
0.1
 48
0.1
140
0.24
141
0.0
142
0.0
143
25.399999999999999
144
1.0
145
0.0
146
0.71
147
0.06
 71
     0
 72
     0
 73
     1
 74
     1
 75
     0
 76
     0
 77
     0
 78
     7
170
     0
171
     2
172
     0
173
     0
174
     0
175
     0
176
   256
177
   256
178
     2
  0
DIMSTYLE
  2
AM_ANSI$SF
 70
     0
  3

  4
mm
  5

  6

  7

 40
1.0
 41
0.1
 42
0.05
 43
0.5
 44
0.1
 45
0.0
 46
0.0
 47
0.1
 48
0.1
140
0.12
141
0.0
142
0.0
143
25.399999999999999
144
1.0
145
0.0
146
0.71
147
0.06
 71
     0
 72
     0
 73
     1
 74
     1
 75
     1
 76
     1
 77
     0
 78
     7
170
     0
171
     2
172
     0
173
     0
174
     0
175
     0
176
   256
177
   256
178
     2
  0
DIMSTYLE
  2
AM_ANSI$SH
 70
     0
  3

  4
mm
  5

  6

  7

 40
1.0
 41
0.1
 42
0.05
 43
0.5
 44
0.1
 45
0.0
 46
0.0
 47
0.1
 48
0.1
140
0.12
141
0.0
142
0.0
143
25.399999999999999
144
1.0
145
0.0
146
0.71
147
0.06
 71
     0
 72
     0
 73
     1
 74
     1
 75
     1
 76
     1
 77
     0
 78
     7
170
     0
171
     2
172
     0
173
     1
174
     0
175
     0
176
   256
177
   256
178
     2
  0
ENDTAB
  0
ENDSEC
  0
SECTION
  2
BLOCKS
  0
BLOCK
  8
0
  2
$MODEL_SPACE
 70
     0
 10
0.0
 20
0.0
 30
0.0
  3
$MODEL_SPACE
  1

  0
ENDBLK
  5
8D8
  8
0
  0
BLOCK
 67
     1
  8
0
  2
$PAPER_SPACE
 70
     0
 10
0.0
 20
0.0
 30
0.0
  3
$PAPER_SPACE
  1

  0
ENDBLK
  5
8D4
 67
     1
  8
0
  0
BLOCK
  8
0
 62
     4
  2
_ACMFILLEDHALF
 70
     0
 10
0.0
 20
0.0
 30
0.0
  3
_ACMFILLEDHALF
  1

  0
TRACE
  5
730
  8
0
 62
     0
 10
-0.8
 20
0.0
 30
0.0
 11
-1.0
 21
0.166666666
 31
0.0
 12
0.0
 22
0.0
 32
0.0
 13
0.0
 23
0.0
 33
0.0
  0
LINE
  5
731
  8
0
 62
     0
 10
-1.0
 20
0.0
 30
0.0
 11
-0.8
 21
0.0
 31
0.0
  0
ENDBLK
  5
72F
  8
0
 62
     4
  0
ENDSEC
  0
SECTION
  2
ENTITIES
  0
LINE
  5
56
  8
ACAD_LAYER_250
  6
CONTINUOUS
 62
     3
 10
0.0000000000000007
 20
35.0
 30
0.0
 11
2.2299999999999991
 21
35.0
 31
0.0
  0
LINE
  5
57
  8
ACAD_LAYER_250
  6
CONTINUOUS
 62
     3
 10
2.2299999999999991
 20
35.37166666666667
 30
0.0
 11
0.0000000000000007
 21
35.0
 31
0.0
  0
LINE
  5
58
  8
ACAD_LAYER_250
  6
CONTINUOUS
 62
     3
 10
2.2299999999999991
 20
34.62833333333333
 30
0.0
 11
0.0000000000000007
 21
35.0
 31
0.0
  0
LINE
  5
59
  8
ACAD_LAYER_250
  6
CONTINUOUS
 62
     3
 10
35.00000014901223
 20
35.0
 30
0.0
 11
32.770000149012212
 21
35.0
 31
0.0
  0
LINE
  5
5A
  8
ACAD_LAYER_250
  6
CONTINUOUS
 62
     3
 10
32.770000149012212
 20
34.62833333333333
 30
0.0
 11
35.00000014901223
 21
35.0
 31
0.0
  0
LINE
  5
5B
  8
ACAD_LAYER_250
  6
CONTINUOUS
 62
     3
 10
32.770000149012212
 20
35.37166666666667
 30
0.0
 11
35.00000014901223
 21
35.0
 31
0.0
  0
LINE
  5
5C
  8
ACAD_LAYER_250
  6
CONTINUOUS
 62
     3
 10
44.913709522907411
 20
22.449999999999999
 30
0.0
 11
44.913709522907411
 21
20.219999999999999
 31
0.0
  0
LINE
  5
5D
  8
ACAD_LAYER_250
  6
CONTINUOUS
 62
     3
 10
45.28537618957408
 20
20.219999999999999
 30
0.0
 11
44.913709522907411
 21
22.449999999999999
 31
0.0
  0
LINE
  5
5E
  8
ACAD_LAYER_250
  6
CONTINUOUS
 62
     3
 10
44.542042856240762
 20
20.219999999999999
 30
0.0
 11
44.913709522907411
 21
22.449999999999999
 31
0.0
  0
LINE
  5
5F
  8
ACAD_LAYER_250
  6
CONTINUOUS
 62
     3
 10
51.913709522907418
 20
23.449999999999999
 30
0.0
 11
51.913709522907418
 21
21.219999999999999
 31
0.0
  0
LINE
  5
60
  8
ACAD_LAYER_250
  6
CONTINUOUS
 62
     3
 10
52.285376189574087
 20
21.219999999999999
 30
0.0
 11
51.913709522907418
 21
23.449999999999999
 31
0.0
  0
LINE
  5
61
  8
ACAD_LAYER_250
  6
CONTINUOUS
 62
     3
 10
51.542042856240762
 20
21.219999999999999
 30
0.0
 11
51.913709522907418
 21
23.449999999999999
 31
0.0
  0
LINE
  5
62
  8
ACAD_LAYER_250
  6
CONTINUOUS
 62
     3
 10
-13.99999999999997
 20
23.499999195337288
 30
0.0
 11
-13.99999999999997
 21
21.269999195337299
 31
0.0
  0
LINE
  5
63
  8
ACAD_LAYER_250
  6
CONTINUOUS
 62
     3
 10
-13.628333333333311
 20
21.269999195337299
 30
0.0
 11
-13.99999999999997
 21
23.499999195337288
 31
0.0
  0
LINE
  5
64
  8
ACAD_LAYER_250
  6
CONTINUOUS
 62
     3
 10
-14.37166666666664
 20
21.269999195337299
 30
0.0
 11
-13.99999999999997
 21
23.499999195337288
 31
0.0
  0
LINE
  5
65
  8
ACAD_LAYER_250
  6
CONTINUOUS
 62
     3
 10
-13.99999999999998
 20
-23.499999195337288
 30
0.0
 11
-13.99999999999998
 21
-21.269999195337292
 31
0.0
  0
LINE
  5
66
  8
ACAD_LAYER_250
  6
CONTINUOUS
 62
     3
 10
-14.37166666666665
 20
-21.269999195337292
 30
0.0
 11
-13.99999999999998
 21
-23.499999195337288
 31
0.0
  0
LINE
  5
67
  8
ACAD_LAYER_250
  6
CONTINUOUS
 62
     3
 10
-13.62833333333332
 20
-21.269999195337292
 30
0.0
 11
-13.99999999999998
 21
-23.499999195337288
 31
0.0
  0
LINE
  5
68
  8
ACAD_LAYER_250
  6
CONTINUOUS
 62
     3
 10
-6.9999999999999947
 20
10.999999940395361
 30
0.0
 11
-6.9999999999999947
 21
8.769999940395353
 31
0.0
  0
LINE
  5
69
  8
ACAD_LAYER_250
  6
CONTINUOUS
 62
     3
 10
-6.6283333333333312
 20
8.769999940395353
 30
0.0
 11
-6.9999999999999947
 21
10.999999940395361
 31
0.0
  0
LINE
  5
6A
  8
ACAD_LAYER_250
  6
CONTINUOUS
 62
     3
 10
-7.3716666666666599
 20
8.769999940395353
 30
0.0
 11
-6.9999999999999947
 21
10.999999940395361
 31
0.0
  0
LINE
  5
6B
  8
ACAD_LAYER_250
  6
CONTINUOUS
 62
     3
 10
-7.0
 20
-10.99999994039535
 30
0.0
 11
-7.0
 21
-8.769999940395353
 31
0.0
  0
LINE
  5
6C
  8
ACAD_LAYER_250
  6
CONTINUOUS
 62
     3
 10
-7.3716666666666679
 20
-8.769999940395353
 30
0.0
 11
-7.0
 21
-10.99999994039535
 31
0.0
  0
LINE
  5
6D
  8
ACAD_LAYER_250
  6
CONTINUOUS
 62
     3
 10
-6.6283333333333347
 20
-8.769999940395353
 30
0.0
 11
-7.0
 21
-10.99999994039535
 31
0.0
  0
LINE
  5
6E
  8
ACAD_LAYER_250
  6
CONTINUOUS
 62
     3
 10
-13.99999999999997
 20
21.269999195337299
 30
0.0
 11
-13.99999999999998
 21
-21.269999195337292
 31
0.0
  0
LINE
  5
6F
  8
ACAD_LAYER_250
  6
CONTINUOUS
 62
     3
 10
-0.0000000000001421
 20
-23.499999195337288
 30
0.0
 11
-14.99999999999998
 21
-23.499999195337288
 31
0.0
  0
LINE
  5
70
  8
ACAD_LAYER_250
  6
CONTINUOUS
 62
     3
 10
-0.0000000000001421
 20
23.499999195337288
 30
0.0
 11
-14.99999999999997
 21
23.499999195337288
 31
0.0
  0
LINE
  5
71
  8
ACAD_LAYER_250
  6
CONTINUOUS
 62
     3
 10
-6.9999999999999947
 20
8.769999940395353
 30
0.0
 11
-7.0
 21
-8.769999940395353
 31
0.0
  0
LINE
  5
72
  8
ACAD_LAYER_250
  6
CONTINUOUS
 62
     3
 10
-0.5
 20
-10.999999940395361
 30
0.0
 11
-8.0000000000000036
 21
-10.99999994039535
 31
0.0
  0
LINE
  5
73
  8
ACAD_LAYER_250
  6
CONTINUOUS
 62
     3
 10
-0.5
 20
10.99999994039535
 30
0.0
 11
-7.9999999999999947
 21
10.999999940395361
 31
0.0
  0
LINE
  5
74
  8
ACAD_LAYER_250
  6
CONTINUOUS
 62
     3
 10
44.913709522907411
 20
20.219999999999999
 30
0.0
 11
44.913709522907411
 21
-6.4666666666666659
 31
0.0
  0
LINE
  5
75
  8
ACAD_LAYER_250
  6
CONTINUOUS
 62
     3
 10
35.498199219796362
 20
22.449999999999999
 30
0.0
 11
45.913709522907403
 21
22.449999999999999
 31
0.0
  0
LINE
  5
76
  8
ACAD_LAYER_250
  6
CONTINUOUS
 62
     3
 10
51.913709522907418
 20
21.219999999999999
 30
0.0
 11
51.913709522907418
 21
-6.4666666666666712
 31
0.0
  0
LINE
  5
77
  8
ACAD_LAYER_250
  6
CONTINUOUS
 62
     3
 10
35.50000014901223
 20
23.449999999999999
 30
0.0
 11
52.913709522907411
 21
23.449999999999999
 31
0.0
  0
LINE
  5
78
  8
ACAD_LAYER_250
  6
CONTINUOUS
 62
     3
 10
2.2299999999999991
 20
35.0
 30
0.0
 11
32.770000149012212
 21
35.0
 31
0.0
  0
LINE
  5
79
  8
ACAD_LAYER_250
  6
CONTINUOUS
 62
     3
 10
35.00000014901223
 20
24.984435096382921
 30
0.0
 11
35.00000014901223
 21
36.0
 31
0.0
  0
LINE
  5
7A
  8
ACAD_LAYER_250
  6
CONTINUOUS
 62
     3
 10
0.0
 20
23.499999195337288
 30
0.0
 11
0.0000000000000008
 21
36.0
 31
0.0
  0
TEXT
  5
7C
  8
ACAD_LAYER_250
  6
CONTINUOUS
 62
    21
 10
14.43333340783944
 20
36.0
 30
0.0
 40
2.799999999999998
  1
35
  7
CK_TEXT_STYLE_0001
  0
TEXT
  5
9F
  8
ACAD_LAYER_250
  6
CONTINUOUS
 62
    21
 10
43.913709522907411
 20
-6.133333333333324
 30
0.0
 40
2.799999999999998
  1
\U+220544.9
 50
90.0
  7
CK_TEXT_STYLE_0001
  0
TEXT
  5
A0
  8
ACAD_LAYER_250
  6
CONTINUOUS
 62
    21
 10
50.913709522907411
 20
-6.133333333333324
 30
0.0
 40
2.799999999999998
  1
\U+220546.9
 50
90.0
  7
CK_TEXT_STYLE_0001
  0
TEXT
  5
A1
  8
ACAD_LAYER_250
  6
CONTINUOUS
 62
    21
 10
-14.99999999999998
 20
-4.1999999999999931
 30
0.0
 40
2.799999999999998
  1
\U+220547
 50
90.0
  7
CK_TEXT_STYLE_0001
  0
TEXT
  5
A2
  8
ACAD_LAYER_250
  6
CONTINUOUS
 62
    21
 10
-8.0
 20
-4.1999999999999984
 30
0.0
 40
2.799999999999998
  1
\U+220522
 50
90.0
  7
CK_TEXT_STYLE_0001
  0
LINE
  5
A3
  8
ACAD_LAYER_241
 10
35.00000014901223
 20
22.467399016022512
 30
0.0
 11
35.00000014901223
 21
24.484435096382931
 31
0.0
  0
LINE
  5
A4
  8
ACAD_LAYER_246
  6
DASHED
 62
     3
 10
34.400000120512949
 20
17.46739819645865
 30
0.0
 11
34.48246240183645
 21
17.467398196428409
 31
0.0
  0
LINE
  5
A5
  8
ACAD_LAYER_241
 10
34.48246240183645
 20
17.467398196428409
 30
0.0
 11
35.00000014901223
 21
22.467399016022512
 31
0.0
  0
LINE
  5
A6
  8
ACAD_LAYER_241
 10
28.31278042867709
 20
24.967398494481639
 30
0.0
 11
26.931613529883869
 21
19.733295754293991
 31
0.0
  0
LINE
  5
A7
  8
ACAD_LAYER_241
 10
34.524374525062541
 20
24.96739849448187
 30
0.0
 11
28.31278042867709
 21
24.967398494481639
 31
0.0
  0
POLYLINE
  5
A8
  8
ACAD_LAYER_241
 66
     1
 10
0.0
 20
0.0
 30
0.0
  0
VERTEX
  5
ED
  8
ACAD_LAYER_241
 10
35.00000014901191
 20
24.484435898863001
 30
0.0
  0
VERTEX
  5
EE
  8
ACAD_LAYER_241
 10
34.991020797207561
 20
24.580336235888741
 30
0.0
  0
VERTEX
  5
EF
  8
ACAD_LAYER_241
 10
34.964399073181141
 20
24.671636560094349
 30
0.0
  0
VERTEX
  5
F0
  8
ACAD_LAYER_241
 10
34.921072827131198
 20
24.755120474709191
 30
0.0
  0
VERTEX
  5
F1
  8
ACAD_LAYER_241
 10
34.862568388773362
 20
24.827846945342639
 30
0.0
  0
VERTEX
  5
F2
  8
ACAD_LAYER_241
 10
34.790946796644292
 20
24.887253908964581
 30
0.0
  0
VERTEX
  5
F3
  8
ACAD_LAYER_241
 10
34.70873119027975
 20
24.93124853219674
 30
0.0
  0
VERTEX
  5
F4
  8
ACAD_LAYER_241
 10
34.61881792314955
 20
24.9582809392274
 30
0.0
  0
VERTEX
  5
F5
  8
ACAD_LAYER_241
 10
34.524374527730082
 20
24.967398812006941
 30
0.0
  0
SEQEND
  5
F6
  8
ACAD_LAYER_241
  0
LINE
  5
A9
  8
ACAD_LAYER_243
 10
18.999999389052871
 20
-10.999999940395361
 30
0.0
 11
0.0
 21
-10.999999940395361
 31
0.0
  0
LINE
  5
AA
  8
ACAD_LAYER_243
 10
18.999999389052078
 20
5.4999999701976749
 30
0.0
 11
21.999999880790629
 21
5.4999999701976749
 31
0.0
  0
LINE
  5
AB
  8
ACAD_LAYER_243
 10
21.999999880790629
 20
8.500000461935997
 30
0.0
 11
34.40000012051307
 21
8.500000461935997
 31
0.0
  0
LINE
  5
AC
  8
ACAD_LAYER_243
 10
18.999999389052078
 20
-5.4999999701976749
 30
0.0
 11
21.999999880790629
 21
-5.4999999701976749
 31
0.0
  0
LINE
  5
AD
  8
ACAD_LAYER_243
 10
21.999999880790629
 20
-8.500000461935997
 30
0.0
 11
34.40000012051307
 21
-8.500000461935997
 31
0.0
  0
LINE
  5
AE
  8
ACAD_LAYER_243
 10
18.999999389052309
 20
10.999999940395361
 30
0.0
 11
18.999999389052871
 21
-10.999999940395361
 31
0.0
  0
LINE
  5
AF
  8
ACAD_LAYER_243
 10
21.999999880790629
 20
8.500000461935997
 30
0.0
 11
21.999999880790629
 21
-8.500000461935997
 31
0.0
  0
LINE
  5
B0
  8
ACAD_LAYER_243
 10
18.999999389052309
 20
10.999999940395361
 30
0.0
 11
0.0
 21
10.99999994039535
 31
0.0
  0
LINE
  5
B1
  8
ACAD_LAYER_241
  6
CONTINUOUS
 62
   211
 10
34.40000012051307
 20
17.467398196458639
 30
0.0
 11
33.300000149011538
 21
19.930505428760849
 31
0.0
  0
LINE
  5
B2
  8
ACAD_LAYER_241
  6
CONTINUOUS
 62
   211
 10
30.400000046938519
 20
20.001644268631932
 30
0.0
 11
30.30442167073474
 21
20.006287842988971
 31
0.0
  0
LINE
  5
B3
  8
ACAD_LAYER_241
  6
CONTINUOUS
 62
   211
 10
26.67182777076945
 20
20.182790234684941
 30
0.0
 11
25.207157246768329
 21
20.253958180546761
 31
0.0
  0
LINE
  5
B6
  8
ACAD_LAYER_241
  6
CONTINUOUS
 62
   211
 10
13.000000268220759
 20
0.0
 30
0.0
 11
13.000000268220759
 21
-24.290298613490151
 31
0.0
  0
LINE
  5
B7
  8
ACAD_LAYER_241
  6
CONTINUOUS
 62
   211
 10
13.000000268220759
 20
0.0
 30
0.0
 11
13.000000268220759
 21
24.290298613490052
 31
0.0
  0
LINE
  5
B8
  8
ACAD_LAYER_241
  6
CONTINUOUS
 62
   211
 10
6.9999992847441179
 20
-23.499999195337288
 30
0.0
 11
6.9999992847441179
 21
0.0
 31
0.0
  0
LINE
  5
B9
  8
ACAD_LAYER_241
  6
CONTINUOUS
 62
   211
 10
10.033365339040611
 20
0.0
 30
0.0
 11
10.033365339040611
 21
-22.85353679268113
 31
0.0
  0
LINE
  5
BA
  8
ACAD_LAYER_241
  6
CONTINUOUS
 62
   211
 10
6.9999992847441179
 20
0.0
 30
0.0
 11
6.9999992847441179
 21
23.499999195337288
 31
0.0
  0
LINE
  5
BB
  8
ACAD_LAYER_241
  6
CONTINUOUS
 62
   211
 10
10.033365339040611
 20
0.0
 30
0.0
 11
10.033365339040611
 21
22.853536792681211
 31
0.0
  0
LINE
  5
BC
  8
ACAD_LAYER_241
  6
CONTINUOUS
 62
   211
 10
33.300000148934949
 20
19.93050542876405
 30
0.0
 11
31.359374182494928
 21
20.011697361709182
 31
0.0
  0
ARC
  5
BD
  8
ACAD_LAYER_241
  6
CONTINUOUS
 62
   211
 10
31.378493698356781
 20
21.167941510000212
 30
0.0
 40
1.534760238635323
 50
308.73543267290557
 51
179.9717726444876
  0
ARC
  5
BE
  8
ACAD_LAYER_241
  6
CONTINUOUS
 62
   211
 10
31.403503895300531
 20
21.165995617823061
 30
0.0
 40
1.5597725896823811
 50
179.9007459749281
 51
228.18966939698149
  0
POLYLINE
  5
BF
  8
ACAD_LAYER_241
  6
CONTINUOUS
 62
   211
 66
     1
 10
0.0
 20
0.0
 30
0.0
  0
VERTEX
  5
F7
  8
ACAD_LAYER_241
  6
CONTINUOUS
 62
   211
 10
30.400000149011561
 20
20.001643480687122
 30
0.0
  0
VERTEX
  5
F8
  8
ACAD_LAYER_241
  6
CONTINUOUS
 62
   211
 10
30.88611128204596
 20
19.992285330101701
 30
0.0
  0
VERTEX
  5
F9
  8
ACAD_LAYER_241
  6
CONTINUOUS
 62
   211
 10
31.35937418257393
 20
20.01169736170591
 30
0.0
  0
SEQEND
  5
FA
  8
ACAD_LAYER_241
  6
CONTINUOUS
 62
   211
  0
POLYLINE
  5
C0
  8
ACAD_LAYER_241
  6
CONTINUOUS
 62
   211
 66
     1
 10
0.0
 20
0.0
 30
0.0
  0
VERTEX
  5
FB
  8
ACAD_LAYER_241
  6
CONTINUOUS
 62
   211
 10
25.40527880242955
 20
24.383013767530841
 30
0.0
  0
VERTEX
  5
FC
  8
ACAD_LAYER_241
  6
CONTINUOUS
 62
   211
 10
24.467887761112571
 20
23.592173126657809
 30
0.0
  0
VERTEX
  5
FD
  8
ACAD_LAYER_241
  6
CONTINUOUS
 62
   211
 10
23.58376804518722
 20
21.65661498717315
 30
0.0
  0
SEQEND
  5
FE
  8
ACAD_LAYER_241
  6
CONTINUOUS
 62
   211
  0
LINE
  5
C1
  8
ACAD_LAYER_241
  6
CONTINUOUS
 62
   211
 10
24.683308110660189
 20
20.337473211219589
 30
0.0
 11
25.20715696613777
 21
20.253957649778432
 31
0.0
  0
POLYLINE
  5
C2
  8
ACAD_LAYER_241
  6
CONTINUOUS
 62
   211
 66
     1
 10
0.0
 20
0.0
 30
0.0
  0
VERTEX
  5
FF
  8
ACAD_LAYER_241
  6
CONTINUOUS
 62
   211
 10
26.671828052179968
 20
20.182790996934759
 30
0.0
  0
VERTEX
  5
100
  8
ACAD_LAYER_241
  6
CONTINUOUS
 62
   211
 10
26.84323470601705
 20
19.853880036881328
 30
0.0
  0
VERTEX
  5
101
  8
ACAD_LAYER_241
  6
CONTINUOUS
 62
   211
 10
27.079983366520821
 20
19.571227193251641
 30
0.0
  0
VERTEX
  5
102
  8
ACAD_LAYER_241
  6
CONTINUOUS
 62
   211
 10
27.373744707305331
 20
19.344776800191031
 30
0.0
  0
VERTEX
  5
103
  8
ACAD_LAYER_241
  6
CONTINUOUS
 62
   211
 10
27.714183573435509
 20
19.1824958689173
 30
0.0
  0
VERTEX
  5
104
  8
ACAD_LAYER_241
  6
CONTINUOUS
 62
   211
 10
28.08932259437659
 20
19.090093791153809
 30
0.0
  0
VERTEX
  5
105
  8
ACAD_LAYER_241
  6
CONTINUOUS
 62
   211
 10
28.485963573615521
 20
19.07082147046555
 30
0.0
  0
VERTEX
  5
106
  8
ACAD_LAYER_241
  6
CONTINUOUS
 62
   211
 10
28.890151829562541
 20
19.125356948489081
 30
0.0
  0
VERTEX
  5
107
  8
ACAD_LAYER_241
  6
CONTINUOUS
 62
   211
 10
29.287667151222632
 20
19.251781549971479
 30
0.0
  0
VERTEX
  5
108
  8
ACAD_LAYER_241
  6
CONTINUOUS
 62
   211
 10
29.66452409576166
 20
19.445647385886812
 30
0.0
  0
VERTEX
  5
109
  8
ACAD_LAYER_241
  6
CONTINUOUS
 62
   211
 10
30.007464026424511
 20
19.700133839725591
 30
0.0
  0
VERTEX
  5
10A
  8
ACAD_LAYER_241
  6
CONTINUOUS
 62
   211
 10
30.304421579854139
 20
20.00628753143355
 30
0.0
  0
SEQEND
  5
10B
  8
ACAD_LAYER_241
  6
CONTINUOUS
 62
   211
  0
POLYLINE
  5
C4
  8
ACAD_LAYER_241
  6
CONTINUOUS
 62
   211
 66
     1
 10
0.0
 20
0.0
 30
0.0
  0
VERTEX
  5
315
  8
ACAD_LAYER_241
  6
CONTINUOUS
 62
   211
 10
24.683308110660249
 20
20.337473211219621
 30
0.0
  0
VERTEX
  5
316
  8
ACAD_LAYER_241
  6
CONTINUOUS
 62
   211
 10
24.651720545548219
 20
20.345252824339561
 30
0.0
  0
VERTEX
  5
317
  8
ACAD_LAYER_241
  6
CONTINUOUS
 62
   211
 10
24.620461017678348
 20
20.353406386597801
 30
0.0
  0
VERTEX
  5
318
  8
ACAD_LAYER_241
  6
CONTINUOUS
 62
   211
 10
24.589538542533489
 20
20.361925758119881
 30
0.0
  0
VERTEX
  5
319
  8
ACAD_LAYER_241
  6
CONTINUOUS
 62
   211
 10
24.558962135596449
 20
20.370802799031349
 30
0.0
  0
VERTEX
  5
31A
  8
ACAD_LAYER_241
  6
CONTINUOUS
 62
   211
 10
24.528740812350101
 20
20.38002936945777
 30
0.0
  0
VERTEX
  5
31B
  8
ACAD_LAYER_241
  6
CONTINUOUS
 62
   211
 10
24.498883588277259
 20
20.38959732952468
 30
0.0
  0
VERTEX
  5
31C
  8
ACAD_LAYER_241
  6
CONTINUOUS
 62
   211
 10
24.469399478860769
 20
20.39949853935763
 30
0.0
  0
VERTEX
  5
31D
  8
ACAD_LAYER_241
  6
CONTINUOUS
 62
   211
 10
24.440297499583458
 20
20.409724859082171
 30
0.0
  0
VERTEX
  5
31E
  8
ACAD_LAYER_241
  6
CONTINUOUS
 62
   211
 10
24.41158666592818
 20
20.420268148823869
 30
0.0
  0
VERTEX
  5
31F
  8
ACAD_LAYER_241
  6
CONTINUOUS
 62
   211
 10
24.383275993377762
 20
20.431120268708241
 30
0.0
  0
VERTEX
  5
320
  8
ACAD_LAYER_241
  6
CONTINUOUS
 62
   211
 10
24.355374497415049
 20
20.442273078860861
 30
0.0
  0
VERTEX
  5
321
  8
ACAD_LAYER_241
  6
CONTINUOUS
 62
   211
 10
24.327891193522881
 20
20.453718439407279
 30
0.0
  0
VERTEX
  5
322
  8
ACAD_LAYER_241
  6
CONTINUOUS
 62
   211
 10
24.30083509718407
 20
20.465448210473038
 30
0.0
  0
VERTEX
  5
323
  8
ACAD_LAYER_241
  6
CONTINUOUS
 62
   211
 10
24.27421522388147
 20
20.477454252183691
 30
0.0
  0
VERTEX
  5
324
  8
ACAD_LAYER_241
  6
CONTINUOUS
 62
   211
 10
24.24804058909794
 20
20.48972842466479
 30
0.0
  0
VERTEX
  5
325
  8
ACAD_LAYER_241
  6
CONTINUOUS
 62
   211
 10
24.22232020831629
 20
20.50226258804188
 30
0.0
  0
VERTEX
  5
326
  8
ACAD_LAYER_241
  6
CONTINUOUS
 62
   211
 10
24.19706309701936
 20
20.515048602440519
 30
0.0
  0
VERTEX
  5
327
  8
ACAD_LAYER_241
  6
CONTINUOUS
 62
   211
 10
24.172278270690001
 20
20.52807832798624
 30
0.0
  0
VERTEX
  5
328
  8
ACAD_LAYER_241
  6
CONTINUOUS
 62
   211
 10
24.147974744811041
 20
20.541343624804611
 30
0.0
  0
VERTEX
  5
329
  8
ACAD_LAYER_241
  6
CONTINUOUS
 62
   211
 10
24.124161534865308
 20
20.55483635302118
 30
0.0
  0
VERTEX
  5
32A
  8
ACAD_LAYER_241
  6
CONTINUOUS
 62
   211
 10
24.10084765633567
 20
20.568548372761501
 30
0.0
  0
VERTEX
  5
32B
  8
ACAD_LAYER_241
  6
CONTINUOUS
 62
   211
 10
24.078042124704929
 20
20.582471544151101
 30
0.0
  0
VERTEX
  5
32C
  8
ACAD_LAYER_241
  6
CONTINUOUS
 62
   211
 10
24.055719931245442
 20
20.596612972444891
 30
0.0
  0
VERTEX
  5
32D
  8
ACAD_LAYER_241
  6
CONTINUOUS
 62
   211
 10
24.033855476268091
 20
20.610976323900449
 30
0.0
  0
VERTEX
  5
32E
  8
ACAD_LAYER_241
  6
CONTINUOUS
 62
   211
 10
24.012456888813599
 20
20.625548300147351
 30
0.0
  0
VERTEX
  5
32F
  8
ACAD_LAYER_241
  6
CONTINUOUS
 62
   211
 10
23.991532297922671
 20
20.640315602815178
 30
0.0
  0
VERTEX
  5
330
  8
ACAD_LAYER_241
  6
CONTINUOUS
 62
   211
 10
23.971089832636039
 20
20.65526493353353
 30
0.0
  0
VERTEX
  5
331
  8
ACAD_LAYER_241
  6
CONTINUOUS
 62
   211
 10
23.951137621994398
 20
20.67038299393197
 30
0.0
  0
VERTEX
  5
332
  8
ACAD_LAYER_241
  6
CONTINUOUS
 62
   211
 10
23.93168379503847
 20
20.685656485640092
 30
0.0
  0
VERTEX
  5
333
  8
ACAD_LAYER_241
  6
CONTINUOUS
 62
   211
 10
23.91273648080896
 20
20.701072110287459
 30
0.0
  0
VERTEX
  5
334
  8
ACAD_LAYER_241
  6
CONTINUOUS
 62
   211
 10
23.894303808346589
 20
20.716616569503682
 30
0.0
  0
VERTEX
  5
335
  8
ACAD_LAYER_241
  6
CONTINUOUS
 62
   211
 10
23.87639390669208
 20
20.732276564918319
 30
0.0
  0
VERTEX
  5
336
  8
ACAD_LAYER_241
  6
CONTINUOUS
 62
   211
 10
23.859014904886109
 20
20.748038798160959
 30
0.0
  0
VERTEX
  5
337
  8
ACAD_LAYER_241
  6
CONTINUOUS
 62
   211
 10
23.842158533266641
 20
20.763896935442229
 30
0.0
  0
VERTEX
  5
338
  8
ACAD_LAYER_241
  6
CONTINUOUS
 62
   211
 10
23.825807460894161
 20
20.77985207382827
 30
0.0
  0
VERTEX
  5
339
  8
ACAD_LAYER_241
  6
CONTINUOUS
 62
   211
 10
23.80995622489332
 20
20.795902061232031
 30
0.0
  0
VERTEX
  5
33A
  8
ACAD_LAYER_241
  6
CONTINUOUS
 62
   211
 10
23.794599362388752
 20
20.812044745566421
 30
0.0
  0
VERTEX
  5
33B
  8
ACAD_LAYER_241
  6
CONTINUOUS
 62
   211
 10
23.779731410505089
 20
20.828277974744399
 30
0.0
  0
VERTEX
  5
33C
  8
ACAD_LAYER_241
  6
CONTINUOUS
 62
   211
 10
23.76534690636695
 20
20.844599596678879
 30
0.0
  0
VERTEX
  5
33D
  8
ACAD_LAYER_241
  6
CONTINUOUS
 62
   211
 10
23.751440387098992
 20
20.861007459282781
 30
0.0
  0
VERTEX
  5
33E
  8
ACAD_LAYER_241
  6
CONTINUOUS
 62
   211
 10
23.738006389825841
 20
20.877499410469049
 30
0.0
  0
VERTEX
  5
33F
  8
ACAD_LAYER_241
  6
CONTINUOUS
 62
   211
 10
23.725039451672121
 20
20.894073298150609
 30
0.0
  0
VERTEX
  5
340
  8
ACAD_LAYER_241
  6
CONTINUOUS
 62
   211
 10
23.712534109762469
 20
20.9107269702404
 30
0.0
  0
VERTEX
  5
341
  8
ACAD_LAYER_241
  6
CONTINUOUS
 62
   211
 10
23.700484901221529
 20
20.92745827465134
 30
0.0
  0
VERTEX
  5
342
  8
ACAD_LAYER_241
  6
CONTINUOUS
 62
   211
 10
23.688901989809342
 20
20.944239883479959
 30
0.0
  0
VERTEX
  5
343
  8
ACAD_LAYER_241
  6
CONTINUOUS
 62
   211
 10
23.677796038243461
 20
20.96104432067942
 30
0.0
  0
VERTEX
  5
344
  8
ACAD_LAYER_241
  6
CONTINUOUS
 62
   211
 10
23.667162332084789
 20
20.97786921194761
 30
0.0
  0
VERTEX
  5
345
  8
ACAD_LAYER_241
  6
CONTINUOUS
 62
   211
 10
23.656996156894181
 20
20.994712182982418
 30
0.0
  0
VERTEX
  5
346
  8
ACAD_LAYER_241
  6
CONTINUOUS
 62
   211
 10
23.647292798232542
 20
21.011570859481729
 30
0.0
  0
VERTEX
  5
347
  8
ACAD_LAYER_241
  6
CONTINUOUS
 62
   211
 10
23.63804754166074
 20
21.028442867143418
 30
0.0
  0
VERTEX
  5
348
  8
ACAD_LAYER_241
  6
CONTINUOUS
 62
   211
 10
23.62925567273966
 20
21.04532583166538
 30
0.0
  0
VERTEX
  5
349
  8
ACAD_LAYER_241
  6
CONTINUOUS
 62
   211
 10
23.620912477030188
 20
21.06221737874548
 30
0.0
  0
VERTEX
  5
34A
  8
ACAD_LAYER_241
  6
CONTINUOUS
 62
   211
 10
23.61301324009321
 20
21.079115134081611
 30
0.0
  0
VERTEX
  5
34B
  8
ACAD_LAYER_241
  6
CONTINUOUS
 62
   211
 10
23.605553247489599
 20
21.09601672337168
 30
0.0
  0
VERTEX
  5
34C
  8
ACAD_LAYER_241
  6
CONTINUOUS
 62
   211
 10
23.598527784780249
 20
21.112919772313528
 30
0.0
  0
VERTEX
  5
34D
  8
ACAD_LAYER_241
  6
CONTINUOUS
 62
   211
 10
23.591932137526019
 20
21.129821906605081
 30
0.0
  0
VERTEX
  5
34E
  8
ACAD_LAYER_241
  6
CONTINUOUS
 62
   211
 10
23.58576159128782
 20
21.146720751944191
 30
0.0
  0
VERTEX
  5
34F
  8
ACAD_LAYER_241
  6
CONTINUOUS
 62
   211
 10
23.58001143162652
 20
21.163613934028749
 30
0.0
  0
VERTEX
  5
350
  8
ACAD_LAYER_241
  6
CONTINUOUS
 62
   211
 10
23.574676944103
 20
21.18049907855665
 30
0.0
  0
VERTEX
  5
351
  8
ACAD_LAYER_241
  6
CONTINUOUS
 62
   211
 10
23.56975341427815
 20
21.19737381122577
 30
0.0
  0
VERTEX
  5
352
  8
ACAD_LAYER_241
  6
CONTINUOUS
 62
   211
 10
23.56523612771284
 20
21.214235757733999
 30
0.0
  0
VERTEX
  5
353
  8
ACAD_LAYER_241
  6
CONTINUOUS
 62
   211
 10
23.56112036996797
 20
21.231082543779209
 30
0.0
  0
VERTEX
  5
354
  8
ACAD_LAYER_241
  6
CONTINUOUS
 62
   211
 10
23.5574014266044
 20
21.247911795059292
 30
0.0
  0
VERTEX
  5
355
  8
ACAD_LAYER_241
  6
CONTINUOUS
 62
   211
 10
23.554074583183031
 20
21.264721137272129
 30
0.0
  0
VERTEX
  5
356
  8
ACAD_LAYER_241
  6
CONTINUOUS
 62
   211
 10
23.551135125264729
 20
21.281508196115599
 30
0.0
  0
VERTEX
  5
357
  8
ACAD_LAYER_241
  6
CONTINUOUS
 62
   211
 10
23.548578338410412
 20
21.298270597287601
 30
0.0
  0
VERTEX
  5
358
  8
ACAD_LAYER_241
  6
CONTINUOUS
 62
   211
 10
23.54640352934274
 20
21.315009840632602
 30
0.0
  0
VERTEX
  5
359
  8
ACAD_LAYER_241
  6
CONTINUOUS
 62
   211
 10
23.54461087807088
 20
21.331726930306559
 30
0.0
  0
VERTEX
  5
35A
  8
ACAD_LAYER_241
  6
CONTINUOUS
 62
   211
 10
23.543196980085359
 20
21.348418748474611
 30
0.0
  0
VERTEX
  5
35B
  8
ACAD_LAYER_241
  6
CONTINUOUS
 62
   211
 10
23.542158430876729
 20
21.365082177301922
 30
0.0
  0
VERTEX
  5
35C
  8
ACAD_LAYER_241
  6
CONTINUOUS
 62
   211
 10
23.54149182593553
 20
21.381714098953569
 30
0.0
  0
VERTEX
  5
35D
  8
ACAD_LAYER_241
  6
CONTINUOUS
 62
   211
 10
23.541193760752311
 20
21.398311395594721
 30
0.0
  0
VERTEX
  5
35E
  8
ACAD_LAYER_241
  6
CONTINUOUS
 62
   211
 10
23.541260830817599
 20
21.414870949390501
 30
0.0
  0
VERTEX
  5
35F
  8
ACAD_LAYER_241
  6
CONTINUOUS
 62
   211
 10
23.541689631621932
 20
21.431389642506051
 30
0.0
  0
VERTEX
  5
360
  8
ACAD_LAYER_241
  6
CONTINUOUS
 62
   211
 10
23.542476758655891
 20
21.447864357106489
 30
0.0
  0
VERTEX
  5
361
  8
ACAD_LAYER_241
  6
CONTINUOUS
 62
   211
 10
23.543618807409981
 20
21.464291975356961
 30
0.0
  0
VERTEX
  5
362
  8
ACAD_LAYER_241
  6
CONTINUOUS
 62
   211
 10
23.545112373374739
 20
21.48066937942259
 30
0.0
  0
VERTEX
  5
363
  8
ACAD_LAYER_241
  6
CONTINUOUS
 62
   211
 10
23.546954052040729
 20
21.496993451468509
 30
0.0
  0
VERTEX
  5
364
  8
ACAD_LAYER_241
  6
CONTINUOUS
 62
   211
 10
23.54914043889849
 20
21.513261073659852
 30
0.0
  0
VERTEX
  5
365
  8
ACAD_LAYER_241
  6
CONTINUOUS
 62
   211
 10
23.55166812943855
 20
21.529469128161761
 30
0.0
  0
VERTEX
  5
366
  8
ACAD_LAYER_241
  6
CONTINUOUS
 62
   211
 10
23.554533719151461
 20
21.545614497139361
 30
0.0
  0
VERTEX
  5
367
  8
ACAD_LAYER_241
  6
CONTINUOUS
 62
   211
 10
23.557733803527771
 20
21.56169406275777
 30
0.0
  0
VERTEX
  5
368
  8
ACAD_LAYER_241
  6
CONTINUOUS
 62
   211
 10
23.561264978058009
 20
21.57770470718215
 30
0.0
  0
VERTEX
  5
369
  8
ACAD_LAYER_241
  6
CONTINUOUS
 62
   211
 10
23.565123838232719
 20
21.593643312577608
 30
0.0
  0
VERTEX
  5
36A
  8
ACAD_LAYER_241
  6
CONTINUOUS
 62
   211
 10
23.56930697954245
 20
21.609506761109291
 30
0.0
  0
VERTEX
  5
36B
  8
ACAD_LAYER_241
  6
CONTINUOUS
 62
   211
 10
23.573810997477739
 20
21.625291934942329
 30
0.0
  0
VERTEX
  5
36C
  8
ACAD_LAYER_241
  6
CONTINUOUS
 62
   211
 10
23.578632487529131
 20
21.64099571624185
 30
0.0
  0
VERTEX
  5
36D
  8
ACAD_LAYER_241
  6
CONTINUOUS
 62
   211
 10
23.58376804518716
 20
21.65661498717299
 30
0.0
  0
SEQEND
  5
36E
  8
ACAD_LAYER_241
  6
CONTINUOUS
 62
   211
  0
TEXT
  5
C7
  8
ACAD_LAYER_241
  6
CONTINUOUS
 62
    21
 10
-21.761904761904759
 20
49.0
 30
0.0
 40
4.0
  1
FM22-PLS505-35
  7
CK_TEXT_STYLE_0002
  0
LINE
  5
C8
  8
ACAD_LAYER_240
  6
CONTINUOUS
 62
     4
 10
0.0
 20
-5.2000000000000011
 30
0.0
 11
0.0
 21
-22.999999195337299
 31
0.0
  0
LINE
  5
C9
  8
ACAD_LAYER_240
  6
CONTINUOUS
 62
     4
 10
6.0
 20
5.2000000000000011
 30
0.0
 11
6.0
 21
-5.2000000000000011
 31
0.0
  0
LINE
  5
CA
  8
ACAD_LAYER_240
  6
CONTINUOUS
 62
     4
 10
0.0
 20
5.2000000000000011
 30
0.0
 11
6.0
 21
5.2000000000000002
 31
0.0
  0
LINE
  5
CB
  8
ACAD_LAYER_240
  6
CONTINUOUS
 62
     4
 10
0.0
 20
-5.2000000000000011
 30
0.0
 11
6.0
 21
-5.2000000000000011
 31
0.0
  0
LINE
  5
CC
  8
ACAD_LAYER_240
  6
CONTINUOUS
 62
     4
 10
13.803848016808191
 20
24.39999952912336
 30
0.0
 11
25.814871068633781
 21
24.39999952912331
 31
0.0
  0
LINE
  5
CD
  8
ACAD_LAYER_240
  6
CONTINUOUS
 62
     4
 10
34.40000012051307
 20
-23.299999535083771
 30
0.0
 11
34.40000012051307
 21
17.46739819645865
 31
0.0
  0
LINE
  5
CE
  8
ACAD_LAYER_240
  6
CONTINUOUS
 62
     4
 10
30.400000046938519
 20
-24.271450936794281
 30
0.0
 11
30.30442167073474
 21
-24.272918701171879
 31
0.0
  0
LINE
  5
CF
  8
ACAD_LAYER_240
  6
CONTINUOUS
 62
     4
 10
26.67182777076945
 20
-24.328658357262611
 30
0.0
 11
25.207157246768329
 21
-24.351133033633229
 31
0.0
  0
LINE
  5
D0
  8
ACAD_LAYER_240
  6
CONTINUOUS
 62
     4
 10
13.803848016807899
 20
-24.39999952912331
 30
0.0
 11
24.68787249979184
 21
-24.399999529123281
 31
0.0
  0
LINE
  5
D1
  8
ACAD_LAYER_240
  6
CONTINUOUS
 62
     4
 10
0.4999999999998579
 20
23.499999195337288
 30
0.0
 11
6.9999992847441179
 21
23.499999195337288
 31
0.0
  0
LINE
  5
D2
  8
ACAD_LAYER_240
  6
CONTINUOUS
 62
     4
 10
6.9999992847441179
 20
23.499999195337288
 30
0.0
 11
9.2331661825309936
 21
22.901624239179402
 31
0.0
  0
LINE
  5
D3
  8
ACAD_LAYER_240
  6
CONTINUOUS
 62
     4
 10
0.4999999999998579
 20
-23.499999195337288
 30
0.0
 11
6.9999992847441179
 21
-23.499999195337288
 31
0.0
  0
LINE
  5
D4
  8
ACAD_LAYER_240
  6
CONTINUOUS
 62
     4
 10
6.9999992847441179
 20
-23.499999195337288
 30
0.0
 11
9.2331661825309936
 21
-22.901624239179341
 31
0.0
  0
LINE
  5
D5
  8
ACAD_LAYER_240
  6
CONTINUOUS
 62
     4
 10
0.0
 20
22.999999195337299
 30
0.0
 11
0.0
 21
5.2000000000000011
 31
0.0
  0
LINE
  5
D6
  8
ACAD_LAYER_240
  6
CONTINUOUS
 62
     4
 10
10.750804206532139
 20
23.101425257922472
 30
0.0
 11
12.30384773999285
 21
23.998075580657261
 31
0.0
  0
LINE
  5
D7
  8
ACAD_LAYER_240
  6
CONTINUOUS
 62
     4
 10
10.750804206532139
 20
-23.1014252579225
 30
0.0
 11
12.303847739992619
 21
-23.998075580657201
 31
0.0
  0
LINE
  5
D8
  8
ACAD_LAYER_240
  6
CONTINUOUS
 62
     4
 10
28.18406991110815
 20
24.391668763324169
 30
0.0
 11
27.723420189811939
 21
24.38940436311152
 31
0.0
  0
ARC
  5
D9
  8
ACAD_LAYER_240
  6
CONTINUOUS
 62
     4
 10
13.803848016808191
 20
21.39999952912336
 30
0.0
 40
3.0
 50
90.0
 51
120.00000610465069
  0
ARC
  5
DA
  8
ACAD_LAYER_240
  6
CONTINUOUS
 62
     4
 10
13.803848016807899
 20
-21.39999952912331
 30
0.0
 40
3.0
 50
239.99999389534921
 51
270.0
  0
ARC
  5
DB
  8
ACAD_LAYER_240
  6
CONTINUOUS
 62
     4
 10
9.7508040219885572
 20
24.83347595894509
 30
0.0
 40
2.0
 50
255.00000743679021
 51
300.00000610465082
  0
ARC
  5
DC
  8
ACAD_LAYER_240
  6
CONTINUOUS
 62
     4
 10
0.4999999999998579
 20
22.999999195337299
 30
0.0
 40
0.5
 50
90.0
 51
180.0
  0
ARC
  5
DD
  8
ACAD_LAYER_240
  6
CONTINUOUS
 62
     4
 10
9.7508040219884968
 20
-24.833475958945051
 30
0.0
 40
2.0
 50
59.999993895345582
 51
104.9999925632097
  0
ARC
  5
DE
  8
ACAD_LAYER_240
  6
CONTINUOUS
 62
     4
 10
0.4999999999998579
 20
-22.999999195337299
 30
0.0
 40
0.5
 50
180.0
 51
270.0
  0
POLYLINE
  5
DF
  8
ACAD_LAYER_240
  6
CONTINUOUS
 62
     4
 66
     1
 10
0.0
 20
0.0
 30
0.0
  0
VERTEX
  5
3F9
  8
ACAD_LAYER_240
  6
CONTINUOUS
 62
     4
 10
31.35937418257361
 20
-24.395503657934729
 30
0.0
  0
VERTEX
  5
3FA
  8
ACAD_LAYER_240
  6
CONTINUOUS
 62
     4
 10
30.886111282045771
 20
-24.29891627489684
 30
0.0
  0
VERTEX
  5
3FB
  8
ACAD_LAYER_240
  6
CONTINUOUS
 62
     4
 10
30.400000149011529
 20
-24.271451319323361
 30
0.0
  0
SEQEND
  5
3FC
  8
ACAD_LAYER_240
  6
CONTINUOUS
 62
     4
  0
LINE
  5
E0
  8
ACAD_LAYER_240
  6
CONTINUOUS
 62
     4
 10
25.207156966137681
 20
-24.351133800700829
 30
0.0
 11
24.68330811066075
 21
-24.377508566704741
 31
0.0
  0
POLYLINE
  5
E1
  8
ACAD_LAYER_240
  6
CONTINUOUS
 62
     4
 66
     1
 10
0.0
 20
0.0
 30
0.0
  0
VERTEX
  5
3FD
  8
ACAD_LAYER_240
  6
CONTINUOUS
 62
     4
 10
30.304421579854228
 20
-24.272917941227451
 30
0.0
  0
VERTEX
  5
3FE
  8
ACAD_LAYER_240
  6
CONTINUOUS
 62
     4
 10
30.007464026424561
 20
-24.17623258294552
 30
0.0
  0
VERTEX
  5
3FF
  8
ACAD_LAYER_240
  6
CONTINUOUS
 62
     4
 10
29.66452409576166
 20
-24.09586407969465
 30
0.0
  0
VERTEX
  5
400
  8
ACAD_LAYER_240
  6
CONTINUOUS
 62
     4
 10
29.287667151222571
 20
-24.034639968041681
 30
0.0
  0
VERTEX
  5
401
  8
ACAD_LAYER_240
  6
CONTINUOUS
 62
     4
 10
28.89015182956242
 20
-23.994714243737061
 30
0.0
  0
VERTEX
  5
402
  8
ACAD_LAYER_240
  6
CONTINUOUS
 62
     4
 10
28.48596357361534
 20
-23.977491579517778
 30
0.0
  0
VERTEX
  5
403
  8
ACAD_LAYER_240
  6
CONTINUOUS
 62
     4
 10
28.089322594376348
 20
-23.98357790570341
 30
0.0
  0
VERTEX
  5
404
  8
ACAD_LAYER_240
  6
CONTINUOUS
 62
     4
 10
27.714183573435221
 20
-24.01275909226602
 30
0.0
  0
VERTEX
  5
405
  8
ACAD_LAYER_240
  6
CONTINUOUS
 62
     4
 10
27.373744707305001
 20
-24.064008482384398
 30
0.0
  0
VERTEX
  5
406
  8
ACAD_LAYER_240
  6
CONTINUOUS
 62
     4
 10
27.079983366520469
 20
-24.135523012436298
 30
0.0
  0
VERTEX
  5
407
  8
ACAD_LAYER_240
  6
CONTINUOUS
 62
     4
 10
26.84323470601668
 20
-24.224786647649331
 30
0.0
  0
VERTEX
  5
408
  8
ACAD_LAYER_240
  6
CONTINUOUS
 62
     4
 10
26.671828052179599
 20
-24.328658901608481
 30
0.0
  0
SEQEND
  5
409
  8
ACAD_LAYER_240
  6
CONTINUOUS
 62
     4
  0
POLYLINE
  5
E2
  8
ACAD_LAYER_240
  6
CONTINUOUS
 62
     4
 66
     1
 10
0.0
 20
0.0
 30
0.0
  0
VERTEX
  5
40A
  8
ACAD_LAYER_240
  6
CONTINUOUS
 62
     4
 10
25.405278800310409
 20
24.383013767082051
 30
0.0
  0
VERTEX
  5
40B
  8
ACAD_LAYER_240
  6
CONTINUOUS
 62
     4
 10
25.410731182777329
 20
24.384099572551531
 30
0.0
  0
VERTEX
  5
40C
  8
ACAD_LAYER_240
  6
CONTINUOUS
 62
     4
 10
25.416640938297391
 20
24.385145676827172
 30
0.0
  0
VERTEX
  5
40D
  8
ACAD_LAYER_240
  6
CONTINUOUS
 62
     4
 10
25.423004983832591
 20
24.386152454812041
 30
0.0
  0
VERTEX
  5
40E
  8
ACAD_LAYER_240
  6
CONTINUOUS
 62
     4
 10
25.429820236344948
 20
24.387120281409249
 30
0.0
  0
VERTEX
  5
40F
  8
ACAD_LAYER_240
  6
CONTINUOUS
 62
     4
 10
25.437083612796449
 20
24.388049531521879
 30
0.0
  0
VERTEX
  5
410
  8
ACAD_LAYER_240
  6
CONTINUOUS
 62
     4
 10
25.44479203014912
 20
24.388940580052981
 30
0.0
  0
VERTEX
  5
411
  8
ACAD_LAYER_240
  6
CONTINUOUS
 62
     4
 10
25.452942405364951
 20
24.389793801905679
 30
0.0
  0
VERTEX
  5
412
  8
ACAD_LAYER_240
  6
CONTINUOUS
 62
     4
 10
25.461531655405949
 20
24.390609571983038
 30
0.0
  0
VERTEX
  5
413
  8
ACAD_LAYER_240
  6
CONTINUOUS
 62
     4
 10
25.470556697234141
 20
24.39138826518818
 30
0.0
  0
VERTEX
  5
414
  8
ACAD_LAYER_240
  6
CONTINUOUS
 62
     4
 10
25.480014447811499
 20
24.392130256424139
 30
0.0
  0
VERTEX
  5
415
  8
ACAD_LAYER_240
  6
CONTINUOUS
 62
     4
 10
25.489901824100059
 20
24.392835920594031
 30
0.0
  0
VERTEX
  5
416
  8
ACAD_LAYER_240
  6
CONTINUOUS
 62
     4
 10
25.500215743061801
 20
24.393505632600959
 30
0.0
  0
VERTEX
  5
417
  8
ACAD_LAYER_240
  6
CONTINUOUS
 62
     4
 10
25.510953121658751
 20
24.394139767347951
 30
0.0
  0
VERTEX
  5
418
  8
ACAD_LAYER_240
  6
CONTINUOUS
 62
     4
 10
25.52211087685291
 20
24.394738699738149
 30
0.0
  0
VERTEX
  5
419
  8
ACAD_LAYER_240
  6
CONTINUOUS
 62
     4
 10
25.533685925606282
 20
24.395302804674621
 30
0.0
  0
VERTEX
  5
41A
  8
ACAD_LAYER_240
  6
CONTINUOUS
 62
     4
 10
25.54567518488086
 20
24.39583245706045
 30
0.0
  0
VERTEX
  5
41B
  8
ACAD_LAYER_240
  6
CONTINUOUS
 62
     4
 10
25.558075571638671
 20
24.396328031798721
 30
0.0
  0
VERTEX
  5
41C
  8
ACAD_LAYER_240
  6
CONTINUOUS
 62
     4
 10
25.570884002841709
 20
24.396789903792531
 30
0.0
  0
VERTEX
  5
41D
  8
ACAD_LAYER_240
  6
CONTINUOUS
 62
     4
 10
25.58409739545198
 20
24.397218447944951
 30
0.0
  0
VERTEX
  5
41E
  8
ACAD_LAYER_240
  6
CONTINUOUS
 62
     4
 10
25.597712666431502
 20
24.39761403915908
 30
0.0
  0
VERTEX
  5
41F
  8
ACAD_LAYER_240
  6
CONTINUOUS
 62
     4
 10
25.61172673274227
 20
24.397977052337989
 30
0.0
  0
VERTEX
  5
420
  8
ACAD_LAYER_240
  6
CONTINUOUS
 62
     4
 10
25.626136511346271
 20
24.39830786238478
 30
0.0
  0
VERTEX
  5
421
  8
ACAD_LAYER_240
  6
CONTINUOUS
 62
     4
 10
25.640938919205539
 20
24.398606844202529
 30
0.0
  0
VERTEX
  5
422
  8
ACAD_LAYER_240
  6
CONTINUOUS
 62
     4
 10
25.656130873282081
 20
24.39887437269433
 30
0.0
  0
VERTEX
  5
423
  8
ACAD_LAYER_240
  6
CONTINUOUS
 62
     4
 10
25.67170929053788
 20
24.399110822763269
 30
0.0
  0
VERTEX
  5
424
  8
ACAD_LAYER_240
  6
CONTINUOUS
 62
     4
 10
25.687671087934959
 20
24.399316569312411
 30
0.0
  0
VERTEX
  5
425
  8
ACAD_LAYER_240
  6
CONTINUOUS
 62
     4
 10
25.704035957252259
 20
24.399492917814559
 30
0.0
  0
VERTEX
  5
426
  8
ACAD_LAYER_240
  6
CONTINUOUS
 62
     4
 10
25.720818592920391
 20
24.399641453694731
 30
0.0
  0
VERTEX
  5
427
  8
ACAD_LAYER_240
  6
CONTINUOUS
 62
     4
 10
25.73800841587888
 20
24.399762971784469
 30
0.0
  0
VERTEX
  5
428
  8
ACAD_LAYER_240
  6
CONTINUOUS
 62
     4
 10
25.755594847067211
 20
24.39985826691532
 30
0.0
  0
VERTEX
  5
429
  8
ACAD_LAYER_240
  6
CONTINUOUS
 62
     4
 10
25.773567307424919
 20
24.399928133918792
 30
0.0
  0
VERTEX
  5
42A
  8
ACAD_LAYER_240
  6
CONTINUOUS
 62
     4
 10
25.791915217891511
 20
24.39997336762643
 30
0.0
  0
VERTEX
  5
42B
  8
ACAD_LAYER_240
  6
CONTINUOUS
 62
     4
 10
25.810627999406481
 20
24.399994762869738
 30
0.0
  0
VERTEX
  5
42C
  8
ACAD_LAYER_240
  6
CONTINUOUS
 62
     4
 10
25.829695072909349
 20
24.399993114480282
 30
0.0
  0
VERTEX
  5
42D
  8
ACAD_LAYER_240
  6
CONTINUOUS
 62
     4
 10
25.84910585933963
 20
24.399969217289559
 30
0.0
  0
VERTEX
  5
42E
  8
ACAD_LAYER_240
  6
CONTINUOUS
 62
     4
 10
25.868849779636829
 20
24.399923866129122
 30
0.0
  0
VERTEX
  5
42F
  8
ACAD_LAYER_240
  6
CONTINUOUS
 62
     4
 10
25.888916254740451
 20
24.399857855830501
 30
0.0
  0
VERTEX
  5
430
  8
ACAD_LAYER_240
  6
CONTINUOUS
 62
     4
 10
25.909294705590021
 20
24.3997719812252
 30
0.0
  0
VERTEX
  5
431
  8
ACAD_LAYER_240
  6
CONTINUOUS
 62
     4
 10
25.929974553125049
 20
24.399667037144781
 30
0.0
  0
VERTEX
  5
432
  8
ACAD_LAYER_240
  6
CONTINUOUS
 62
     4
 10
25.9509511948621
 20
24.399544135468101
 30
0.0
  0
VERTEX
  5
433
  8
ACAD_LAYER_240
  6
CONTINUOUS
 62
     4
 10
25.97222725995826
 20
24.399404405187351
 30
0.0
  0
VERTEX
  5
434
  8
ACAD_LAYER_240
  6
CONTINUOUS
 62
     4
 10
25.993803016813839
 20
24.399248666804031
 30
0.0
  0
VERTEX
  5
435
  8
ACAD_LAYER_240
  6
CONTINUOUS
 62
     4
 10
26.015678733829091
 20
24.399077740819649
 30
0.0
  0
VERTEX
  5
436
  8
ACAD_LAYER_240
  6
CONTINUOUS
 62
     4
 10
26.037854679404312
 20
24.39889244773569
 30
0.0
  0
VERTEX
  5
437
  8
ACAD_LAYER_240
  6
CONTINUOUS
 62
     4
 10
26.06033112193979
 20
24.398693608053669
 30
0.0
  0
VERTEX
  5
438
  8
ACAD_LAYER_240
  6
CONTINUOUS
 62
     4
 10
26.083108329835792
 20
24.39848204227507
 30
0.0
  0
VERTEX
  5
439
  8
ACAD_LAYER_240
  6
CONTINUOUS
 62
     4
 10
26.106186571492621
 20
24.398258570901401
 30
0.0
  0
VERTEX
  5
43A
  8
ACAD_LAYER_240
  6
CONTINUOUS
 62
     4
 10
26.129566115310539
 20
24.398024014434149
 30
0.0
  0
VERTEX
  5
43B
  8
ACAD_LAYER_240
  6
CONTINUOUS
 62
     4
 10
26.15324722968985
 20
24.397779193374841
 30
0.0
  0
VERTEX
  5
43C
  8
ACAD_LAYER_240
  6
CONTINUOUS
 62
     4
 10
26.177230183030812
 20
24.397524928224939
 30
0.0
  0
VERTEX
  5
43D
  8
ACAD_LAYER_240
  6
CONTINUOUS
 62
     4
 10
26.201515243733741
 20
24.39726203948597
 30
0.0
  0
VERTEX
  5
43E
  8
ACAD_LAYER_240
  6
CONTINUOUS
 62
     4
 10
26.226102680198888
 20
24.396991347659419
 30
0.0
  0
VERTEX
  5
43F
  8
ACAD_LAYER_240
  6
CONTINUOUS
 62
     4
 10
26.250987464171139
 20
24.396713756605301
 30
0.0
  0
VERTEX
  5
440
  8
ACAD_LAYER_240
  6
CONTINUOUS
 62
     4
 10
26.27615581302878
 20
24.396430205324901
 30
0.0
  0
VERTEX
  5
441
  8
ACAD_LAYER_240
  6
CONTINUOUS
 62
     4
 10
26.301594863622189
 20
24.396141567031702
 30
0.0
  0
VERTEX
  5
442
  8
ACAD_LAYER_240
  6
CONTINUOUS
 62
     4
 10
26.32729175280177
 20
24.39584871493911
 30
0.0
  0
VERTEX
  5
443
  8
ACAD_LAYER_240
  6
CONTINUOUS
 62
     4
 10
26.353233617417889
 20
24.395552522260608
 30
0.0
  0
VERTEX
  5
444
  8
ACAD_LAYER_240
  6
CONTINUOUS
 62
     4
 10
26.37940759432097
 20
24.395253862209639
 30
0.0
  0
VERTEX
  5
445
  8
ACAD_LAYER_240
  6
CONTINUOUS
 62
     4
 10
26.405800820361371
 20
24.394953607999671
 30
0.0
  0
VERTEX
  5
446
  8
ACAD_LAYER_240
  6
CONTINUOUS
 62
     4
 10
26.4324004323895
 20
24.394652632844132
 30
0.0
  0
VERTEX
  5
447
  8
ACAD_LAYER_240
  6
CONTINUOUS
 62
     4
 10
26.459193567255738
 20
24.39435180995649
 30
0.0
  0
VERTEX
  5
448
  8
ACAD_LAYER_240
  6
CONTINUOUS
 62
     4
 10
26.48616736181048
 20
24.394052012550201
 30
0.0
  0
VERTEX
  5
449
  8
ACAD_LAYER_240
  6
CONTINUOUS
 62
     4
 10
26.513308952904119
 20
24.3937541138387
 30
0.0
  0
VERTEX
  5
44A
  8
ACAD_LAYER_240
  6
CONTINUOUS
 62
     4
 10
26.540605477387039
 20
24.393458987035469
 30
0.0
  0
VERTEX
  5
44B
  8
ACAD_LAYER_240
  6
CONTINUOUS
 62
     4
 10
26.56804407210965
 20
24.393167505353919
 30
0.0
  0
VERTEX
  5
44C
  8
ACAD_LAYER_240
  6
CONTINUOUS
 62
     4
 10
26.595634683648171
 20
24.392880211331882
 30
0.0
  0
VERTEX
  5
44D
  8
ACAD_LAYER_240
  6
CONTINUOUS
 62
     4
 10
26.623396239271351
 20
24.39259742144365
 30
0.0
  0
VERTEX
  5
44E
  8
ACAD_LAYER_240
  6
CONTINUOUS
 62
     4
 10
26.65132934686822
 20
24.39231966980736
 30
0.0
  0
VERTEX
  5
44F
  8
ACAD_LAYER_240
  6
CONTINUOUS
 62
     4
 10
26.67943461432785
 20
24.39204749054117
 30
0.0
  0
VERTEX
  5
450
  8
ACAD_LAYER_240
  6
CONTINUOUS
 62
     4
 10
26.70771264953925
 20
24.391781417763241
 30
0.0
  0
VERTEX
  5
451
  8
ACAD_LAYER_240
  6
CONTINUOUS
 62
     4
 10
26.73616406039152
 20
24.391521985591719
 30
0.0
  0
VERTEX
  5
452
  8
ACAD_LAYER_240
  6
CONTINUOUS
 62
     4
 10
26.76478945477368
 20
24.39126972814476
 30
0.0
  0
VERTEX
  5
453
  8
ACAD_LAYER_240
  6
CONTINUOUS
 62
     4
 10
26.793589440574809
 20
24.39102517954052
 30
0.0
  0
VERTEX
  5
454
  8
ACAD_LAYER_240
  6
CONTINUOUS
 62
     4
 10
26.822564625683931
 20
24.390788873897151
 30
0.0
  0
VERTEX
  5
455
  8
ACAD_LAYER_240
  6
CONTINUOUS
 62
     4
 10
26.851715617990131
 20
24.390561345332809
 30
0.0
  0
VERTEX
  5
456
  8
ACAD_LAYER_240
  6
CONTINUOUS
 62
     4
 10
26.881043025382439
 20
24.39034312796565
 30
0.0
  0
VERTEX
  5
457
  8
ACAD_LAYER_240
  6
CONTINUOUS
 62
     4
 10
26.910547455749899
 20
24.39013475591382
 30
0.0
  0
VERTEX
  5
458
  8
ACAD_LAYER_240
  6
CONTINUOUS
 62
     4
 10
26.940229516981589
 20
24.389936763295491
 30
0.0
  0
VERTEX
  5
459
  8
ACAD_LAYER_240
  6
CONTINUOUS
 62
     4
 10
26.970045175656089
 20
24.389750656807362
 30
0.0
  0
VERTEX
  5
45A
  8
ACAD_LAYER_240
  6
CONTINUOUS
 62
     4
 10
26.999945024323381
 20
24.389577603499411
 30
0.0
  0
VERTEX
  5
45B
  8
ACAD_LAYER_240
  6
CONTINUOUS
 62
     4
 10
27.029921609829412
 20
24.389417628019711
 30
0.0
  0
VERTEX
  5
45C
  8
ACAD_LAYER_240
  6
CONTINUOUS
 62
     4
 10
27.059967479020251
 20
24.389270755016309
 30
0.0
  0
VERTEX
  5
45D
  8
ACAD_LAYER_240
  6
CONTINUOUS
 62
     4
 10
27.090075178741909
 20
24.389137009137251
 30
0.0
  0
VERTEX
  5
45E
  8
ACAD_LAYER_240
  6
CONTINUOUS
 62
     4
 10
27.12023725584039
 20
24.389016415030621
 30
0.0
  0
VERTEX
  5
45F
  8
ACAD_LAYER_240
  6
CONTINUOUS
 62
     4
 10
27.150446257161711
 20
24.388908997344451
 30
0.0
  0
VERTEX
  5
460
  8
ACAD_LAYER_240
  6
CONTINUOUS
 62
     4
 10
27.180694729551909
 20
24.388814780726801
 30
0.0
  0
VERTEX
  5
461
  8
ACAD_LAYER_240
  6
CONTINUOUS
 62
     4
 10
27.210975219856991
 20
24.388733789825739
 30
0.0
  0
VERTEX
  5
462
  8
ACAD_LAYER_240
  6
CONTINUOUS
 62
     4
 10
27.241280274922978
 20
24.388666049289331
 30
0.0
  0
VERTEX
  5
463
  8
ACAD_LAYER_240
  6
CONTINUOUS
 62
     4
 10
27.271602441595881
 20
24.388611583765591
 30
0.0
  0
VERTEX
  5
464
  8
ACAD_LAYER_240
  6
CONTINUOUS
 62
     4
 10
27.30193426672172
 20
24.38857041790261
 30
0.0
  0
VERTEX
  5
465
  8
ACAD_LAYER_240
  6
CONTINUOUS
 62
     4
 10
27.33226829714652
 20
24.388542576348438
 30
0.0
  0
VERTEX
  5
466
  8
ACAD_LAYER_240
  6
CONTINUOUS
 62
     4
 10
27.362597079716291
 20
24.38852808375113
 30
0.0
  0
VERTEX
  5
467
  8
ACAD_LAYER_240
  6
CONTINUOUS
 62
     4
 10
27.392913161277061
 20
24.38852696475875
 30
0.0
  0
VERTEX
  5
468
  8
ACAD_LAYER_240
  6
CONTINUOUS
 62
     4
 10
27.423209088674831
 20
24.388539244019341
 30
0.0
  0
VERTEX
  5
469
  8
ACAD_LAYER_240
  6
CONTINUOUS
 62
     4
 10
27.453477408755639
 20
24.388564946180971
 30
0.0
  0
VERTEX
  5
46A
  8
ACAD_LAYER_240
  6
CONTINUOUS
 62
     4
 10
27.483710668365489
 20
24.38860409589169
 30
0.0
  0
VERTEX
  5
46B
  8
ACAD_LAYER_240
  6
CONTINUOUS
 62
     4
 10
27.513901414350411
 20
24.388656717799559
 30
0.0
  0
VERTEX
  5
46C
  8
ACAD_LAYER_240
  6
CONTINUOUS
 62
     4
 10
27.544042193556411
 20
24.388722836552631
 30
0.0
  0
VERTEX
  5
46D
  8
ACAD_LAYER_240
  6
CONTINUOUS
 62
     4
 10
27.574125552829521
 20
24.388802476798961
 30
0.0
  0
VERTEX
  5
46E
  8
ACAD_LAYER_240
  6
CONTINUOUS
 62
     4
 10
27.604144039015729
 20
24.388895663186609
 30
0.0
  0
VERTEX
  5
46F
  8
ACAD_LAYER_240
  6
CONTINUOUS
 62
     4
 10
27.63409019896109
 20
24.389002420363632
 30
0.0
  0
VERTEX
  5
470
  8
ACAD_LAYER_240
  6
CONTINUOUS
 62
     4
 10
27.663956579511609
 20
24.38912277297808
 30
0.0
  0
VERTEX
  5
471
  8
ACAD_LAYER_240
  6
CONTINUOUS
 62
     4
 10
27.693735727513289
 20
24.389256745678029
 30
0.0
  0
VERTEX
  5
472
  8
ACAD_LAYER_240
  6
CONTINUOUS
 62
     4
 10
27.723420189812181
 20
24.38940436311151
 30
0.0
  0
SEQEND
  5
473
  8
ACAD_LAYER_240
  6
CONTINUOUS
 62
     4
  0
POLYLINE
  5
E3
  8
ACAD_LAYER_240
  6
CONTINUOUS
 62
     4
 66
     1
 10
0.0
 20
0.0
 30
0.0
  0
VERTEX
  5
474
  8
ACAD_LAYER_240
  6
CONTINUOUS
 62
     4
 10
31.35937429033206
 20
-24.395503103733049
 30
0.0
  0
VERTEX
  5
475
  8
ACAD_LAYER_240
  6
CONTINUOUS
 62
     4
 10
31.369686195565041
 20
-24.395792002391211
 30
0.0
  0
VERTEX
  5
476
  8
ACAD_LAYER_240
  6
CONTINUOUS
 62
     4
 10
31.37998921201234
 20
-24.396079675177528
 30
0.0
  0
VERTEX
  5
477
  8
ACAD_LAYER_240
  6
CONTINUOUS
 62
     4
 10
31.390274450888231
 20
-24.39636489622022
 30
0.0
  0
VERTEX
  5
478
  8
ACAD_LAYER_240
  6
CONTINUOUS
 62
     4
 10
31.40053302340705
 20
-24.39664643964743
 30
0.0
  0
VERTEX
  5
479
  8
ACAD_LAYER_240
  6
CONTINUOUS
 62
     4
 10
31.410756040783081
 20
-24.396923079587349
 30
0.0
  0
VERTEX
  5
47A
  8
ACAD_LAYER_240
  6
CONTINUOUS
 62
     4
 10
31.420934614230632
 20
-24.397193590168161
 30
0.0
  0
VERTEX
  5
47B
  8
ACAD_LAYER_240
  6
CONTINUOUS
 62
     4
 10
31.431059854964001
 20
-24.397456745518031
 30
0.0
  0
VERTEX
  5
47C
  8
ACAD_LAYER_240
  6
CONTINUOUS
 62
     4
 10
31.441122874197511
 20
-24.39771131976514
 30
0.0
  0
VERTEX
  5
47D
  8
ACAD_LAYER_240
  6
CONTINUOUS
 62
     4
 10
31.451114783145449
 20
-24.39795608703766
 30
0.0
  0
VERTEX
  5
47E
  8
ACAD_LAYER_240
  6
CONTINUOUS
 62
     4
 10
31.461026693022131
 20
-24.398189821463781
 30
0.0
  0
VERTEX
  5
47F
  8
ACAD_LAYER_240
  6
CONTINUOUS
 62
     4
 10
31.47084971504184
 20
-24.39841129717168
 30
0.0
  0
VERTEX
  5
480
  8
ACAD_LAYER_240
  6
CONTINUOUS
 62
     4
 10
31.48057496041891
 20
-24.39861928828952
 30
0.0
  0
VERTEX
  5
481
  8
ACAD_LAYER_240
  6
CONTINUOUS
 62
     4
 10
31.490193540367631
 20
-24.39881256894547
 30
0.0
  0
VERTEX
  5
482
  8
ACAD_LAYER_240
  6
CONTINUOUS
 62
     4
 10
31.499696566102291
 20
-24.39898991326773
 30
0.0
  0
VERTEX
  5
483
  8
ACAD_LAYER_240
  6
CONTINUOUS
 62
     4
 10
31.509075148837219
 20
-24.399150095384471
 30
0.0
  0
VERTEX
  5
484
  8
ACAD_LAYER_240
  6
CONTINUOUS
 62
     4
 10
31.51832039978671
 20
-24.399291889423871
 30
0.0
  0
VERTEX
  5
485
  8
ACAD_LAYER_240
  6
CONTINUOUS
 62
     4
 10
31.527423430165079
 20
-24.399414069514101
 30
0.0
  0
VERTEX
  5
486
  8
ACAD_LAYER_240
  6
CONTINUOUS
 62
     4
 10
31.536375351186599
 20
-24.399515409783358
 30
0.0
  0
VERTEX
  5
487
  8
ACAD_LAYER_240
  6
CONTINUOUS
 62
     4
 10
31.545167274065602
 20
-24.399594684359769
 30
0.0
  0
VERTEX
  5
488
  8
ACAD_LAYER_240
  6
CONTINUOUS
 62
     4
 10
31.553790310016389
 20
-24.399650667371571
 30
0.0
  0
VERTEX
  5
489
  8
ACAD_LAYER_240
  6
CONTINUOUS
 62
     4
 10
31.56223557025325
 20
-24.3996821329469
 30
0.0
  0
VERTEX
  5
48A
  8
ACAD_LAYER_240
  6
CONTINUOUS
 62
     4
 10
31.57049416599051
 20
-24.399687855213951
 30
0.0
  0
VERTEX
  5
48B
  8
ACAD_LAYER_240
  6
CONTINUOUS
 62
     4
 10
31.578557208442451
 20
-24.399666608300901
 30
0.0
  0
VERTEX
  5
48C
  8
ACAD_LAYER_240
  6
CONTINUOUS
 62
     4
 10
31.586416373459709
 20
-24.399617244206141
 30
0.0
  0
VERTEX
  5
48D
  8
ACAD_LAYER_240
  6
CONTINUOUS
 62
     4
 10
31.594078701820919
 20
-24.399540733938821
 30
0.0
  0
VERTEX
  5
48E
  8
ACAD_LAYER_240
  6
CONTINUOUS
 62
     4
 10
31.601568049591041
 20
-24.39944036754089
 30
0.0
  0
VERTEX
  5
48F
  8
ACAD_LAYER_240
  6
CONTINUOUS
 62
     4
 10
31.608909128283109
 20
-24.39931955303102
 30
0.0
  0
VERTEX
  5
490
  8
ACAD_LAYER_240
  6
CONTINUOUS
 62
     4
 10
31.616126649410141
 20
-24.39918169842786
 30
0.0
  0
VERTEX
  5
491
  8
ACAD_LAYER_240
  6
CONTINUOUS
 62
     4
 10
31.623245324485129
 20
-24.399030211750041
 30
0.0
  0
VERTEX
  5
492
  8
ACAD_LAYER_240
  6
CONTINUOUS
 62
     4
 10
31.630289865021091
 20
-24.39886850101627
 30
0.0
  0
VERTEX
  5
493
  8
ACAD_LAYER_240
  6
CONTINUOUS
 62
     4
 10
31.637284982531039
 20
-24.398699974245169
 30
0.0
  0
VERTEX
  5
494
  8
ACAD_LAYER_240
  6
CONTINUOUS
 62
     4
 10
31.64425538852797
 20
-24.39852803945541
 30
0.0
  0
SEQEND
  5
495
  8
ACAD_LAYER_240
  6
CONTINUOUS
 62
     4
  0
POLYLINE
  5
E4
  8
ACAD_LAYER_240
  6
CONTINUOUS
 62
     4
 66
     1
 10
0.0
 20
0.0
 30
0.0
 70
     8
  0
VERTEX
  5
496
  8
ACAD_LAYER_240
  6
CONTINUOUS
 62
     4
 10
31.64425538852797
 20
-24.39999952912331
 30
0.0
 70
    32
  0
VERTEX
  5
497
  8
ACAD_LAYER_240
  6
CONTINUOUS
 62
     4
 10
31.85122348077115
 20
-24.39999952912331
 30
0.0
 70
    32
  0
VERTEX
  5
498
  8
ACAD_LAYER_240
  6
CONTINUOUS
 62
     4
 10
32.058191573014341
 20
-24.39999952912331
 30
0.0
 70
    32
  0
VERTEX
  5
499
  8
ACAD_LAYER_240
  6
CONTINUOUS
 62
     4
 10
32.265159665257528
 20
-24.39999952912331
 30
0.0
 70
    32
  0
VERTEX
  5
49A
  8
ACAD_LAYER_240
  6
CONTINUOUS
 62
     4
 10
32.472127757500722
 20
-24.39999952912331
 30
0.0
 70
    32
  0
VERTEX
  5
49B
  8
ACAD_LAYER_240
  6
CONTINUOUS
 62
     4
 10
32.679095849743902
 20
-24.39999952912331
 30
0.0
 70
    32
  0
VERTEX
  5
49C
  8
ACAD_LAYER_240
  6
CONTINUOUS
 62
     4
 10
32.886063941987089
 20
-24.39999952912331
 30
0.0
 70
    32
  0
VERTEX
  5
49D
  8
ACAD_LAYER_240
  6
CONTINUOUS
 62
     4
 10
33.093032034230284
 20
-24.39999952912331
 30
0.0
 70
    32
  0
VERTEX
  5
49E
  8
ACAD_LAYER_240
  6
CONTINUOUS
 62
     4
 10
33.300000126473464
 20
-24.39999952912331
 30
0.0
 70
    32
  0
SEQEND
  5
49F
  8
ACAD_LAYER_240
  6
CONTINUOUS
 62
     4
  0
POLYLINE
  5
E5
  8
ACAD_LAYER_240
  6
CONTINUOUS
 62
     4
 66
     1
 10
0.0
 20
0.0
 30
0.0
 70
     8
  0
VERTEX
  5
4A0
  8
ACAD_LAYER_240
  6
CONTINUOUS
 62
     4
 10
33.300000126473464
 20
-24.39999952912331
 30
0.0
 70
    32
  0
VERTEX
  5
4A1
  8
ACAD_LAYER_240
  6
CONTINUOUS
 62
     4
 10
33.437500125728413
 20
-24.262499529868361
 30
0.0
 70
    32
  0
VERTEX
  5
4A2
  8
ACAD_LAYER_240
  6
CONTINUOUS
 62
     4
 10
33.575000124983362
 20
-24.124999530613412
 30
0.0
 70
    32
  0
VERTEX
  5
4A3
  8
ACAD_LAYER_240
  6
CONTINUOUS
 62
     4
 10
33.712500124238311
 20
-23.98749953135848
 30
0.0
 70
    32
  0
VERTEX
  5
4A4
  8
ACAD_LAYER_240
  6
CONTINUOUS
 62
     4
 10
33.85000012349326
 20
-23.849999532103531
 30
0.0
 70
    32
  0
VERTEX
  5
4A5
  8
ACAD_LAYER_240
  6
CONTINUOUS
 62
     4
 10
33.98750012274823
 20
-23.7124995328486
 30
0.0
 70
    32
  0
VERTEX
  5
4A6
  8
ACAD_LAYER_240
  6
CONTINUOUS
 62
     4
 10
34.125000122003158
 20
-23.574999533593651
 30
0.0
 70
    32
  0
VERTEX
  5
4A7
  8
ACAD_LAYER_240
  6
CONTINUOUS
 62
     4
 10
34.262500121258107
 20
-23.437499534338709
 30
0.0
 70
    32
  0
VERTEX
  5
4A8
  8
ACAD_LAYER_240
  6
CONTINUOUS
 62
     4
 10
34.40000012051307
 20
-23.299999535083771
 30
0.0
 70
    32
  0
SEQEND
  5
4A9
  8
ACAD_LAYER_240
  6
CONTINUOUS
 62
     4
  0
LINE
  5
E6
  8
ACAD_LAYER_245
  6
DASHED
 62
     2
 10
-3.2958071297768181
 20
0.0
 30
0.0
 11
36.038931260024242
 21
0.0
 31
0.0
  0
LINE
  5
7F8
  8
ACAD_LAYER_250
  6
CONTINUOUS
 62
     3
 10
57.938083901625284
 20
24.967398812006941
 30
0.0
 11
57.938083901625284
 21
22.737398812006941
 31
0.0
  0
LINE
  5
7F9
  8
ACAD_LAYER_250
  6
CONTINUOUS
 62
     3
 10
58.30975056829196
 20
22.737398812006941
 30
0.0
 11
57.938083901625284
 21
24.967398812006941
 31
0.0
  0
LINE
  5
7FA
  8
ACAD_LAYER_250
  6
CONTINUOUS
 62
     3
 10
57.566417234958621
 20
22.737398812006941
 30
0.0
 11
57.938083901625284
 21
24.967398812006941
 31
0.0
  0
LINE
  5
7FB
  8
ACAD_LAYER_250
  6
CONTINUOUS
 62
     3
 10
57.938083901625284
 20
22.737398812006941
 30
0.0
 11
57.938083901625284
 21
-8.5
 31
0.0
  0
LINE
  5
7FC
  8
ACAD_LAYER_250
  6
CONTINUOUS
 62
     3
 10
35.5
 20
24.967398812006941
 30
0.0
 11
58.938083901625269
 21
24.967398812006941
 31
0.0
  0
TEXT
  5
7FD
  8
ACAD_LAYER_250
  6
CONTINUOUS
 62
    21
 10
56.938083901625262
 20
-6.5
 30
0.0
 40
2.799999999999998
  1
\U+220550
 50
90.0
  7
CK_TEXT_STYLE_0001
  0
VIEWPORT
  5
E8
 67
     1
  8
0
 62
     4
 10
128.5
 20
97.5
 30
0.0
 40
314.226
 41
222.18000000000001
 68
     1
 69
     1
1001
ACAD
1000
MVIEW
1002
{
1070
    16
1010
0.0
1020
0.0
1030
0.0
1010
0.0
1020
0.0
1030
1.0
1040
0.0
1040
222.18000000000001
1040
128.5
1040
97.5
1040
50.0
1040
0.0
1040
0.0
1070
     0
1070
   100
1070
     1
1070
     3
1070
     0
1070
     0
1070
     0
1070
     0
1040
0.0
1040
0.0
1040
0.0
1040
10.0
1040
10.0
1040
10.0
1040
10.0
1070
     0
1002
{
1002
}
1002
}
1001
GENIUS_GENODEF_13
1002
{
1000
HIER
1070
     0
1002
}
1002
{
1000
MANEDIT
1070
     0
1002
}
1002
{
1000
NOSEL
1070
     0
1002
}
1002
{
1000
BEHIND
1070
     0
1002
}
1002
{
1000
OTHER
1070
     0
1002
}
1002
{
1000
REACTOR
1002
}
1001
GENIUS_GENOBJ-N-SDF_13
1002
{
1000
OWNER
1000
GEN
1002
}
1001
GENIUS_GENSCREG_15
1000
PF
1040
1.0
1000
DF
1040
1.0
1000
MIN
1011
-28.613
1021
0.0
1031
0.0
1021
-13.59
1031
0.0
1000
MAX
1011
285.613
1021
0.0
1031
0.0
1021
208.59
1031
0.0
1000
FLAGS
1070
     4
  0
ENDSEC
  0
EOF
