  0
SECTION
  2
HEADER
  9
$ACADVER
  1
AC1009
  9
$INSBASE
 10
0.0
 20
0.0
 30
0.0
  9
$EXTMIN
 10
-43.75527500000004
 20
-33.55501100000005
 30
0.0
  9
$EXTMAX
 10
105.0
 20
68.000000000000057
 30
0.0
  9
$LIMMIN
 10
0.0
 20
0.0
  9
$LIMMAX
 10
297.0
 20
210.0
  9
$ORTHOMODE
 70
     1
  9
$REGENMODE
 70
     1
  9
$FILLMODE
 70
     1
  9
$QTEXTMODE
 70
     0
  9
$MIRRTEXT
 70
     1
  9
$DRAGMODE
 70
     2
  9
$LTSCALE
 40
10.0
  9
$OSMODE
 70
     7
  9
$ATTMODE
 70
     1
  9
$TEXTSIZE
 40
3.0
  9
$TRACEWID
 40
1.0
  9
$TEXTSTYLE
  7
YOKO
  9
$CLAYER
  8
240
  9
$CELTYPE
  6
BYLAYER
  9
$CECOLOR
 62
   256
  9
$DIMSCALE
 40
1.0
  9
$DIMASZ
 40
2.2299999999999991
  9
$DIMEXO
 40
0.5
  9
$DIMDLI
 40
2.5
  9
$DIMRND
 40
0.0
  9
$DIMDLE
 40
0.0
  9
$DIMEXE
 40
1.0
  9
$DIMTP
 40
0.0
  9
$DIMTM
 40
0.0
  9
$DIMTXT
 40
3.0
  9
$DIMCEN
 40
0.0
  9
$DIMTSZ
 40
0.0
  9
$DIMTOL
 70
     0
  9
$DIMLIM
 70
     0
  9
$DIMTIH
 70
     0
  9
$DIMTOH
 70
     0
  9
$DIMSE1
 70
     0
  9
$DIMSE2
 70
     0
  9
$DIMTAD
 70
     3
  9
$DIMZIN
 70
     8
  9
$DIMBLK
  1
OPEN
  9
$DIMASO
 70
     1
  9
$DIMSHO
 70
     1
  9
$DIMPOST
  1

  9
$DIMAPOST
  1

  9
$DIMALT
 70
     0
  9
$DIMALTD
 70
     2
  9
$DIMALTF
 40
25.399999999999999
  9
$DIMLFAC
 40
1.0
  9
$DIMTOFL
 70
     1
  9
$DIMTVP
 40
0.0
  9
$DIMTIX
 70
     0
  9
$DIMSOXD
 70
     0
  9
$DIMSAH
 70
     1
  9
$DIMBLK1
  1

  9
$DIMBLK2
  1

  9
$DIMSTYLE
  2
BIGT
  9
$DIMCLRD
 70
   256
  9
$DIMCLRE
 70
   256
  9
$DIMCLRT
 70
    40
  9
$DIMTFAC
 40
1.0
  9
$DIMGAP
 40
1.0
  9
$LUNITS
 70
     2
  9
$LUPREC
 70
     2
  9
$SKETCHINC
 40
1.0
  9
$FILLETRAD
 40
0.0
  9
$AUNITS
 70
     0
  9
$AUPREC
 70
     3
  9
$MENU
  1
.
  9
$ELEVATION
 40
0.0
  9
$PELEVATION
 40
0.0
  9
$THICKNESS
 40
0.0
  9
$LIMCHECK
 70
     0
  9
$BLIPMODE
 70
     0
  9
$CHAMFERA
 40
10.0
  9
$CHAMFERB
 40
10.0
  9
$SKPOLY
 70
     0
  9
$TDCREATE
 40
2452203.3983523152
  9
$TDUPDATE
 40
2460549.576763785
  9
$TDINDWG
 40
0.0677855787
  9
$TDUSRTIMER
 40
0.0677853704
  9
$USRTIMER
 70
     1
  9
$ANGBASE
 50
0.0
  9
$ANGDIR
 70
     0
  9
$PDMODE
 70
    35
  9
$PDSIZE
 40
-5.0
  9
$PLINEWID
 40
0.0
  9
$COORDS
 70
     1
  9
$SPLFRAME
 70
     0
  9
$SPLINETYPE
 70
     6
  9
$SPLINESEGS
 70
     8
  9
$ATTDIA
 70
     1
  9
$ATTREQ
 70
     1
  9
$HANDLING
 70
     1
  9
$HANDSEED
  5
1A37
  9
$SURFTAB1
 70
     6
  9
$SURFTAB2
 70
     6
  9
$SURFTYPE
 70
     6
  9
$SURFU
 70
     6
  9
$SURFV
 70
     6
  9
$UCSNAME
  2

  9
$UCSORG
 10
0.0
 20
0.0
 30
0.0
  9
$UCSXDIR
 10
1.0
 20
0.0
 30
0.0
  9
$UCSYDIR
 10
0.0
 20
1.0
 30
0.0
  9
$PUCSNAME
  2

  9
$PUCSORG
 10
0.0
 20
0.0
 30
0.0
  9
$PUCSXDIR
 10
1.0
 20
0.0
 30
0.0
  9
$PUCSYDIR
 10
0.0
 20
1.0
 30
0.0
  9
$USERI1
 70
     1
  9
$USERI2
 70
     0
  9
$USERI3
 70
     0
  9
$USERI4
 70
     0
  9
$USERI5
 70
     0
  9
$USERR1
 40
0.0
  9
$USERR2
 40
0.0
  9
$USERR3
 40
0.0
  9
$USERR4
 40
0.0
  9
$USERR5
 40
0.0
  9
$WORLDVIEW
 70
     1
  9
$SHADEDGE
 70
     3
  9
$SHADEDIF
 70
    70
  9
$TILEMODE
 70
     1
  9
$MAXACTVP
 70
    16
  9
$PLIMCHECK
 70
     0
  9
$PEXTMIN
 10
1.0000000000000000E+020
 20
1.0000000000000000E+020
 30
1.0000000000000000E+020
  9
$PEXTMAX
 10
-1.0000000000000000E+020
 20
-1.0000000000000000E+020
 30
-1.0000000000000000E+020
  9
$PLIMMIN
 10
0.0
 20
0.0
  9
$PLIMMAX
 10
420.0
 20
297.0
  9
$UNITMODE
 70
     0
  9
$VISRETAIN
 70
     0
  9
$PLINEGEN
 70
     0
  9
$PSLTSCALE
 70
     1
  0
ENDSEC
  0
SECTION
  2
TABLES
  0
TABLE
  2
VPORT
 70
     1
  0
VPORT
  2
*ACTIVE
 70
     0
 10
0.0
 20
0.0
 11
1.0
 21
1.0
 12
7.8809814758214989
 22
14.979317576732569
 13
0.0
 23
0.0
 14
7.0
 24
7.0
 15
7.0
 25
7.0
 16
0.0
 26
0.0
 36
1.0
 17
0.0
 27
0.0
 37
0.0
 40
217.6176391399479
 41
2.0682680151706689
 42
50.0
 43
0.0
 44
0.0
 50
0.0
 51
0.0
 71
     0
 72
  2000
 73
     1
 74
     0
 75
     1
 76
     1
 77
     0
 78
     0
  0
ENDTAB
  0
TABLE
  2
LTYPE
 70
    18
  0
LTYPE
  2
CONTINUOUS
 70
     0
  3
Solid line
 72
    65
 73
     0
 40
0.0
  0
LTYPE
  2
CENTER2
 70
     0
  3
___ _ ___ _ ___ _ ___ _ ___ _ ___ _ ___ _ ___ _
 72
    65
 73
     4
 40
1.125
 49
0.75
 49
-0.125
 49
0.125
 49
-0.125
  0
LTYPE
  2
PHANTOM2
 70
     0
  3
___ _ _ ___ _ _ ___ _ _ ___ _ _ ___ _ _ ___ _ _
 72
    65
 73
     6
 40
1.25
 49
0.625
 49
-0.125
 49
0.125
 49
-0.125
 49
0.125
 49
-0.125
  0
LTYPE
  2
HIDDEN
 70
     0
  3
Hidden __ __ __ __ __ __ __ __ __ __ __ __ __ _
 72
    65
 73
     2
 40
9.5249999999999986
 49
6.349999999999997
 49
-3.174999999999998
  0
LTYPE
  2
CENTER
 70
     0
  3
Center ____ _ ____ _ ____ _ ____ _ ____ _ ____
 72
    65
 73
     4
 40
50.799999999999997
 49
31.75
 49
-6.349999999999997
 49
6.349999999999997
 49
-6.349999999999997
  0
LTYPE
  2
AMCONSTR
 70
     0
  3
_______________________
 72
    65
 73
     2
 40
9999.0
 49
9999.0
 49
0.0
  0
LTYPE
  2
HIDDEN2
 70
     0
  3
Hidden (.5x) _ _ _ _ _ _ _ _ _ _ _ _ _ _ _ _ _
 72
    65
 73
     2
 40
0.1875
 49
0.125
 49
-0.0625
  0
LTYPE
  2
AMZIGZAG2
 70
     0
  3
/\/-/\/-/\/-/\/-/\/-/\/
 72
    65
 73
     2
 40
0.4401
 49
0.0001
 49
-0.4400000000000002
  0
LTYPE
  2
ACANSTGB
 70
     0
  3
__ . . __ . .
 72
    65
 73
     6
 40
0.35433070866
 49
0.15748031496
 49
-0.03937007874
 49
0.03937007874
 49
-0.03937007874
 49
0.03937007874
 49
-0.03937007874
  0
LTYPE
  2
ACANSTGL
 70
     0
  3
_ _ _ _ _
 72
    65
 73
     2
 40
0.11811023622
 49
0.07874015748
 49
-0.03937007874
  0
ENDTAB
  0
TABLE
  2
LAYER
 70
     9
  0
LAYER
  2
0
 70
     0
 62
     7
  6
CONTINUOUS
  0
LAYER
  2
240
 70
     0
 62
     4
  6
CONTINUOUS
  0
LAYER
  2
241
 70
     0
 62
   211
  6
CONTINUOUS
  0
LAYER
  2
242
 70
     0
 62
     3
  6
CONTINUOUS
  0
LAYER
  2
245
 70
     0
 62
     2
  6
CENTER2
  0
LAYER
  2
246
 70
     0
 62
     3
  6
PHANTOM2
  0
LAYER
  2
247
 70
     0
 62
    60
  6
CONTINUOUS
  0
LAYER
  2
250
 70
     0
 62
     3
  6
CONTINUOUS
  0
LAYER
  2
DEFPOINTS
 70
     0
 62
     7
  6
CONTINUOUS
  0
ENDTAB
  0
TABLE
  2
STYLE
 70
     6
  0
STYLE
  2
STANDARD
 70
     0
 40
0.0
 41
1.0
 50
0.0
 71
     0
 42
3.0
  3
romans.shx
  4
BIGFONT.SHX
  0
STYLE
  2
YOKO
 70
     0
 40
0.0
 41
1.0
 50
0.0
 71
     0
 42
3.0
  3
romans.shx
  4
extfont.shx
  0
STYLE
  2
ACANSGDT
 70
     0
 40
0.0
 41
1.0
 50
0.0
 71
     0
 42
3.0
  3
amgdt.shx
  4

  0
ENDTAB
  0
TABLE
  2
VIEW
 70
     0
  0
ENDTAB
  0
TABLE
  2
UCS
 70
     0
  0
ENDTAB
  0
TABLE
  2
APPID
 70
    26
  0
APPID
  2
ACAD
 70
     0
  0
APPID
  2
ACADANNOTATIVE
 70
     0
  0
APPID
  2
GLOBAL
 70
     0
  0
APPID
  2
DETAIL
 70
     0
  0
APPID
  2
GRPNAME
 70
     0
  0
APPID
  2
GPARA
 70
     0
  0
APPID
  2
ITEMNAME
 70
     0
  0
APPID
  2
HATCH_TYPE
 70
     0
  0
APPID
  2
HATCH_DISPLAY
 70
     0
  0
APPID
  2
HATCH_DISTANCE
 70
     0
  0
APPID
  2
MCAD_NO_VIS
 70
     0
  0
APPID
  2
ACAD_TEMP_GRAPHIC
 70
     0
  0
APPID
  2
AD_DRAW
 70
     0
  0
APPID
  2
ACATTRIBSERVICES
 70
     0
  0
APPID
  2
DESIGNERASSEMBLIES
 70
     0
  0
APPID
  2
ACADM_DIM_EDIT
 70
     0
  0
APPID
  2
AMDT_DM_ADJ
 70
     0
  0
APPID
  2
GENIUS_GENSCREG_15
 70
     0
  0
APPID
  2
GENIUS_GENODEF_13
 70
     0
  0
APPID
  2
GENIUS_GENOBJ-N-SDF_13
 70
     0
  0
APPID
  2
ACAD_DSTYLE_DIMJAG
 70
     0
  0
APPID
  2
ACAD_DSTYLE_DIMBREAK
 70
     0
  0
APPID
  2
ACAD_NAV_VCDISPLAY
 70
     0
  0
APPID
  2
ACAD_EXEMPT_FROM_CAD_STANDARDS
 70
     0
  0
APPID
  2
GENIUS_GENOBJ-N-FIL_13
 70
     0
  0
APPID
  2
ACAD_MLEADERVER
 70
     0
  0
ENDTAB
  0
TABLE
  2
DIMSTYLE
 70
    10
  0
DIMSTYLE
  2
STANDARD
 70
     0
  3

  4

  5

  6

  7

 40
1.0
 41
0.18
 42
0.0625
 43
0.38
 44
0.18
 45
0.0
 46
0.0
 47
0.0
 48
0.0
140
0.18
141
0.09
142
0.0
143
25.399999999999999
144
1.0
145
0.0
146
1.0
147
0.09
 71
     0
 72
     0
 73
     1
 74
     1
 75
     0
 76
     0
 77
     0
 78
     0
170
     0
171
     2
172
     0
173
     0
174
     0
175
     0
176
     0
177
     0
178
     0
  0
DIMSTYLE
  2
BIGT
 70
     0
  3

  4

  5

  6

  7

 40
1.0
 41
2.2299999999999991
 42
0.5
 43
2.5
 44
1.0
 45
0.0
 46
0.0
 47
0.0
 48
0.0
140
3.5
141
0.0
142
0.0
143
25.399999999999999
144
1.0
145
0.0
146
1.0
147
1.0
 71
     0
 72
     0
 73
     0
 74
     0
 75
     0
 76
     0
 77
     3
 78
     9
170
     0
171
     2
172
     1
173
     0
174
     0
175
     0
176
   256
177
   256
178
    40
  0
DIMSTYLE
  2
AM_ANSI
 70
     0
  3

  4
mm
  5

  6

  7

 40
1.0
 41
0.12
 42
0.05
 43
0.5
 44
0.1
 45
0.0
 46
0.0
 47
0.1
 48
0.1
140
0.12
141
0.0
142
0.0
143
25.399999999999999
144
1.0
145
0.0
146
0.71
147
0.06
 71
     0
 72
     0
 73
     1
 74
     1
 75
     0
 76
     0
 77
     0
 78
     7
170
     0
171
     2
172
     0
173
     0
174
     0
175
     0
176
   256
177
   256
178
     2
  0
DIMSTYLE
  2
AM_ANSI$3
 70
     0
  3

  4
mm
  5

  6

  7

 40
1.0
 41
0.12
 42
0.05
 43
0.5
 44
0.1
 45
0.0
 46
0.0
 47
0.1
 48
0.1
140
0.12
141
0.0
142
0.0
143
25.399999999999999
144
1.0
145
0.0
146
0.71
147
0.06
 71
     0
 72
     0
 73
     1
 74
     1
 75
     0
 76
     0
 77
     0
 78
     7
170
     0
171
     2
172
     0
173
     0
174
     0
175
     0
176
   256
177
   256
178
     2
  0
DIMSTYLE
  2
AM_ANSI$4
 70
     0
  3

  4
mm
  5

  6

  7

 40
1.0
 41
0.12
 42
0.05
 43
0.5
 44
0.1
 45
0.0
 46
0.0
 47
0.1
 48
0.1
140
0.12
141
0.0
142
0.0
143
25.399999999999999
144
1.0
145
0.0
146
0.71
147
0.06
 71
     0
 72
     0
 73
     1
 74
     1
 75
     0
 76
     0
 77
     0
 78
     7
170
     0
171
     2
172
     0
173
     0
174
     0
175
     0
176
   256
177
   256
178
     2
  0
DIMSTYLE
  2
AM_ANSI$7
 70
     0
  3

  4
mm
  5

  6

  7

 40
1.0
 41
0.12
 42
0.05
 43
0.5
 44
0.1
 45
0.0
 46
0.0
 47
0.1
 48
0.1
140
0.12
141
0.0
142
0.0
143
25.399999999999999
144
1.0
145
0.0
146
0.71
147
0.06
 71
     0
 72
     0
 73
     1
 74
     1
 75
     0
 76
     0
 77
     0
 78
     7
170
     0
171
     2
172
     0
173
     0
174
     0
175
     0
176
   256
177
   256
178
     2
  0
DIMSTYLE
  2
AM_ANSI$SF
 70
     0
  3

  4
mm
  5

  6

  7

 40
1.0
 41
0.12
 42
0.05
 43
0.5
 44
0.1
 45
0.0
 46
0.0
 47
0.1
 48
0.1
140
0.12
141
0.0
142
0.0
143
25.399999999999999
144
1.0
145
0.0
146
0.71
147
0.06
 71
     0
 72
     0
 73
     1
 74
     1
 75
     1
 76
     1
 77
     0
 78
     7
170
     0
171
     2
172
     0
173
     0
174
     0
175
     0
176
   256
177
   256
178
     2
  0
DIMSTYLE
  2
AM_ANSI$SH
 70
     0
  3

  4
mm
  5

  6

  7

 40
1.0
 41
0.12
 42
0.05
 43
0.5
 44
0.1
 45
0.0
 46
0.0
 47
0.1
 48
0.1
140
0.12
141
0.0
142
0.0
143
25.399999999999999
144
1.0
145
0.0
146
0.71
147
0.06
 71
     0
 72
     0
 73
     1
 74
     1
 75
     1
 76
     1
 77
     0
 78
     7
170
     0
171
     2
172
     0
173
     1
174
     0
175
     0
176
   256
177
   256
178
     2
  0
ENDTAB
  0
ENDSEC
  0
SECTION
  2
BLOCKS
  0
BLOCK
  8
0
  2
$MODEL_SPACE
 70
     0
 10
0.0
 20
0.0
 30
0.0
  3
$MODEL_SPACE
  1

  0
ENDBLK
  5
191D
  8
0
  0
BLOCK
 67
     1
  8
0
  2
$PAPER_SPACE
 70
     0
 10
0.0
 20
0.0
 30
0.0
  3
$PAPER_SPACE
  1

  0
ENDBLK
  5
1919
 67
     1
  8
0
  0
BLOCK
  8
0
  2
_OPEN
 70
     0
 10
0.0
 20
0.0
 30
0.0
  3
_OPEN
  1

  0
LINE
  5
595
  8
0
  6
BYBLOCK
 62
     0
 10
-1.0
 20
0.1666666666666666
 30
0.0
 11
0.0
 21
0.0
 31
0.0
  0
LINE
  5
596
  8
0
  6
BYBLOCK
 62
     0
 10
-1.0
 20
-0.1666666666666666
 30
0.0
 11
0.0
 21
0.0
 31
0.0
  0
LINE
  5
597
  8
0
  6
BYBLOCK
 62
     0
 10
0.0
 20
0.0
 30
0.0
 11
-1.0
 21
0.0
 31
0.0
  0
ENDBLK
  5
599
  8
0
  0
BLOCK
  8
0
  2
_ACMFILLEDHALF
 70
     0
 10
0.0
 20
0.0
 30
0.0
  3
_ACMFILLEDHALF
  1

  0
TRACE
  5
16CC
  8
240
 62
     0
 10
-0.8
 20
0.0
 30
0.0
 11
-1.0
 21
0.166666666
 31
0.0
 12
0.0
 22
0.0
 32
0.0
 13
0.0
 23
0.0
 33
0.0
  0
LINE
  5
16CD
  8
240
 62
     0
 10
-1.0
 20
0.0
 30
0.0
 11
-0.8
 21
0.0
 31
0.0
  0
ENDBLK
  5
16CB
  8
0
  0
ENDSEC
  0
SECTION
  2
ENTITIES
  0
TEXT
  5
825
  8
241
  6
CONTINUOUS
 10
-42.0
 20
63.0
 30
0.0
 40
5.0
  1
EWN68-150CKB6
  7
YOKO
 11
-42.0
 21
63.0
 31
0.0
 73
     1
  0
LINE
  5
141F
  8
250
  6
CONTINUOUS
 10
70.328977545633677
 20
55.319899890543198
 30
0.0
 11
105.0
 21
55.319899890543198
 31
0.0
1001
ITEMNAME
1000
LNSP2
  0
TEXT
  5
150E
  8
250
  6
CONTINUOUS
 10
72.757548974205122
 20
56.319899890543212
 30
0.0
 40
3.0
  1
ENH6-1,TC11
  7
YOKO
1001
ITEMNAME
1000
LNSP3
1001
ACAD
1000
MTEXTBEGIN
1070
    73
1070
     1
1070
    44
1040
1.0
1070
    74
1070
     0
1000
MTEXTEND
  0
LINE
  5
1514
  8
250
  6
CONTINUOUS
 10
71.09999999999998
 20
40.000000000000007
 30
0.0
 11
84.999994163588525
 21
40.000000000000007
 31
0.0
  0
LINE
  5
1515
  8
250
  6
CONTINUOUS
 10
83.999994163588539
 20
37.770000000000039
 30
0.0
 11
83.999994163588497
 21
-15.34285773397748
 31
0.0
  0
LINE
  5
1518
  8
250
  6
CONTINUOUS
 10
-0.0000000000000284
 20
30.10000000000003
 30
0.0
 11
-0.0000000000000272
 21
50.0
 31
0.0
  0
LINE
  5
1519
  8
250
  6
CONTINUOUS
 10
71.0
 20
40.100000000000037
 30
0.0
 11
71.0
 21
50.0
 31
0.0
  0
LINE
  5
151A
  8
250
  6
CONTINUOUS
 10
2.2299999999999711
 20
49.000000000000021
 30
0.0
 11
68.769999999999996
 21
49.000000000000021
 31
0.0
  0
TEXT
  5
151E
  8
250
  6
CONTINUOUS
 10
33.071428571428562
 20
50.000000000000021
 30
0.0
 40
3.0
  1
71
1001
ACAD
1000
MTEXTBEGIN
1070
    73
1070
     1
1070
    44
1040
1.0
1070
    74
1070
     0
1000
MTEXTEND
  0
LINE
  5
151F
  8
250
  6
CONTINUOUS
 10
68.769999999999996
 20
49.371666666666691
 30
0.0
 11
71.0
 21
49.000000000000021
 31
0.0
  0
LINE
  5
1520
  8
250
  6
CONTINUOUS
 10
68.769999999999996
 20
48.628333333333352
 30
0.0
 11
71.0
 21
49.000000000000021
 31
0.0
  0
LINE
  5
1521
  8
250
  6
CONTINUOUS
 10
71.0
 20
49.000000000000021
 30
0.0
 11
68.769999999999996
 21
49.000000000000021
 31
0.0
  0
LINE
  5
1522
  8
250
  6
CONTINUOUS
 10
2.2299999999999711
 20
48.628333333333352
 30
0.0
 11
-0.0000000000000272
 21
49.000000000000021
 31
0.0
  0
LINE
  5
1523
  8
250
  6
CONTINUOUS
 10
2.2299999999999711
 20
49.371666666666677
 30
0.0
 11
-0.0000000000000272
 21
49.000000000000021
 31
0.0
  0
LINE
  5
1524
  8
250
  6
CONTINUOUS
 10
-0.0000000000000272
 20
49.000000000000021
 30
0.0
 11
2.2299999999999711
 21
49.000000000000021
 31
0.0
  0
TEXT
  5
1525
  8
250
  6
CONTINUOUS
 10
82.999994163588511
 20
-14.342857733977461
 30
0.0
 40
3.0
  1
üi
 50
90.0
1001
ACAD
1000
MTEXTBEGIN
1070
    73
1070
     1
1070
    44
1040
1.0
1070
    74
1070
     0
1000
MTEXTEND
  0
TEXT
  5
1526
  8
250
  6
CONTINUOUS
 10
82.999994163588511
 20
-10.74285773397747
 30
0.0
 40
3.0
  1
\U+2205
 50
90.0
1001
ACAD
1000
MTEXTBEGIN
1070
    73
1070
     1
1070
    44
1040
1.0
1070
    74
1070
     0
1000
MTEXTEND
  0
TEXT
  5
1527
  8
250
  6
CONTINUOUS
 10
82.999994163588511
 20
-8.0285720196917527
 30
0.0
 40
3.0
  1
68ü`
 50
90.0
1001
ACAD
1000
MTEXTBEGIN
1070
    73
1070
     1
1070
    44
1040
1.0
1070
    74
1070
     0
1000
MTEXTEND
  0
TEXT
  5
1528
  8
250
  6
CONTINUOUS
 10
82.999994163588511
 20
1.285713694593958
 30
0.0
 40
3.0
  1
\U+2205
 50
90.0
1001
ACAD
1000
MTEXTBEGIN
1070
    73
1070
     1
1070
    44
1040
1.0
1070
    74
1070
     0
1000
MTEXTEND
  0
TEXT
  5
1529
  8
250
  6
CONTINUOUS
 10
82.999994163588511
 20
3.9999994088796722
 30
0.0
 40
3.0
  1
100üj
 50
90.0
1001
ACAD
1000
MTEXTBEGIN
1070
    73
1070
     1
1070
    44
1040
1.0
1070
    74
1070
     0
1000
MTEXTEND
  0
LINE
  5
152A
  8
250
  6
CONTINUOUS
 10
83.628327496921855
 20
37.770000000000039
 30
0.0
 11
83.999994163588539
 21
40.000000000000007
 31
0.0
  0
LINE
  5
152B
  8
250
  6
CONTINUOUS
 10
84.371660830255209
 20
37.770000000000039
 30
0.0
 11
83.999994163588539
 21
40.000000000000007
 31
0.0
  0
LINE
  5
152C
  8
250
  6
CONTINUOUS
 10
83.999994163588539
 20
40.000000000000007
 30
0.0
 11
83.999994163588539
 21
37.770000000000039
 31
0.0
  0
LINE
  5
1531
  8
250
  6
CONTINUOUS
 10
64.899610041782637
 20
40.608032900411523
 30
0.0
 11
70.328977545633677
 21
55.319899890543198
 31
0.0
1001
ACAD
1000
DSTYLE
1002
{
1070
     6
1000
OPEN
1070
    78
1070
     8
1070
   140
1040
3.0
1070
   173
1070
     1
1002
}
  0
LINE
  5
1532
  8
250
  6
CONTINUOUS
 10
65.248290069472375
 20
40.479353650330602
 30
0.0
 11
64.127534541297024
 21
38.515952734273078
 31
0.0
  0
LINE
  5
1533
  8
250
  6
CONTINUOUS
 10
64.550930014092899
 20
40.736712150492451
 30
0.0
 11
64.127534541297024
 21
38.515952734273078
 31
0.0
  0
LINE
  5
1534
  8
250
  6
CONTINUOUS
 10
64.127534541297024
 20
38.515952734273078
 30
0.0
 11
64.899610041782637
 21
40.608032900411523
 31
0.0
  0
LINE
  5
16F1
  8
245
  6
CENTER2
 10
-43.75527500000004
 20
0.0
 30
0.0
 11
72.425774999999931
 21
0.0
 31
0.0
  0
LINE
  5
16FC
  8
240
  6
CONTINUOUS
 10
67.199999999999932
 20
-25.0
 30
0.0
 11
66.247371999999928
 21
-26.64999999999997
 31
0.0
  0
LINE
  5
16FD
  8
245
  6
CENTER2
 10
46.5
 20
40.058591999999969
 30
0.0
 11
46.5
 21
-33.55501100000005
 31
0.0
  0
LINE
  5
1700
  8
240
  6
CONTINUOUS
 10
0.0
 20
-29.599999999999959
 30
0.0
 11
0.0
 21
-17.999999999999972
 31
0.0
  0
LINE
  5
1701
  8
241
  6
CONTINUOUS
 10
19.0
 20
32.000000000000007
 30
0.0
 11
19.0
 21
-32.0
 31
0.0
  0
LINE
  5
1702
  8
241
  6
CONTINUOUS
 10
0.5
 20
-30.099999999999959
 30
0.0
 11
0.5
 21
30.10000000000003
 31
0.0
  0
LINE
  5
1703
  8
240
  6
CONTINUOUS
 10
52.75
 20
-29.651030999999929
 30
0.0
 11
63.949999999999932
 21
-26.64999999999997
 31
0.0
  0
LINE
  5
1704
  8
241
  6
CONTINUOUS
 10
63.949999999999932
 20
-26.64999999999997
 30
0.0
 11
29.049999999999951
 21
-26.64999999999997
 31
0.0
  0
LINE
  5
1705
  8
240
  6
CONTINUOUS
 10
25.411175999999951
 20
-32.0
 30
0.0
 11
0.5
 21
-32.0
 31
0.0
  0
LINE
  5
1706
  8
240
  6
CONTINUOUS
 10
0.5
 20
-32.0
 30
0.0
 11
0.5
 21
-30.099999999999959
 31
0.0
  0
LINE
  5
1708
  8
240
  6
CONTINUOUS
 10
0.0
 20
-29.599999999999959
 30
0.0
 11
0.5
 21
-30.099999999999959
 31
0.0
  0
LINE
  5
1709
  8
240
  6
CONTINUOUS
 10
40.25
 20
-29.651030999999929
 30
0.0
 11
29.049999999999951
 21
-26.64999999999997
 31
0.0
  0
LINE
  5
170B
  8
240
  6
CONTINUOUS
 10
28.5
 20
-26.64999999999997
 30
0.0
 11
25.411175999999951
 21
-32.0
 31
0.0
  0
LINE
  5
170C
  8
240
  6
CONTINUOUS
 10
28.5
 20
-26.64999999999997
 30
0.0
 11
29.049999999999951
 21
-26.64999999999997
 31
0.0
  0
LINE
  5
170D
  8
240
  6
CONTINUOUS
 10
46.5
 20
-29.651030999999929
 30
0.0
 11
40.25
 21
-29.651030999999929
 31
0.0
  0
LINE
  5
170E
  8
240
  6
CONTINUOUS
 10
46.5
 20
-29.651030999999929
 30
0.0
 11
52.75
 21
-29.651030999999929
 31
0.0
  0
LINE
  5
170F
  8
240
  6
CONTINUOUS
 10
66.247371999999928
 20
-26.64999999999997
 30
0.0
 11
63.949999999999932
 21
-26.64999999999997
 31
0.0
  0
LINE
  5
1711
  8
241
  6
CONTINUOUS
 10
55.630641999999952
 20
23.800000000000018
 30
0.0
 11
61.199999999999932
 21
23.800000000000018
 31
0.0
  0
LINE
  5
1712
  8
241
  6
CONTINUOUS
 10
46.487117999999889
 20
26.250000000000011
 30
0.0
 11
61.5
 21
22.227309999999989
 31
0.0
  0
LINE
  5
1713
  8
240
  6
CONTINUOUS
 10
20.180235999999919
 20
32.000000000000007
 30
0.0
 11
0.5
 21
32.000000000000007
 31
0.0
  0
LINE
  5
178A
  8
240
  6
CONTINUOUS
 10
0.0
 20
29.600000000000041
 30
0.0
 11
-0.0000000000001279
 21
18.000000000000011
 31
0.0
  0
LINE
  5
1790
  8
240
  6
CONTINUOUS
 10
0.5
 20
30.10000000000003
 30
0.0
 11
0.5
 21
32.000000000000007
 31
0.0
  0
LINE
  5
1791
  8
240
  6
CONTINUOUS
 10
0.0
 20
29.600000000000041
 30
0.0
 11
0.5
 21
30.10000000000003
 31
0.0
  0
LINE
  5
1796
  8
241
  6
CONTINUOUS
 10
46.5
 20
2.8867510000000021
 30
0.0
 11
44.0
 21
1.443375000000003
 31
0.0
  0
LINE
  5
1797
  8
241
  6
CONTINUOUS
 10
44.0
 20
-1.4433759999999409
 30
0.0
 11
46.5
 21
-2.886751999999944
 31
0.0
  0
CIRCLE
  5
1798
  8
241
  6
CONTINUOUS
 10
46.5
 20
0.0
 30
0.0
 40
5.25
  0
CIRCLE
  5
1799
  8
242
  6
CONTINUOUS
 10
46.5
 20
0.0
 30
0.0
 40
5.0
  0
LINE
  5
179A
  8
241
  6
CONTINUOUS
 10
44.0
 20
1.443375000000003
 30
0.0
 11
44.0
 21
-1.4433759999999409
 31
0.0
  0
LINE
  5
179B
  8
241
  6
CONTINUOUS
 10
46.5
 20
-2.886751999999944
 30
0.0
 11
49.0
 21
-1.4433759999999409
 31
0.0
  0
LINE
  5
179C
  8
241
  6
CONTINUOUS
 10
49.0
 20
1.443375000000003
 30
0.0
 11
46.5
 21
2.8867510000000021
 31
0.0
  0
LINE
  5
179D
  8
241
  6
CONTINUOUS
 10
49.0
 20
-1.4433759999999409
 30
0.0
 11
49.0
 21
1.443375000000003
 31
0.0
  0
LINE
  5
179F
  8
241
  6
CONTINUOUS
 10
46.487117999999889
 20
26.250000000000011
 30
0.0
 11
31.799999999999951
 21
26.250000000000011
 31
0.0
  0
LINE
  5
17A0
  8
240
  6
CONTINUOUS
 10
20.180235999999919
 20
32.000000000000007
 30
0.0
 11
23.5
 21
26.250000000000011
 31
0.0
  0
LINE
  5
17A1
  8
240
  6
CONTINUOUS
 10
31.799999999999951
 20
26.250000000000011
 30
0.0
 11
23.5
 21
26.250000000000011
 31
0.0
  0
LINE
  5
17A2
  8
240
  6
CONTINUOUS
 10
31.799999999999951
 20
26.250000000000011
 30
0.0
 11
31.799999999999951
 21
27.150000000000048
 31
0.0
  0
LINE
  5
17A3
  8
240
  6
CONTINUOUS
 10
32.149999999999977
 20
27.500000000000011
 30
0.0
 11
31.799999999999951
 21
27.150000000000048
 31
0.0
  0
LINE
  5
17A4
  8
241
  6
CONTINUOUS
 10
46.5
 20
29.300000000000011
 30
0.0
 11
43.101215999999887
 21
29.300000000000011
 31
0.0
  0
LINE
  5
17A5
  8
241
  6
CONTINUOUS
 10
42.868206999999842
 20
29.102742000000049
 30
0.0
 11
43.101215999999887
 21
29.300000000000011
 31
0.0
  0
LINE
  5
17A6
  8
241
  6
CONTINUOUS
 10
42.868206999999842
 20
29.102742000000049
 30
0.0
 11
42.600000000000001
 21
27.500000000000011
 31
0.0
  0
LINE
  5
17A7
  8
241
  6
CONTINUOUS
 10
46.5
 20
29.300000000000011
 30
0.0
 11
49.89878299999998
 21
29.300000000000011
 31
0.0
  0
LINE
  5
17A8
  8
241
  6
CONTINUOUS
 10
49.89878299999998
 20
29.300000000000011
 30
0.0
 11
50.131792999999902
 21
29.102742000000049
 31
0.0
  0
LINE
  5
17A9
  8
241
  6
CONTINUOUS
 10
50.399999999999991
 20
27.500000000000011
 30
0.0
 11
50.132251999999902
 21
29.100000000000041
 31
0.0
  0
LINE
  5
17AA
  8
240
  6
CONTINUOUS
 10
67.199999999999932
 20
20.700000000000038
 30
0.0
 11
67.199999999999932
 21
-25.0
 31
0.0
  0
LINE
  5
17AB
  8
240
  6
CONTINUOUS
 10
61.5
 20
22.227309999999989
 30
0.0
 11
61.5
 21
23.500000000000011
 31
0.0
  0
LINE
  5
17AC
  8
240
  6
CONTINUOUS
 10
61.5
 20
22.227309999999989
 30
0.0
 11
67.199999999999932
 21
20.700000000000038
 31
0.0
  0
LINE
  5
17AD
  8
240
  6
CONTINUOUS
 10
61.199999999999932
 20
23.800000000000018
 30
0.0
 11
61.5
 21
23.500000000000011
 31
0.0
  0
LINE
  5
17AE
  8
241
  6
CONTINUOUS
 10
56.750256999999912
 20
23.500000000000011
 30
0.0
 11
61.5
 21
23.500000000000011
 31
0.0
  0
LINE
  5
17AF
  8
240
  6
CONTINUOUS
 10
61.199999999999932
 20
23.800000000000018
 30
0.0
 11
61.199999999999932
 21
27.150000000000048
 31
0.0
  0
LINE
  5
17B0
  8
240
  6
CONTINUOUS
 10
60.850000000000421
 20
27.500000000000011
 30
0.0
 11
61.199999999999932
 21
27.150000000000048
 31
0.0
  0
LINE
  5
17B1
  8
240
  6
CONTINUOUS
 10
31.999999999999972
 20
27.500000000000011
 30
0.0
 11
32.149999999999977
 21
27.500000000000011
 31
0.0
  0
POLYLINE
  5
17B2
  8
240
  6
CONTINUOUS
 66
     1
 10
0.0
 20
0.0
 30
0.0
 70
     8
  0
VERTEX
  5
17B3
  8
240
  6
CONTINUOUS
 10
39.499999999999972
 20
37.000000000000007
 30
0.0
 70
    32
  0
VERTEX
  5
17B4
  8
240
  6
CONTINUOUS
 10
39.871173999999861
 20
36.916686000000027
 30
0.0
 70
    32
  0
VERTEX
  5
17B5
  8
240
  6
CONTINUOUS
 10
40.242347999999851
 20
36.837911000000098
 30
0.0
 70
    32
  0
VERTEX
  5
17B6
  8
240
  6
CONTINUOUS
 10
40.613520999999963
 20
36.763674000000051
 30
0.0
 70
    32
  0
VERTEX
  5
17B7
  8
240
  6
CONTINUOUS
 10
40.984694999999853
 20
36.693975000000037
 30
0.0
 70
    32
  0
SEQEND
  5
17B8
  8
240
  6
CONTINUOUS
  0
LINE
  5
17B9
  8
240
  6
CONTINUOUS
 10
31.999999999999972
 20
27.500000000000011
 30
0.0
 11
31.999999999999972
 21
34.000000000000021
 31
0.0
  0
ARC
  5
17BA
  8
240
  6
CONTINUOUS
 10
34.999999999999979
 20
34.000000000000021
 30
0.0
 40
3.0
 50
90.0
 51
180.0
  0
LINE
  5
17BB
  8
240
  6
CONTINUOUS
 10
34.999999999999979
 20
37.000000000000007
 30
0.0
 11
39.499999999999972
 21
37.000000000000007
 31
0.0
  0
LINE
  5
17BC
  8
241
  6
CONTINUOUS
 10
61.817003999999962
 20
34.90037400000007
 30
0.0
 11
70.082411999999849
 21
29.532755000000019
 31
0.0
  0
LINE
  5
17BD
  8
240
  6
CONTINUOUS
 10
60.850000000000421
 20
27.500000000000011
 30
0.0
 11
68.347383999999892
 21
27.500000000000011
 31
0.0
  0
LINE
  5
17BE
  8
240
  6
CONTINUOUS
 10
59.393276999999848
 20
37.68117500000006
 30
0.0
 11
69.424402999999842
 21
39.449933999999992
 31
0.0
  0
LINE
  5
17BF
  8
241
  6
CONTINUOUS
 10
61.853262999999927
 20
35.592245000000062
 30
0.0
 11
70.418403999999981
 21
39.956402000000033
 31
0.0
  0
LINE
  5
17C0
  8
241
  6
CONTINUOUS
 10
50.399999999999991
 20
27.500000000000011
 30
0.0
 11
60.850000000000421
 21
27.500000000000011
 31
0.0
  0
POLYLINE
  5
17C1
  8
240
  6
CONTINUOUS
 66
     1
 10
0.0
 20
0.0
 30
0.0
 70
     8
  0
VERTEX
  5
17C2
  8
240
  6
CONTINUOUS
 10
52.015303999999993
 20
36.693975000000037
 30
0.0
 70
    32
  0
VERTEX
  5
17C3
  8
240
  6
CONTINUOUS
 10
52.386477999999848
 20
36.763674000000051
 30
0.0
 70
    32
  0
VERTEX
  5
17C4
  8
240
  6
CONTINUOUS
 10
52.757651999999872
 20
36.837911000000098
 30
0.0
 70
    32
  0
VERTEX
  5
17C5
  8
240
  6
CONTINUOUS
 10
53.128825999999982
 20
36.916686000000027
 30
0.0
 70
    32
  0
VERTEX
  5
17C6
  8
240
  6
CONTINUOUS
 10
53.499999999999972
 20
37.000000000000007
 30
0.0
 70
    32
  0
SEQEND
  5
17C7
  8
240
  6
CONTINUOUS
  0
LINE
  5
17C8
  8
241
  6
CONTINUOUS
 10
42.867748174530242
 20
29.600000000000041
 30
0.0
 11
50.13225182546968
 21
29.600000000000041
 31
0.0
1001
GRPNAME
1000
PASTMD30
  0
LINE
  5
17C9
  8
241
  6
CONTINUOUS
 10
42.867748174530242
 20
29.100000000000041
 30
0.0
 11
42.867748174530242
 21
29.600000000000041
 31
0.0
1001
GRPNAME
1000
PASTMD30
  0
LINE
  5
17CA
  8
241
  6
CONTINUOUS
 10
42.683671304540717
 20
28.000000000000181
 30
0.0
 11
42.867748174530242
 21
29.100000000000041
 31
0.0
1001
GRPNAME
1000
PASTMD30
  0
LINE
  5
17CB
  8
241
  6
CONTINUOUS
 10
42.183671304540567
 20
27.500000000000011
 30
0.0
 11
42.683671304540567
 21
28.000000000000011
 31
0.0
1001
GRPNAME
1000
PASTMD30
  0
LINE
  5
17CC
  8
241
  6
CONTINUOUS
 10
50.13225182546968
 20
29.100000000000041
 30
0.0
 11
50.13225182546968
 21
29.600000000000041
 31
0.0
1001
GRPNAME
1000
PASTMD30
  0
LINE
  5
17CD
  8
241
  6
CONTINUOUS
 10
50.316328695459248
 20
28.000000000000181
 30
0.0
 11
50.13225182546968
 21
29.100000000000041
 31
0.0
1001
GRPNAME
1000
PASTMD30
  0
LINE
  5
17CE
  8
241
  6
CONTINUOUS
 10
50.816328695459347
 20
27.500000000000011
 30
0.0
 11
50.316328695459347
 21
28.000000000000011
 31
0.0
1001
GRPNAME
1000
PASTMD30
  0
POLYLINE
  5
17CF
  8
241
  6
CONTINUOUS
 66
     1
 10
0.0
 20
0.0
 30
0.0
 70
     8
  0
VERTEX
  5
17D0
  8
241
  6
CONTINUOUS
 10
40.984694999999853
 20
36.693975000000037
 30
0.0
 70
    32
  0
VERTEX
  5
17D1
  8
241
  6
CONTINUOUS
 10
43.742347999999843
 20
36.318243000000002
 30
0.0
 70
    32
  0
VERTEX
  5
17D2
  8
241
  6
CONTINUOUS
 10
46.499999999999972
 20
36.193000000000062
 30
0.0
 70
    32
  0
VERTEX
  5
17D3
  8
241
  6
CONTINUOUS
 10
49.257651999999858
 20
36.318243000000002
 30
0.0
 70
    32
  0
VERTEX
  5
17D4
  8
241
  6
CONTINUOUS
 10
52.015303999999993
 20
36.693975000000037
 30
0.0
 70
    32
  0
SEQEND
  5
17D5
  8
241
  6
CONTINUOUS
  0
LINE
  5
17D6
  8
240
  6
CONTINUOUS
 10
46.499999999999972
 20
37.100000000000037
 30
0.0
 11
42.499999999999957
 21
37.100000000000037
 31
0.0
  0
LINE
  5
17D7
  8
240
  6
CONTINUOUS
 10
42.499999999999957
 20
37.100000000000037
 30
0.0
 11
40.984694999999853
 21
36.693975000000037
 31
0.0
  0
LINE
  5
17D8
  8
240
  6
CONTINUOUS
 10
46.499999999999972
 20
37.100000000000037
 30
0.0
 11
50.499999999999972
 21
37.100000000000037
 31
0.0
  0
LINE
  5
17D9
  8
240
  6
CONTINUOUS
 10
50.499999999999972
 20
37.100000000000037
 30
0.0
 11
52.015303999999993
 21
36.693975000000037
 31
0.0
  0
LINE
  5
17DA
  8
241
  6
CONTINUOUS
 10
60.999999999999972
 20
27.500000000000011
 30
0.0
 11
60.999999999999972
 21
34.000000000000021
 31
0.0
  0
LINE
  5
17DB
  8
240
  6
CONTINUOUS
 10
53.499999999999972
 20
37.000000000000007
 30
0.0
 11
58.999999999999972
 21
37.000000000000007
 31
0.0
  0
LINE
  5
17DC
  8
240
  6
CONTINUOUS
 10
58.999999999999972
 20
37.000000000000007
 30
0.0
 11
59.393276999999848
 21
37.68117500000006
 31
0.0
  0
ARC
  5
17DD
  8
241
  6
CONTINUOUS
 10
57.999999999999972
 20
34.000000000000021
 30
0.0
 40
3.0
 50
0.0
 51
90.0
  0
ARC
  5
17DE
  8
241
  6
CONTINUOUS
 10
62.034858999999933
 20
35.235842000000012
 30
0.0
 40
0.4
 50
116.9999999999991
 51
236.9999999999992
  0
CIRCLE
  5
17DF
  8
246
  6
PHANTOM2
 10
67.577252999999885
 20
34.94537800000009
 30
0.0
 40
3.174999999999998
  0
LINE
  5
17E0
  8
241
  6
CONTINUOUS
 10
70.999451999999877
 20
39.579065000000021
 30
0.0
 11
70.49635199999986
 21
29.979357000000061
 31
0.0
  0
LINE
  5
17E1
  8
240
  6
CONTINUOUS
 10
68.700937999999923
 20
27.64644600000004
 30
0.0
 11
69.918774999999954
 21
28.864283000000011
 31
0.0
  0
ARC
  5
17E2
  8
240
  6
CONTINUOUS
 10
68.347383999999892
 20
28.000000000000011
 30
0.0
 40
0.5
 50
270.0
 51
315.0
  0
LINE
  5
17E3
  8
240
  6
CONTINUOUS
 10
70.085958999999974
 20
29.60044100000006
 30
0.0
 11
70.064535999999833
 21
29.191669000000061
 31
0.0
  0
ARC
  5
17E4
  8
240
  6
CONTINUOUS
 10
69.565220999999923
 20
29.217836000000052
 30
0.0
 40
0.5
 50
315.0
 51
357.00000000000108
  0
ARC
  5
17E5
  8
241
  6
CONTINUOUS
 10
70.096899999999962
 20
30.000292000000009
 30
0.0
 40
0.4
 50
236.9999999999992
 51
357.00000000000108
  0
ARC
  5
17E6
  8
241
  6
CONTINUOUS
 10
70.599999999999994
 20
39.60000000000003
 30
0.0
 40
0.4
 50
357.00000000000108
 51
116.9999999999991
  0
LINE
  5
17EE
  8
241
  6
CONTINUOUS
 10
32.149999999999977
 20
27.500000000000011
 30
0.0
 11
42.600000000000001
 21
27.500000000000011
 31
0.0
  0
LINE
  5
181F
  8
240
  6
CONTINUOUS
 10
-40.0
 20
-18.0
 30
0.0
 11
-40.0
 21
18.000000000000011
 31
0.0
  0
LINE
  5
1820
  8
245
  6
CENTER2
 10
-15.99999999999997
 20
9.4657429999999358
 30
0.0
 11
-15.99999999999997
 21
-9.8178660000000182
 31
0.0
  0
LINE
  5
1821
  8
241
  6
CONTINUOUS
 10
-16.005726960257299
 20
-18.0
 30
0.0
 11
-2.033863362127815
 21
-17.999999999999979
 31
0.0
  0
CIRCLE
  5
1822
  8
241
  6
CONTINUOUS
 10
-15.99999999999997
 20
-0.0000000000000377
 30
0.0
 40
5.9835000000000003
  0
CIRCLE
  5
1823
  8
241
  6
CONTINUOUS
 10
-15.99999999999997
 20
-0.0000000000000377
 30
0.0
 40
4.5
  0
LINE
  5
1824
  8
240
  6
CONTINUOUS
 10
-40.0
 20
-18.0
 30
0.0
 11
-16.005726960257189
 21
-18.0
 31
0.0
  0
LINE
  5
1825
  8
240
  6
CONTINUOUS
 10
-16.005726960257189
 20
-18.0
 30
0.0
 11
-13.98499967329049
 21
-21.499999999999989
 31
0.0
  0
LINE
  5
1826
  8
240
  6
CONTINUOUS
 10
-13.98499967329049
 20
-21.499999999999989
 30
0.0
 11
-4.0150001454207871
 21
-21.499999999999989
 31
0.0
  0
LINE
  5
1827
  8
240
  6
CONTINUOUS
 10
-1.9942741274754181
 20
-17.999999999999979
 30
0.0
 11
-0.0000000000003471
 21
-17.999999999999972
 31
0.0
  0
LINE
  5
1828
  8
241
  6
CONTINUOUS
 10
-16.005726332254351
 20
17.999999999999979
 30
0.0
 11
-1.9942747554780591
 21
17.999999999999979
 31
0.0
  0
LINE
  5
1829
  8
240
  6
CONTINUOUS
 10
-40.0
 20
18.000000000000011
 30
0.0
 11
-16.00572633225439
 21
17.999999999999979
 31
0.0
  0
LINE
  5
182A
  8
240
  6
CONTINUOUS
 10
-16.00572633225439
 20
17.999999999999979
 30
0.0
 11
-13.98499977795762
 21
21.499999999999989
 31
0.0
  0
LINE
  5
182B
  8
240
  6
CONTINUOUS
 10
-1.99427475547746
 20
17.999999999999321
 30
0.0
 11
-4.0150000407537201
 21
21.499999999999989
 31
0.0
  0
LINE
  5
182C
  8
240
  6
CONTINUOUS
 10
-13.98499977795762
 20
21.499999999999989
 30
0.0
 11
-4.0150000407537201
 21
21.499999999999989
 31
0.0
  0
LINE
  5
182D
  8
240
  6
CONTINUOUS
 10
-1.99427475547746
 20
17.999999999999321
 30
0.0
 11
0.0000000000000091
 21
18.000000000000011
 31
0.0
  0
LINE
  5
182E
  8
250
  6
CONTINUOUS
 10
-39.406958351595229
 20
-31.117814320735992
 30
0.0
 11
-29.14029168492857
 21
-31.117814320735992
 31
0.0
  0
LINE
  5
182F
  8
250
  6
CONTINUOUS
 10
-29.14029168492857
 20
-31.117814320735992
 30
0.0
 11
-23.201514282673951
 21
-19.968209595057321
 31
0.0
  0
LINE
  5
1830
  8
250
  6
CONTINUOUS
 10
-23.201514282673941
 20
-19.968209595057321
 30
0.0
 11
-22.153157954928361
 21
-18.0
 31
0.0
  0
LINE
  5
1831
  8
250
  6
CONTINUOUS
 10
-22.94239457486529
 20
-20.106228323350798
 30
0.0
 11
-22.153157954928361
 21
-18.0
 31
0.0
  0
LINE
  5
1832
  8
250
  6
CONTINUOUS
 10
-22.153157954928361
 20
-18.0
 30
0.0
 11
-23.460633990482599
 21
-19.830190866763878
 31
0.0
  0
TEXT
  5
1833
  8
250
  6
CONTINUOUS
 10
-39.806958351595242
 20
-29.717814320735989
 30
0.0
 40
2.799999999999998
  1
CK6
  7
YOKO
  0
LINE
  5
1834
  8
247
  6
CONTINUOUS
 10
7.9999999999999529
 20
-24.000000000069878
 30
0.0
 11
7.9999999999999583
 21
-17.307692308029878
 31
0.0
  0
ARC
  5
1835
  8
247
  6
CONTINUOUS
 10
6.2500000000699583
 20
-24.000000000069878
 30
0.0
 40
1.7499999999299991
 50
180.0
 51
0.0
  0
ARC
  5
1836
  8
247
  6
CONTINUOUS
 10
6.2500000000699583
 20
-17.307692308029878
 30
0.0
 40
1.7499999999299991
 50
0.0
 51
180.0
  0
LINE
  5
1837
  8
247
  6
CONTINUOUS
 10
4.5000000001399583
 20
-23.134615384719879
 30
0.0
 11
7.5000000000199529
 21
-23.9948515419619
 31
0.0
  0
LINE
  5
1838
  8
247
  6
CONTINUOUS
 10
5.9230769231599583
 20
-22.234983818335721
 30
0.0
 11
5.9230769231599583
 21
-23.54267612597571
 31
0.0
  0
ARC
  5
1839
  8
247
  6
CONTINUOUS
 10
5.0495986677029343
 20
-21.895143816089671
 30
0.0
 40
0.5538165441895349
 50
72.997889675291617
 51
172.92416621851231
  0
ARC
  5
183A
  8
247
  6
CONTINUOUS
 10
4.9360330444657343
 20
-22.316878323028671
 30
0.0
 40
0.9904354236226808
 50
4.7429368522013924
 51
73.849226273267618
1001
GENIUS_GENOBJ-N-FIL_13
1002
{
1000
OWNER
1000
GEN
1002
}
1001
GENIUS_GENODEF_13
1002
{
1000
HIER
1070
     0
1002
}
1002
{
1000
MANEDIT
1070
     0
1002
}
1002
{
1000
NOSEL
1070
     0
1002
}
1002
{
1000
BEHIND
1070
     0
1002
}
1002
{
1000
OTHER
1070
     0
1002
}
1002
{
1000
REACTOR
1002
}
  0
LINE
  5
183B
  8
247
  6
CONTINUOUS
 10
7.5000000000199529
 20
-22.6871592343219
 30
0.0
 11
7.5000000000199529
 21
-23.9948515419619
 31
0.0
  0
LINE
  5
183C
  8
247
  6
CONTINUOUS
 10
4.5000000001399583
 20
-23.134615384719879
 30
0.0
 11
4.5000000001399592
 21
-21.826923077079901
 31
0.0
  0
ARC
  5
183D
  8
247
  6
CONTINUOUS
 10
6.4820242326655091
 20
-22.310919636546849
 30
0.0
 40
0.5640818586791229
 50
65.99094165253058
 51
172.26344345906949
  0
ARC
  5
183E
  8
247
  6
CONTINUOUS
 10
6.487429039186547
 20
-22.788262685346961
 30
0.0
 40
1.0176059446230981
 50
5.7019851642581392
 51
77.277338436820884
1001
GENIUS_GENOBJ-N-FIL_13
1002
{
1000
OWNER
1000
GEN
1002
}
1001
GENIUS_GENODEF_13
1002
{
1000
HIER
1070
     0
1002
}
1002
{
1000
MANEDIT
1070
     0
1002
}
1002
{
1000
NOSEL
1070
     0
1002
}
1002
{
1000
BEHIND
1070
     0
1002
}
1002
{
1000
OTHER
1070
     0
1002
}
1002
{
1000
REACTOR
1002
}
  0
LINE
  5
183F
  8
247
  6
CONTINUOUS
 10
7.5000000000199529
 20
-21.033313080541902
 30
0.0
 11
4.5000000001399592
 21
-20.173076923299892
 31
0.0
  0
LINE
  5
1840
  8
247
  6
CONTINUOUS
 10
4.5000000001399592
 20
-17.750000000319869
 30
0.0
 11
4.5000000001399592
 21
-18.31573661945648
 31
0.0
  0
LINE
  5
1841
  8
247
  6
CONTINUOUS
 10
7.5000000000199529
 20
-19.211538461799879
 30
0.0
 11
7.5000000000199529
 21
-18.596153846439879
 31
0.0
  0
ARC
  5
1842
  8
247
  6
CONTINUOUS
 10
6.5832851359733411
 20
-17.45879120912273
 30
0.0
 40
2.2526500823422122
 50
202.3594881415267
 51
254.9932485428466
  0
ARC
  5
1843
  8
247
  6
CONTINUOUS
 10
5.308312655194471
 20
-18.124069479213102
 30
0.0
 40
0.8906723995727782
 50
94.994589319075104
 51
155.16632895730359
1001
GENIUS_GENOBJ-N-FIL_13
1002
{
1000
OWNER
1000
GEN
1002
}
1001
GENIUS_GENODEF_13
1002
{
1000
HIER
1070
     0
1002
}
1002
{
1000
MANEDIT
1070
     0
1002
}
1002
{
1000
NOSEL
1070
     0
1002
}
1002
{
1000
BEHIND
1070
     0
1002
}
1002
{
1000
OTHER
1070
     0
1002
}
1002
{
1000
REACTOR
1002
}
  0
ARC
  5
1844
  8
247
  6
CONTINUOUS
 10
6.1601458886677172
 20
-18.97645888621248
 30
0.0
 40
1.392781735586712
 50
15.846096555779249
 51
82.325137004170557
  0
ARC
  5
1845
  8
247
  6
CONTINUOUS
 10
6.459243431527244
 20
-18.392212725840231
 30
0.0
 40
1.324563662670287
 50
249.71360167049809
 51
321.78874565640768
1001
GENIUS_GENOBJ-N-FIL_13
1002
{
1000
OWNER
1000
GEN
1002
}
1001
GENIUS_GENODEF_13
1002
{
1000
HIER
1070
     0
1002
}
1002
{
1000
MANEDIT
1070
     0
1002
}
1002
{
1000
NOSEL
1070
     0
1002
}
1002
{
1000
BEHIND
1070
     0
1002
}
1002
{
1000
OTHER
1070
     0
1002
}
1002
{
1000
REACTOR
1002
}
  0
LINE
  5
1846
  8
247
  6
CONTINUOUS
 10
6.3461538462199591
 20
-18.288461538759879
 30
0.0
 11
6.3461538462199591
 21
-17.596153846479861
 31
0.0
  0
LINE
  5
1847
  8
247
  6
CONTINUOUS
 10
4.5000000001399592
 20
-24.000000000069878
 30
0.0
 11
4.5000000001399592
 21
-23.326923077019892
 31
0.0
  0
LINE
  5
1848
  8
240
  6
CONTINUOUS
 10
-1.9942747554773741
 20
-17.999999999999329
 30
0.0
 11
-4.015000040753617
 21
-21.500000000000011
 31
0.0
  0
LINE
  5
1849
  8
241
  6
CONTINUOUS
 10
-0.0000000000003471
 20
-17.999999999999972
 30
0.0
 11
-0.0000000000003448
 21
18.000000000000011
 31
0.0
  0
VIEWPORT
  5
22
 67
     1
  8
0
 10
261.51769911504419
 20
148.5
 30
0.0
 40
523.0353982300885
 41
297.0
 68
     1
 69
     1
1001
ACAD
1000
MVIEW
1002
{
1070
    16
1010
0.0
1020
0.0
1030
0.0
1010
0.0
1020
0.0
1030
1.0
1040
0.0
1040
297.0
1040
261.51769911504419
1040
148.5
1040
50.0
1040
0.0
1040
0.0
1070
     0
1070
   100
1070
     1
1070
     1
1070
     0
1070
     0
1070
     0
1070
     0
1040
0.0
1040
0.0
1040
0.0
1040
1.0
1040
1.0
1040
10.0
1040
10.0
1070
     0
1002
{
1002
}
1002
}
1001
GENIUS_GENODEF_13
1002
{
1000
HIER
1070
     0
1002
}
1002
{
1000
MANEDIT
1070
     0
1002
}
1002
{
1000
NOSEL
1070
     0
1002
}
1002
{
1000
BEHIND
1070
     0
1002
}
1002
{
1000
OTHER
1070
     0
1002
}
1002
{
1000
REACTOR
1002
}
1001
GENIUS_GENOBJ-N-SDF_13
1002
{
1000
OWNER
1000
GEN
1002
}
1001
GENIUS_GENSCREG_15
1000
PF
1040
1.0
1000
DF
1040
1.0
1000
MIN
1011
0.0
1021
0.0
1031
0.0
1021
0.0
1031
0.0
1000
MAX
1011
523.0353982300885
1021
0.0
1031
0.0
1021
297.0
1031
0.0
1000
FLAGS
1070
     4
  0
ENDSEC
  0
EOF
