  0
SECTION
  2
HEADER
  9
$ACADVER
  1
AC1009
  9
$INSBASE
 10
0.0
 20
0.0
 30
0.0
  9
$EXTMIN
 10
-34.047619047619051
 20
-26.03911699999999
 30
0.0
  9
$EXTMAX
 10
90.674062801970308
 20
61.000000000000021
 30
0.0
  9
$LIMMIN
 10
0.0
 20
0.0
  9
$LIMMAX
 10
297.0
 20
210.0
  9
$ORTHOMODE
 70
     1
  9
$REGENMODE
 70
     1
  9
$FILLMODE
 70
     1
  9
$QTEXTMODE
 70
     0
  9
$MIRRTEXT
 70
     1
  9
$DRAGMODE
 70
     2
  9
$LTSCALE
 40
10.0
  9
$OSMODE
 70
     7
  9
$ATTMODE
 70
     1
  9
$TEXTSIZE
 40
3.0
  9
$TRACEWID
 40
1.0
  9
$TEXTSTYLE
  7
YOKO
  9
$CLAYER
  8
240
  9
$CELTYPE
  6
BYLAYER
  9
$CECOLOR
 62
   256
  9
$DIMSCALE
 40
1.0
  9
$DIMASZ
 40
2.2299999999999991
  9
$DIMEXO
 40
0.5
  9
$DIMDLI
 40
2.5
  9
$DIMRND
 40
0.0
  9
$DIMDLE
 40
0.0
  9
$DIMEXE
 40
1.0
  9
$DIMTP
 40
0.0
  9
$DIMTM
 40
0.0
  9
$DIMTXT
 40
3.0
  9
$DIMCEN
 40
0.0
  9
$DIMTSZ
 40
0.0
  9
$DIMTOL
 70
     0
  9
$DIMLIM
 70
     0
  9
$DIMTIH
 70
     0
  9
$DIMTOH
 70
     0
  9
$DIMSE1
 70
     0
  9
$DIMSE2
 70
     0
  9
$DIMTAD
 70
     3
  9
$DIMZIN
 70
     8
  9
$DIMBLK
  1
OPEN
  9
$DIMASO
 70
     1
  9
$DIMSHO
 70
     1
  9
$DIMPOST
  1

  9
$DIMAPOST
  1

  9
$DIMALT
 70
     0
  9
$DIMALTD
 70
     2
  9
$DIMALTF
 40
25.399999999999999
  9
$DIMLFAC
 40
1.0
  9
$DIMTOFL
 70
     1
  9
$DIMTVP
 40
0.0
  9
$DIMTIX
 70
     0
  9
$DIMSOXD
 70
     0
  9
$DIMSAH
 70
     1
  9
$DIMBLK1
  1

  9
$DIMBLK2
  1

  9
$DIMSTYLE
  2
BIGT
  9
$DIMCLRD
 70
   256
  9
$DIMCLRE
 70
   256
  9
$DIMCLRT
 70
    40
  9
$DIMTFAC
 40
1.0
  9
$DIMGAP
 40
1.0
  9
$LUNITS
 70
     2
  9
$LUPREC
 70
     2
  9
$SKETCHINC
 40
1.0
  9
$FILLETRAD
 40
0.0
  9
$AUNITS
 70
     0
  9
$AUPREC
 70
     3
  9
$MENU
  1
.
  9
$ELEVATION
 40
0.0
  9
$PELEVATION
 40
0.0
  9
$THICKNESS
 40
0.0
  9
$LIMCHECK
 70
     0
  9
$BLIPMODE
 70
     0
  9
$CHAMFERA
 40
10.0
  9
$CHAMFERB
 40
10.0
  9
$SKPOLY
 70
     0
  9
$TDCREATE
 40
2452203.390014641
  9
$TDUPDATE
 40
2460549.576103183
  9
$TDINDWG
 40
0.0640545255
  9
$TDUSRTIMER
 40
0.0640543287
  9
$USRTIMER
 70
     1
  9
$ANGBASE
 50
0.0
  9
$ANGDIR
 70
     0
  9
$PDMODE
 70
    35
  9
$PDSIZE
 40
-5.0
  9
$PLINEWID
 40
0.0
  9
$COORDS
 70
     1
  9
$SPLFRAME
 70
     0
  9
$SPLINETYPE
 70
     6
  9
$SPLINESEGS
 70
     8
  9
$ATTDIA
 70
     1
  9
$ATTREQ
 70
     1
  9
$HANDLING
 70
     1
  9
$HANDSEED
  5
1AE9
  9
$SURFTAB1
 70
     6
  9
$SURFTAB2
 70
     6
  9
$SURFTYPE
 70
     6
  9
$SURFU
 70
     6
  9
$SURFV
 70
     6
  9
$UCSNAME
  2

  9
$UCSORG
 10
0.0
 20
0.0
 30
0.0
  9
$UCSXDIR
 10
1.0
 20
0.0
 30
0.0
  9
$UCSYDIR
 10
0.0
 20
1.0
 30
0.0
  9
$PUCSNAME
  2

  9
$PUCSORG
 10
0.0
 20
0.0
 30
0.0
  9
$PUCSXDIR
 10
1.0
 20
0.0
 30
0.0
  9
$PUCSYDIR
 10
0.0
 20
1.0
 30
0.0
  9
$USERI1
 70
     1
  9
$USERI2
 70
     0
  9
$USERI3
 70
     0
  9
$USERI4
 70
     0
  9
$USERI5
 70
     0
  9
$USERR1
 40
0.0
  9
$USERR2
 40
0.0
  9
$USERR3
 40
0.0
  9
$USERR4
 40
0.0
  9
$USERR5
 40
0.0
  9
$WORLDVIEW
 70
     1
  9
$SHADEDGE
 70
     3
  9
$SHADEDIF
 70
    70
  9
$TILEMODE
 70
     1
  9
$MAXACTVP
 70
    16
  9
$PLIMCHECK
 70
     0
  9
$PEXTMIN
 10
1.0000000000000000E+020
 20
1.0000000000000000E+020
 30
1.0000000000000000E+020
  9
$PEXTMAX
 10
-1.0000000000000000E+020
 20
-1.0000000000000000E+020
 30
-1.0000000000000000E+020
  9
$PLIMMIN
 10
0.0
 20
0.0
  9
$PLIMMAX
 10
420.0
 20
297.0
  9
$UNITMODE
 70
     0
  9
$VISRETAIN
 70
     0
  9
$PLINEGEN
 70
     0
  9
$PSLTSCALE
 70
     1
  0
ENDSEC
  0
SECTION
  2
TABLES
  0
TABLE
  2
VPORT
 70
     1
  0
VPORT
  2
*ACTIVE
 70
     0
 10
0.0
 20
0.0
 11
1.0
 21
1.0
 12
8.1743346684718574
 22
30.768532075478081
 13
0.0
 23
0.0
 14
7.0
 24
7.0
 15
7.0
 25
7.0
 16
0.0
 26
0.0
 36
1.0
 17
0.0
 27
0.0
 37
0.0
 40
189.65605959157759
 41
2.0682680151706689
 42
50.0
 43
0.0
 44
0.0
 50
0.0
 51
0.0
 71
     0
 72
  2000
 73
     1
 74
     0
 75
     0
 76
     1
 77
     0
 78
     0
  0
ENDTAB
  0
TABLE
  2
LTYPE
 70
    18
  0
LTYPE
  2
CONTINUOUS
 70
     0
  3
Solid line
 72
    65
 73
     0
 40
0.0
  0
LTYPE
  2
CENTER2
 70
     0
  3
___ _ ___ _ ___ _ ___ _ ___ _ ___ _ ___ _ ___ _
 72
    65
 73
     4
 40
1.125
 49
0.75
 49
-0.125
 49
0.125
 49
-0.125
  0
LTYPE
  2
PHANTOM2
 70
     0
  3
___ _ _ ___ _ _ ___ _ _ ___ _ _ ___ _ _ ___ _ _
 72
    65
 73
     6
 40
1.25
 49
0.625
 49
-0.125
 49
0.125
 49
-0.125
 49
0.125
 49
-0.125
  0
LTYPE
  2
HIDDEN
 70
     0
  3
Hidden __ __ __ __ __ __ __ __ __ __ __ __ __ _
 72
    65
 73
     2
 40
9.5249999999999986
 49
6.349999999999997
 49
-3.174999999999998
  0
LTYPE
  2
CENTER
 70
     0
  3
Center ____ _ ____ _ ____ _ ____ _ ____ _ ____
 72
    65
 73
     4
 40
50.799999999999997
 49
31.75
 49
-6.349999999999997
 49
6.349999999999997
 49
-6.349999999999997
  0
LTYPE
  2
AMCONSTR
 70
     0
  3
_______________________
 72
    65
 73
     2
 40
9999.0
 49
9999.0
 49
0.0
  0
LTYPE
  2
HIDDEN2
 70
     0
  3
Hidden (.5x) _ _ _ _ _ _ _ _ _ _ _ _ _ _ _ _ _
 72
    65
 73
     2
 40
0.1875
 49
0.125
 49
-0.0625
  0
LTYPE
  2
AMZIGZAG2
 70
     0
  3
/\/-/\/-/\/-/\/-/\/-/\/
 72
    65
 73
     2
 40
0.4401
 49
0.0001
 49
-0.4400000000000002
  0
LTYPE
  2
ACANSTGB
 70
     0
  3
__ . . __ . .
 72
    65
 73
     6
 40
0.35433070866
 49
0.15748031496
 49
-0.03937007874
 49
0.03937007874
 49
-0.03937007874
 49
0.03937007874
 49
-0.03937007874
  0
LTYPE
  2
ACANSTGL
 70
     0
  3
_ _ _ _ _
 72
    65
 73
     2
 40
0.11811023622
 49
0.07874015748
 49
-0.03937007874
  0
ENDTAB
  0
TABLE
  2
LAYER
 70
     9
  0
LAYER
  2
0
 70
     0
 62
     7
  6
CONTINUOUS
  0
LAYER
  2
240
 70
     0
 62
     4
  6
CONTINUOUS
  0
LAYER
  2
241
 70
     0
 62
   211
  6
CONTINUOUS
  0
LAYER
  2
242
 70
     0
 62
     3
  6
CONTINUOUS
  0
LAYER
  2
245
 70
     0
 62
     2
  6
CENTER2
  0
LAYER
  2
246
 70
     0
 62
     3
  6
PHANTOM2
  0
LAYER
  2
247
 70
     0
 62
    60
  6
CONTINUOUS
  0
LAYER
  2
250
 70
     0
 62
     3
  6
CONTINUOUS
  0
LAYER
  2
DEFPOINTS
 70
     0
 62
     7
  6
CONTINUOUS
  0
ENDTAB
  0
TABLE
  2
STYLE
 70
     6
  0
STYLE
  2
STANDARD
 70
     0
 40
0.0
 41
1.0
 50
0.0
 71
     0
 42
3.0
  3
romans.shx
  4
BIGFONT.SHX
  0
STYLE
  2
YOKO
 70
     0
 40
0.0
 41
1.0
 50
0.0
 71
     0
 42
3.0
  3
romans.shx
  4
extfont.shx
  0
STYLE
  2
ACANSGDT
 70
     0
 40
0.0
 41
1.0
 50
0.0
 71
     0
 42
3.0
  3
amgdt.shx
  4

  0
ENDTAB
  0
TABLE
  2
VIEW
 70
     0
  0
ENDTAB
  0
TABLE
  2
UCS
 70
     0
  0
ENDTAB
  0
TABLE
  2
APPID
 70
    27
  0
APPID
  2
ACAD
 70
     0
  0
APPID
  2
ACADANNOTATIVE
 70
     0
  0
APPID
  2
GLOBAL
 70
     0
  0
APPID
  2
DETAIL
 70
     0
  0
APPID
  2
GRPNAME
 70
     0
  0
APPID
  2
GPARA
 70
     0
  0
APPID
  2
ITEMNAME
 70
     0
  0
APPID
  2
HATCH_TYPE
 70
     0
  0
APPID
  2
HATCH_DISPLAY
 70
     0
  0
APPID
  2
HATCH_DISTANCE
 70
     0
  0
APPID
  2
MCAD_NO_VIS
 70
     0
  0
APPID
  2
ACAD_TEMP_GRAPHIC
 70
     0
  0
APPID
  2
AD_DRAW
 70
     0
  0
APPID
  2
ACATTRIBSERVICES
 70
     0
  0
APPID
  2
DESIGNERASSEMBLIES
 70
     0
  0
APPID
  2
ACADM_DIM_EDIT
 70
     0
  0
APPID
  2
AMDT_DM_ADJ
 70
     0
  0
APPID
  2
GENIUS_GENSCREG_15
 70
     0
  0
APPID
  2
GENIUS_GENODEF_13
 70
     0
  0
APPID
  2
GENIUS_GENOBJ-N-SDF_13
 70
     0
  0
APPID
  2
ACAD_DSTYLE_DIMJAG
 70
     0
  0
APPID
  2
ACAD_DSTYLE_DIMBREAK
 70
     0
  0
APPID
  2
ACAD_NAV_VCDISPLAY
 70
     0
  0
APPID
  2
ACAD_EXEMPT_FROM_CAD_STANDARDS
 70
     0
  0
APPID
  2
ACAECLAYERSTANDARD
 70
     0
  0
APPID
  2
GENIUS_GENOBJ-N-FIL_13
 70
     0
  0
APPID
  2
ACAD_MLEADERVER
 70
     0
  0
ENDTAB
  0
TABLE
  2
DIMSTYLE
 70
    10
  0
DIMSTYLE
  2
STANDARD
 70
     0
  3

  4

  5

  6

  7

 40
1.0
 41
0.18
 42
0.0625
 43
0.38
 44
0.18
 45
0.0
 46
0.0
 47
0.0
 48
0.0
140
0.18
141
0.09
142
0.0
143
25.399999999999999
144
1.0
145
0.0
146
1.0
147
0.09
 71
     0
 72
     0
 73
     1
 74
     1
 75
     0
 76
     0
 77
     0
 78
     0
170
     0
171
     2
172
     0
173
     0
174
     0
175
     0
176
     0
177
     0
178
     0
  0
DIMSTYLE
  2
BIGT
 70
     0
  3

  4

  5

  6

  7

 40
1.0
 41
2.2299999999999991
 42
0.5
 43
2.5
 44
1.0
 45
0.0
 46
0.0
 47
0.0
 48
0.0
140
3.5
141
0.0
142
0.0
143
25.399999999999999
144
1.0
145
0.0
146
1.0
147
1.0
 71
     0
 72
     0
 73
     0
 74
     0
 75
     0
 76
     0
 77
     3
 78
     9
170
     0
171
     2
172
     1
173
     0
174
     0
175
     0
176
   256
177
   256
178
    40
  0
DIMSTYLE
  2
AM_ANSI
 70
     0
  3

  4
mm
  5

  6

  7

 40
1.0
 41
0.12
 42
0.05
 43
0.5
 44
0.1
 45
0.0
 46
0.0
 47
0.1
 48
0.1
140
0.12
141
0.0
142
0.0
143
25.399999999999999
144
1.0
145
0.0
146
0.71
147
0.06
 71
     0
 72
     0
 73
     1
 74
     1
 75
     0
 76
     0
 77
     0
 78
     7
170
     0
171
     2
172
     0
173
     0
174
     0
175
     0
176
   256
177
   256
178
     2
  0
DIMSTYLE
  2
AM_ANSI$3
 70
     0
  3

  4
mm
  5

  6

  7

 40
1.0
 41
0.12
 42
0.05
 43
0.5
 44
0.1
 45
0.0
 46
0.0
 47
0.1
 48
0.1
140
0.12
141
0.0
142
0.0
143
25.399999999999999
144
1.0
145
0.0
146
0.71
147
0.06
 71
     0
 72
     0
 73
     1
 74
     1
 75
     0
 76
     0
 77
     0
 78
     7
170
     0
171
     2
172
     0
173
     0
174
     0
175
     0
176
   256
177
   256
178
     2
  0
DIMSTYLE
  2
AM_ANSI$4
 70
     0
  3

  4
mm
  5

  6

  7

 40
1.0
 41
0.12
 42
0.05
 43
0.5
 44
0.1
 45
0.0
 46
0.0
 47
0.1
 48
0.1
140
0.12
141
0.0
142
0.0
143
25.399999999999999
144
1.0
145
0.0
146
0.71
147
0.06
 71
     0
 72
     0
 73
     1
 74
     1
 75
     0
 76
     0
 77
     0
 78
     7
170
     0
171
     2
172
     0
173
     0
174
     0
175
     0
176
   256
177
   256
178
     2
  0
DIMSTYLE
  2
AM_ANSI$7
 70
     0
  3

  4
mm
  5

  6

  7

 40
1.0
 41
0.12
 42
0.05
 43
0.5
 44
0.1
 45
0.0
 46
0.0
 47
0.1
 48
0.1
140
0.12
141
0.0
142
0.0
143
25.399999999999999
144
1.0
145
0.0
146
0.71
147
0.06
 71
     0
 72
     0
 73
     1
 74
     1
 75
     0
 76
     0
 77
     0
 78
     7
170
     0
171
     2
172
     0
173
     0
174
     0
175
     0
176
   256
177
   256
178
     2
  0
DIMSTYLE
  2
AM_ANSI$SF
 70
     0
  3

  4
mm
  5

  6

  7

 40
1.0
 41
0.12
 42
0.05
 43
0.5
 44
0.1
 45
0.0
 46
0.0
 47
0.1
 48
0.1
140
0.12
141
0.0
142
0.0
143
25.399999999999999
144
1.0
145
0.0
146
0.71
147
0.06
 71
     0
 72
     0
 73
     1
 74
     1
 75
     1
 76
     1
 77
     0
 78
     7
170
     0
171
     2
172
     0
173
     0
174
     0
175
     0
176
   256
177
   256
178
     2
  0
DIMSTYLE
  2
AM_ANSI$SH
 70
     0
  3

  4
mm
  5

  6

  7

 40
1.0
 41
0.12
 42
0.05
 43
0.5
 44
0.1
 45
0.0
 46
0.0
 47
0.1
 48
0.1
140
0.12
141
0.0
142
0.0
143
25.399999999999999
144
1.0
145
0.0
146
0.71
147
0.06
 71
     0
 72
     0
 73
     1
 74
     1
 75
     1
 76
     1
 77
     0
 78
     7
170
     0
171
     2
172
     0
173
     1
174
     0
175
     0
176
   256
177
   256
178
     2
  0
ENDTAB
  0
ENDSEC
  0
SECTION
  2
BLOCKS
  0
BLOCK
  8
0
  2
$MODEL_SPACE
 70
     0
 10
0.0
 20
0.0
 30
0.0
  3
$MODEL_SPACE
  1

  0
ENDBLK
  5
19CE
  8
0
  0
BLOCK
 67
     1
  8
0
  2
$PAPER_SPACE
 70
     0
 10
0.0
 20
0.0
 30
0.0
  3
$PAPER_SPACE
  1

  0
ENDBLK
  5
19CA
 67
     1
  8
0
  0
BLOCK
  8
0
  2
_OPEN
 70
     0
 10
0.0
 20
0.0
 30
0.0
  3
_OPEN
  1

  0
LINE
  5
595
  8
0
  6
BYBLOCK
 62
     0
 10
-1.0
 20
0.1666666666666666
 30
0.0
 11
0.0
 21
0.0
 31
0.0
  0
LINE
  5
596
  8
0
  6
BYBLOCK
 62
     0
 10
-1.0
 20
-0.1666666666666666
 30
0.0
 11
0.0
 21
0.0
 31
0.0
  0
LINE
  5
597
  8
0
  6
BYBLOCK
 62
     0
 10
0.0
 20
0.0
 30
0.0
 11
-1.0
 21
0.0
 31
0.0
  0
ENDBLK
  5
599
  8
0
  0
BLOCK
  8
0
  2
_ACMFILLEDHALF
 70
     0
 10
0.0
 20
0.0
 30
0.0
  3
_ACMFILLEDHALF
  1

  0
TRACE
  5
1727
  8
240
 62
     0
 10
-0.8
 20
0.0
 30
0.0
 11
-1.0
 21
0.166666666
 31
0.0
 12
0.0
 22
0.0
 32
0.0
 13
0.0
 23
0.0
 33
0.0
  0
LINE
  5
1728
  8
240
 62
     0
 10
-1.0
 20
0.0
 30
0.0
 11
-0.8
 21
0.0
 31
0.0
  0
ENDBLK
  5
1726
  8
0
  0
ENDSEC
  0
SECTION
  2
ENTITIES
  0
TEXT
  5
814
  8
241
  6
CONTINUOUS
 10
-35.0
 20
56.0
 30
0.0
 40
5.0
  1
EWN53-95CKB5
  7
YOKO
 11
-35.0
 21
56.0
 31
0.0
 73
     1
  0
LINE
  5
1197
  8
250
  6
CONTINUOUS
 10
57.526179028262291
 20
46.544072546653418
 30
0.0
 11
90.674062801970308
 21
46.544072546653418
 31
0.0
1001
ITEMNAME
1000
LNSP2
  0
LINE
  5
1568
  8
250
  6
CONTINUOUS
 10
-0.0000000000000284
 20
23.000000000000011
 30
0.0
 11
-0.0000000000000272
 21
43.0
 31
0.0
  0
LINE
  5
1569
  8
250
  6
CONTINUOUS
 10
57.0
 20
35.08952247076261
 30
0.0
 11
57.0
 21
43.0
 31
0.0
  0
LINE
  5
156A
  8
250
  6
CONTINUOUS
 10
2.2299999999999711
 20
42.000000000000007
 30
0.0
 11
54.770000000000003
 21
42.000000000000007
 31
0.0
  0
LINE
  5
1570
  8
250
  6
CONTINUOUS
 10
57.099999999999973
 20
35.000000000000007
 30
0.0
 11
71.068651243201629
 21
35.000000000000007
 31
0.0
  0
LINE
  5
1571
  8
250
  6
CONTINUOUS
 10
70.068651243201614
 20
32.77000000000001
 30
0.0
 11
70.0686512432016
 21
-13.91428571428569
 31
0.0
  0
TEXT
  5
1574
  8
250
  6
CONTINUOUS
 10
59.9547504568337
 20
47.544072546653382
 30
0.0
 40
3.0
  1
ENH5-1,TC11
  7
YOKO
1001
ITEMNAME
1000
LNSP3
1001
ACAD
1000
MTEXTBEGIN
1070
    73
1070
     1
1070
    44
1040
1.0
1070
    74
1070
     0
1000
MTEXTEND
  0
LINE
  5
157D
  8
250
  6
CONTINUOUS
 10
2.2299999999999711
 20
41.628333333333337
 30
0.0
 11
-0.0000000000000272
 21
42.000000000000007
 31
0.0
  0
LINE
  5
157E
  8
250
  6
CONTINUOUS
 10
2.2299999999999711
 20
42.371666666666663
 30
0.0
 11
-0.0000000000000272
 21
42.000000000000007
 31
0.0
  0
LINE
  5
157F
  8
250
  6
CONTINUOUS
 10
-0.0000000000000272
 20
42.000000000000007
 30
0.0
 11
2.2299999999999711
 21
42.000000000000007
 31
0.0
  0
TEXT
  5
1580
  8
250
  6
CONTINUOUS
 10
69.0686512432016
 20
-12.914285714285681
 30
0.0
 40
3.0
  1
üi
 50
90.0
1001
ACAD
1000
MTEXTBEGIN
1070
    73
1070
     1
1070
    44
1040
1.0
1070
    74
1070
     0
1000
MTEXTEND
  0
TEXT
  5
1581
  8
250
  6
CONTINUOUS
 10
69.0686512432016
 20
-9.3142857142856865
 30
0.0
 40
3.0
  1
\U+2205
 50
90.0
1001
ACAD
1000
MTEXTBEGIN
1070
    73
1070
     1
1070
    44
1040
1.0
1070
    74
1070
     0
1000
MTEXTEND
  0
TEXT
  5
1582
  8
250
  6
CONTINUOUS
 10
69.0686512432016
 20
-6.5999999999999721
 30
0.0
 40
3.0
  1
53ü`
 50
90.0
1001
ACAD
1000
MTEXTBEGIN
1070
    73
1070
     1
1070
    44
1040
1.0
1070
    74
1070
     0
1000
MTEXTEND
  0
TEXT
  5
1583
  8
250
  6
CONTINUOUS
 10
69.0686512432016
 20
2.7142857142857411
 30
0.0
 40
3.0
  1
\U+2205
 50
90.0
1001
ACAD
1000
MTEXTBEGIN
1070
    73
1070
     1
1070
    44
1040
1.0
1070
    74
1070
     0
1000
MTEXTEND
  0
TEXT
  5
1584
  8
250
  6
CONTINUOUS
 10
69.0686512432016
 20
5.428571428571459
 30
0.0
 40
3.0
  1
70üj
 50
90.0
1001
ACAD
1000
MTEXTBEGIN
1070
    73
1070
     1
1070
    44
1040
1.0
1070
    74
1070
     0
1000
MTEXTEND
  0
TEXT
  5
1585
  8
250
  6
CONTINUOUS
 10
25.642857142857139
 20
43.0
 30
0.0
 40
3.0
  1
57
1001
ACAD
1000
MTEXTBEGIN
1070
    73
1070
     1
1070
    44
1040
1.0
1070
    74
1070
     0
1000
MTEXTEND
  0
LINE
  5
1586
  8
250
  6
CONTINUOUS
 10
51.10543369345482
 20
35.423015404306057
 30
0.0
 11
57.526179028262291
 21
46.544072546653418
 31
0.0
1001
ACAD
1000
DSTYLE
1002
{
1070
     6
1000
OPEN
1070
    78
1070
     8
1070
   140
1040
3.0
1070
   173
1070
     1
1002
}
  0
LINE
  5
1587
  8
250
  6
CONTINUOUS
 10
51.427306468528037
 20
35.237182070972722
 30
0.0
 11
49.990433693454818
 21
33.491778753866761
 31
0.0
  0
LINE
  5
1588
  8
250
  6
CONTINUOUS
 10
50.783560918381603
 20
35.608848737639391
 30
0.0
 11
49.990433693454818
 21
33.491778753866761
 31
0.0
  0
LINE
  5
1589
  8
250
  6
CONTINUOUS
 10
49.990433693454818
 20
33.491778753866761
 30
0.0
 11
51.10543369345482
 21
35.423015404306057
 31
0.0
  0
LINE
  5
158A
  8
250
  6
CONTINUOUS
 10
54.770000000000003
 20
42.371666666666663
 30
0.0
 11
57.0
 21
42.000000000000007
 31
0.0
  0
LINE
  5
158B
  8
250
  6
CONTINUOUS
 10
54.770000000000003
 20
41.628333333333337
 30
0.0
 11
57.0
 21
42.000000000000007
 31
0.0
  0
LINE
  5
158C
  8
250
  6
CONTINUOUS
 10
57.0
 20
42.000000000000007
 30
0.0
 11
54.770000000000003
 21
42.000000000000007
 31
0.0
  0
LINE
  5
158D
  8
250
  6
CONTINUOUS
 10
69.696984576534959
 20
32.77000000000001
 30
0.0
 11
70.068651243201614
 21
35.000000000000007
 31
0.0
  0
LINE
  5
158E
  8
250
  6
CONTINUOUS
 10
70.440317909868298
 20
32.77000000000001
 30
0.0
 11
70.068651243201614
 21
35.000000000000007
 31
0.0
  0
LINE
  5
158F
  8
250
  6
CONTINUOUS
 10
70.068651243201614
 20
35.000000000000007
 30
0.0
 11
70.068651243201614
 21
32.77000000000001
 31
0.0
  0
LINE
  5
174A
  8
240
  6
CONTINUOUS
 10
27.999999999999972
 20
20.000000000000011
 30
0.0
 11
19.69999999999996
 21
20.000000000000011
 31
0.0
  0
LINE
  5
174C
  8
245
  6
CENTER2
 10
55.448879999999967
 20
0.0000000000000142
 30
0.0
 11
-31.7887688307218
 21
0.0
 31
0.0
  0
LINE
  5
1762
  8
241
  6
CONTINUOUS
 10
16.499999999999972
 20
24.500000000000011
 30
0.0
 11
16.499999999999972
 21
-24.500000000000011
 31
0.0
  0
LINE
  5
1764
  8
241
  6
CONTINUOUS
 10
0.4999999999999716
 20
23.000000000000011
 30
0.0
 11
0.4999999999999716
 21
-23.0
 31
0.0
  0
LINE
  5
1787
  8
240
  6
CONTINUOUS
 10
0.4999999999999716
 20
-24.5
 30
0.0
 11
22.979274999999969
 21
-24.5
 31
0.0
  0
LINE
  5
178B
  8
240
  6
CONTINUOUS
 10
-0.0000000000000284
 20
-22.5
 30
0.0
 11
-0.0000000000001137
 21
-13.99999999999998
 31
0.0
  0
LINE
  5
178D
  8
240
  6
CONTINUOUS
 10
-0.0000000000000284
 20
-22.5
 30
0.0
 11
0.4999999999999716
 21
-23.0
 31
0.0
  0
LINE
  5
178E
  8
240
  6
CONTINUOUS
 10
0.4999999999999716
 20
-23.0
 30
0.0
 11
0.4999999999999716
 21
-24.5
 31
0.0
  0
LINE
  5
17DD
  8
240
  6
CONTINUOUS
 10
0.4999999999999716
 20
24.500000000000011
 30
0.0
 11
17.101923999999961
 21
24.500000000000011
 31
0.0
  0
LINE
  5
17DE
  8
240
  6
CONTINUOUS
 10
-0.0000000000000426
 20
14.000000000000041
 30
0.0
 11
-0.0000000000000284
 21
22.500000000000011
 31
0.0
  0
LINE
  5
17E3
  8
240
  6
CONTINUOUS
 10
-0.0000000000000284
 20
22.500000000000011
 30
0.0
 11
0.4999999999999716
 21
23.000000000000011
 31
0.0
  0
LINE
  5
17E4
  8
240
  6
CONTINUOUS
 10
0.4999999999999716
 20
23.000000000000011
 30
0.0
 11
0.4999999999999716
 21
24.500000000000011
 31
0.0
  0
LINE
  5
17E6
  8
240
  6
CONTINUOUS
 10
17.101923999999961
 20
24.500000000000011
 30
0.0
 11
19.69999999999996
 21
20.000000000000011
 31
0.0
  0
LINE
  5
17E8
  8
245
  6
CENTER2
 10
37.999999999999972
 20
34.605739000000007
 30
0.0
 11
37.999999999999972
 21
-26.03911699999999
 31
0.0
  0
LINE
  5
17E9
  8
240
  6
CONTINUOUS
 10
52.999999999999972
 20
15.80000000000002
 30
0.0
 11
52.999999999999972
 21
-20.0
 31
0.0
  0
LINE
  5
17EA
  8
240
  6
CONTINUOUS
 10
50.449999999999989
 20
-21.0
 30
0.0
 11
42.01556599999995
 21
-23.259999999999991
 31
0.0
  0
LINE
  5
17EB
  8
241
  6
CONTINUOUS
 10
50.449999999999989
 20
-21.0
 30
0.0
 11
25.549999999999979
 21
-21.0
 31
0.0
  0
LINE
  5
17EC
  8
240
  6
CONTINUOUS
 10
33.984434999999962
 20
-23.259999999999991
 30
0.0
 11
25.549999999999979
 21
-21.0
 31
0.0
  0
LINE
  5
17ED
  8
240
  6
CONTINUOUS
 10
24.999999999999972
 20
-21.0
 30
0.0
 11
22.979274999999969
 21
-24.5
 31
0.0
  0
LINE
  5
17EE
  8
240
  6
CONTINUOUS
 10
25.549999999999979
 20
-21.0
 30
0.0
 11
24.999999999999972
 21
-21.0
 31
0.0
  0
LINE
  5
17EF
  8
240
  6
CONTINUOUS
 10
42.01556599999995
 20
-23.259999999999991
 30
0.0
 11
33.984434999999962
 21
-23.259999999999991
 31
0.0
  0
LINE
  5
17F0
  8
241
  6
CONTINUOUS
 10
37.999999999999972
 20
2.309401000000022
 30
0.0
 11
35.999999999999957
 21
1.1547010000000171
 31
0.0
  0
LINE
  5
17F1
  8
241
  6
CONTINUOUS
 10
39.999999999999957
 20
1.1547010000000171
 30
0.0
 11
37.999999999999972
 21
2.309401000000022
 31
0.0
  0
CIRCLE
  5
17F2
  8
241
  6
CONTINUOUS
 10
37.999999999999972
 20
0.0000000000000142
 30
0.0
 40
4.25
  0
CIRCLE
  5
17F3
  8
242
  6
CONTINUOUS
 10
37.999999999999972
 20
0.0000000000000142
 30
0.0
 40
4.0
  0
LINE
  5
17F4
  8
241
  6
CONTINUOUS
 10
35.999999999999957
 20
-1.1546999999999901
 30
0.0
 11
37.999999999999972
 21
-2.3094009999999781
 31
0.0
  0
LINE
  5
17F5
  8
241
  6
CONTINUOUS
 10
35.999999999999957
 20
1.1547010000000171
 30
0.0
 11
35.999999999999957
 21
-1.1546999999999901
 31
0.0
  0
LINE
  5
17F6
  8
241
  6
CONTINUOUS
 10
39.999999999999957
 20
-1.1546999999999901
 30
0.0
 11
39.999999999999957
 21
1.1547010000000171
 31
0.0
  0
LINE
  5
17F7
  8
241
  6
CONTINUOUS
 10
37.999999999999972
 20
-2.3094009999999781
 30
0.0
 11
39.999999999999957
 21
-1.1546999999999901
 31
0.0
  0
LINE
  5
17F8
  8
240
  6
CONTINUOUS
 10
52.422649999999969
 20
-21.0
 30
0.0
 11
50.449999999999989
 21
-21.0
 31
0.0
  0
LINE
  5
17FA
  8
240
  6
CONTINUOUS
 10
52.999999999999972
 20
-20.0
 30
0.0
 11
52.422649999999969
 21
-21.0
 31
0.0
  0
LINE
  5
17FB
  8
241
  6
CONTINUOUS
 10
40.499999999999631
 20
25.000000000000011
 30
0.0
 11
47.499999999999972
 21
25.000000000000011
 31
0.0
  0
LINE
  5
17FC
  8
241
  6
CONTINUOUS
 10
37.325386999999949
 20
20.000000000000011
 30
0.0
 11
47.999999999999972
 21
17.139745999999999
 31
0.0
  0
LINE
  5
17FD
  8
241
  6
CONTINUOUS
 10
37.325386999999949
 20
20.000000000000011
 30
0.0
 11
27.999999999999972
 21
20.000000000000011
 31
0.0
  0
LINE
  5
17FE
  8
241
  6
CONTINUOUS
 10
28.499999999999972
 20
25.000000000000011
 30
0.0
 11
35.49999999999973
 21
25.000000000000011
 31
0.0
  0
LINE
  5
17FF
  8
240
  6
CONTINUOUS
 10
27.999999999999972
 20
20.000000000000011
 30
0.0
 11
27.999999999999972
 21
24.500000000000011
 31
0.0
  0
LINE
  5
1800
  8
240
  6
CONTINUOUS
 10
28.499999999999972
 20
25.000000000000011
 30
0.0
 11
27.999999999999972
 21
24.500000000000011
 31
0.0
  0
LINE
  5
1801
  8
241
  6
CONTINUOUS
 10
40.499999999999957
 20
25.000000000000011
 30
0.0
 11
40.232251999999967
 21
26.600000000000009
 31
0.0
  0
LINE
  5
1802
  8
241
  6
CONTINUOUS
 10
35.499999999999972
 20
25.000000000000011
 30
0.0
 11
35.767748999999966
 21
26.600000000000009
 31
0.0
  0
LINE
  5
1803
  8
241
  6
CONTINUOUS
 10
36.001216999999968
 20
26.800000000000011
 30
0.0
 11
39.998783999999958
 21
26.800000000000011
 31
0.0
  0
LINE
  5
1804
  8
241
  6
CONTINUOUS
 10
36.001216999999968
 20
26.800000000000011
 30
0.0
 11
35.768207999999959
 21
26.602743000000011
 31
0.0
  0
LINE
  5
1805
  8
241
  6
CONTINUOUS
 10
40.231792999999954
 20
26.602743000000011
 30
0.0
 11
39.998783999999958
 21
26.800000000000011
 31
0.0
  0
LINE
  5
1806
  8
240
  6
CONTINUOUS
 10
47.999999999999972
 20
17.139745999999999
 30
0.0
 11
47.999999999999972
 21
24.500000000000011
 31
0.0
  0
LINE
  5
1807
  8
240
  6
CONTINUOUS
 10
47.999999999999972
 20
17.139745999999999
 30
0.0
 11
52.999999999999972
 21
15.80000000000002
 31
0.0
  0
LINE
  5
1808
  8
240
  6
CONTINUOUS
 10
47.499999999999972
 20
25.000000000000011
 30
0.0
 11
47.999999999999972
 21
24.500000000000011
 31
0.0
  0
LINE
  5
1809
  8
240
  6
CONTINUOUS
 10
37.999999999999972
 20
32.500000000000021
 30
0.0
 11
40.499999999999957
 21
32.500000000000021
 31
0.0
  0
LINE
  5
180A
  8
241
  6
CONTINUOUS
 10
35.85141947907092
 20
27.10000000000003
 30
0.0
 11
40.148580520929002
 21
27.10000000000003
 31
0.0
1001
GRPNAME
1000
PASTMD1Y
  0
POLYLINE
  5
180B
  8
241
  6
CONTINUOUS
 66
     1
 10
0.0
 20
0.0
 30
0.0
 70
     8
  0
VERTEX
  5
180C
  8
241
  6
CONTINUOUS
 10
34.738311999999979
 20
32.295906999999993
 30
0.0
 70
    32
  0
VERTEX
  5
180D
  8
241
  6
CONTINUOUS
 10
36.369155999999997
 20
32.126477000000001
 30
0.0
 70
    32
  0
VERTEX
  5
180E
  8
241
  6
CONTINUOUS
 10
37.999999999999972
 20
32.07
 30
0.0
 70
    32
  0
VERTEX
  5
180F
  8
241
  6
CONTINUOUS
 10
39.630844999999987
 20
32.126477000000001
 30
0.0
 70
    32
  0
VERTEX
  5
1810
  8
241
  6
CONTINUOUS
 10
41.261688999999947
 20
32.295906999999993
 30
0.0
 70
    32
  0
SEQEND
  5
1811
  8
241
  6
CONTINUOUS
  0
LINE
  5
1812
  8
241
  6
CONTINUOUS
 10
35.566937043632571
 20
25.399999999999991
 30
0.0
 11
35.85141947907092
 21
27.10000000000003
 31
0.0
1001
GRPNAME
1000
PASTMD1Y
  0
LINE
  5
1813
  8
240
  6
CONTINUOUS
 10
28.499999999999961
 20
25.000000000000011
 30
0.0
 11
28.499999999999961
 21
30.500000000000011
 31
0.0
  0
LINE
  5
1815
  8
241
  6
CONTINUOUS
 10
35.16693704363248
 20
25.000000000000011
 30
0.0
 11
35.566937043632571
 21
25.399999999999991
 31
0.0
1001
GRPNAME
1000
PASTMD1Y
  0
LINE
  5
1816
  8
240
  6
CONTINUOUS
 10
30.499999999999972
 20
32.500000000000021
 30
0.0
 11
33.499999999999957
 21
32.500000000000021
 31
0.0
  0
ARC
  5
1817
  8
240
  6
CONTINUOUS
 10
30.499999999999972
 20
30.500000000000011
 30
0.0
 40
2.0
 50
90.0
 51
180.0
  0
LINE
  5
1818
  8
240
  6
CONTINUOUS
 10
37.999999999999972
 20
32.500000000000021
 30
0.0
 11
35.499999999999972
 21
32.500000000000021
 31
0.0
  0
POLYLINE
  5
1819
  8
240
  6
CONTINUOUS
 66
     1
 10
0.0
 20
0.0
 30
0.0
 70
     8
  0
VERTEX
  5
181A
  8
240
  6
CONTINUOUS
 10
33.499999999999957
 20
32.500000000000021
 30
0.0
 70
    32
  0
VERTEX
  5
181B
  8
240
  6
CONTINUOUS
 10
33.809577999999959
 20
32.442872000000001
 30
0.0
 70
    32
  0
VERTEX
  5
181C
  8
240
  6
CONTINUOUS
 10
34.119155999999997
 20
32.389813000000011
 30
0.0
 70
    32
  0
VERTEX
  5
181D
  8
240
  6
CONTINUOUS
 10
34.428733999999963
 20
32.340825000000009
 30
0.0
 70
    32
  0
VERTEX
  5
181E
  8
240
  6
CONTINUOUS
 10
34.738311999999979
 20
32.295906999999993
 30
0.0
 70
    32
  0
SEQEND
  5
181F
  8
240
  6
CONTINUOUS
  0
LINE
  5
1820
  8
240
  6
CONTINUOUS
 10
35.499999999999972
 20
32.500000000000021
 30
0.0
 11
34.738311999999979
 21
32.295906999999993
 31
0.0
  0
LINE
  5
1821
  8
241
  6
CONTINUOUS
 10
56.999451999999977
 20
34.579065999999997
 30
0.0
 11
56.496352999999957
 21
24.979358000000001
 31
0.0
  0
LINE
  5
1822
  8
241
  6
CONTINUOUS
 10
46.227241999999933
 20
25.000000000000011
 30
0.0
 11
46.227241999999933
 21
32.363095000000001
 31
0.0
  0
LINE
  5
1823
  8
241
  6
CONTINUOUS
 10
40.433062956367337
 20
25.399999999999991
 30
0.0
 11
40.148580520929002
 21
27.10000000000003
 31
0.0
1001
GRPNAME
1000
PASTMD1Y
  0
LINE
  5
1824
  8
241
  6
CONTINUOUS
 10
47.817003999999962
 20
29.900375000000011
 30
0.0
 11
55.879044999999962
 21
24.664824000000021
 31
0.0
  0
LINE
  5
1825
  8
240
  6
CONTINUOUS
 10
47.499999999999922
 20
25.00000000000005
 30
0.0
 11
55.362919999999953
 21
25.000000000000011
 31
0.0
  0
LINE
  5
1826
  8
241
  6
CONTINUOUS
 10
40.833062956374889
 20
25.000000000000071
 30
0.0
 11
40.433062956367337
 21
25.399999999999991
 31
0.0
1001
GRPNAME
1000
PASTMD1Y
  0
ARC
  5
1827
  8
241
  6
CONTINUOUS
 10
56.09690099999996
 20
25.00029300000001
 30
0.0
 40
0.4
 50
237.0000000000002
 51
356.99999999999977
  0
LINE
  5
1828
  8
241
  6
CONTINUOUS
 10
47.85326399999996
 20
30.592245999999999
 30
0.0
 11
56.418403999999953
 21
34.956403000000002
 31
0.0
  0
CIRCLE
  5
1829
  8
246
  6
PHANTOM2
 10
53.577253999999961
 20
29.94537900000001
 30
0.0
 40
3.174999999999998
  0
LINE
  5
182A
  8
240
  6
CONTINUOUS
 10
48.535177999999959
 20
33.235178000000012
 30
0.0
 11
55.424403999999967
 21
34.449933999999999
 31
0.0
  0
LINE
  5
182B
  8
240
  6
CONTINUOUS
 10
42.499999999999957
 20
32.500000000000021
 30
0.0
 11
47.799999999999962
 21
32.500000000000021
 31
0.0
  0
POLYLINE
  5
182C
  8
240
  6
CONTINUOUS
 66
     1
 10
0.0
 20
0.0
 30
0.0
 70
     8
  0
VERTEX
  5
182D
  8
240
  6
CONTINUOUS
 10
41.261688999999947
 20
32.295906999999993
 30
0.0
 70
    32
  0
VERTEX
  5
182E
  8
240
  6
CONTINUOUS
 10
41.571266999999928
 20
32.340825000000009
 30
0.0
 70
    32
  0
VERTEX
  5
182F
  8
240
  6
CONTINUOUS
 10
41.880844999999972
 20
32.389813000000011
 30
0.0
 70
    32
  0
VERTEX
  5
1830
  8
240
  6
CONTINUOUS
 10
42.190421999999963
 20
32.442872000000001
 30
0.0
 70
    32
  0
VERTEX
  5
1831
  8
240
  6
CONTINUOUS
 10
42.499999999999957
 20
32.500000000000021
 30
0.0
 70
    32
  0
SEQEND
  5
1832
  8
240
  6
CONTINUOUS
  0
LINE
  5
1833
  8
240
  6
CONTINUOUS
 10
40.499999999999957
 20
32.500000000000021
 30
0.0
 11
41.261688999999947
 21
32.295906999999993
 31
0.0
  0
LINE
  5
1834
  8
240
  6
CONTINUOUS
 10
47.799999999999962
 20
32.500000000000021
 30
0.0
 11
48.535177999999959
 21
33.235178000000012
 31
0.0
  0
ARC
  5
1835
  8
241
  6
CONTINUOUS
 10
48.034859999999952
 20
30.235842999999999
 30
0.0
 40
0.4
 50
116.9999999999999
 51
237.0000000000002
  0
ARC
  5
1836
  8
241
  6
CONTINUOUS
 10
45.499999999999957
 20
30.500000000000011
 30
0.0
 40
2.0
 50
68.677279000000652
 51
90.0
  0
ARC
  5
1837
  8
241
  6
CONTINUOUS
 10
56.599999999999959
 20
34.600000000000009
 30
0.0
 40
0.4
 50
356.99999999999977
 51
116.9999999999999
  0
LINE
  5
18D0
  8
241
  6
CONTINUOUS
 10
0.0000000000000142
 20
14.0
 30
0.0
 11
-0.0000000000000142
 21
-13.99999999999998
 31
0.0
  0
LINE
  5
18D1
  8
240
  6
CONTINUOUS
 10
-30.000000000000028
 20
-13.99999999999998
 30
0.0
 11
-30.000000000000028
 21
14.00000000000003
 31
0.0
  0
LINE
  5
18D2
  8
240
  6
CONTINUOUS
 10
-11.59500001626526
 20
-16.5
 30
0.0
 11
-3.4049989837347781
 21
-16.5
 31
0.0
  0
LINE
  5
18D3
  8
241
  6
CONTINUOUS
 10
-13.038374934939061
 20
-13.99999999999998
 30
0.0
 11
-1.9616240650609751
 21
-13.99999999999998
 31
0.0
  0
LINE
  5
18D4
  8
240
  6
CONTINUOUS
 10
-30.000000000000028
 20
-13.99999999999998
 30
0.0
 11
-13.038374934939061
 21
-13.99999999999998
 31
0.0
  0
LINE
  5
18D5
  8
240
  6
CONTINUOUS
 10
-13.038374934939061
 20
-13.99999999999998
 30
0.0
 11
-11.59500001626526
 21
-16.5
 31
0.0
  0
CIRCLE
  5
18D6
  8
241
  6
CONTINUOUS
 10
-12.99999999999998
 20
0.000000000000016
 30
0.0
 40
4.0
  0
CIRCLE
  5
18D7
  8
241
  6
CONTINUOUS
 10
-12.99999999999998
 20
0.000000000000016
 30
0.0
 40
5.0819999999999981
  0
LINE
  5
18D8
  8
245
  6
CENTER2
 10
-12.99999999999998
 20
7.9560579999999979
 30
0.0
 11
-12.99999999999998
 21
-7.9273049999999854
 31
0.0
  0
LINE
  5
18D9
  8
240
  6
CONTINUOUS
 10
-1.9616240650609751
 20
-13.99999999999998
 30
0.0
 11
-3.4049989837347781
 21
-16.5
 31
0.0
  0
LINE
  5
18DA
  8
240
  6
CONTINUOUS
 10
-1.9616240650609751
 20
-13.99999999999998
 30
0.0
 11
-0.0000000000001137
 21
-13.99999999999998
 31
0.0
  0
LINE
  5
18DB
  8
240
  6
CONTINUOUS
 10
-11.59499984660415
 20
16.500000000000011
 30
0.0
 11
-3.4049991533958841
 21
16.500000000000011
 31
0.0
  0
LINE
  5
18DC
  8
241
  6
CONTINUOUS
 10
-13.038375613583501
 20
13.99999999999998
 30
0.0
 11
-1.9616233864165451
 21
14.0
 31
0.0
  0
LINE
  5
18DD
  8
240
  6
CONTINUOUS
 10
-30.000000000000028
 20
14.00000000000002
 30
0.0
 11
-13.038375613583501
 21
13.99999999999998
 31
0.0
  0
LINE
  5
18DE
  8
240
  6
CONTINUOUS
 10
-13.038375613583501
 20
13.99999999999998
 30
0.0
 11
-11.59499984660415
 21
16.500000000000011
 31
0.0
  0
LINE
  5
18DF
  8
240
  6
CONTINUOUS
 10
-1.9616233864165451
 20
14.0
 30
0.0
 11
-3.4049991533958841
 21
16.500000000000011
 31
0.0
  0
LINE
  5
18E0
  8
240
  6
CONTINUOUS
 10
-1.9616233864165451
 20
14.0
 30
0.0
 11
-0.0000000000004547
 21
14.000000000000041
 31
0.0
  0
LINE
  5
18E1
  8
250
  6
CONTINUOUS
 10
-33.512570105783553
 20
-25.114042995184381
 30
0.0
 11
-23.245903439116891
 21
-25.114042995184381
 31
0.0
  0
LINE
  5
18E2
  8
250
  6
CONTINUOUS
 10
-23.245903439116891
 20
-25.114042995184381
 30
0.0
 11
-17.749674577890691
 21
-15.914370110651181
 31
0.0
  0
LINE
  5
18E3
  8
250
  6
CONTINUOUS
 10
-17.749674577890691
 20
-15.914370110651181
 30
0.0
 11
-16.605958232180232
 21
-13.99999999999998
 31
0.0
  0
LINE
  5
18E4
  8
250
  6
CONTINUOUS
 10
-17.497642972641291
 20
-16.064943223423668
 30
0.0
 11
-16.605958232180232
 21
-13.99999999999998
 31
0.0
  0
LINE
  5
18E5
  8
250
  6
CONTINUOUS
 10
-16.605958232180232
 20
-13.99999999999998
 30
0.0
 11
-18.00170618314009
 21
-15.76379699787868
 31
0.0
  0
TEXT
  5
18E6
  8
250
  6
CONTINUOUS
 10
-33.912570105783551
 20
-23.714042995184371
 30
0.0
 40
2.799999999999998
  1
CK5
  7
YOKO
  0
LINE
  5
18E7
  8
247
  6
CONTINUOUS
 10
5.9999999999977671
 20
-17.750000000000298
 30
0.0
 11
5.9999999999978231
 21
-13.11538461567033
 31
0.0
  0
LINE
  5
18E8
  8
247
  6
CONTINUOUS
 10
3.4999999999978222
 20
-16.954893499988241
 30
0.0
 11
5.5999999999138321
 21
-17.557058810057651
 31
0.0
  0
LINE
  5
18E9
  8
247
  6
CONTINUOUS
 10
4.496153846111822
 20
-16.325151403519332
 30
0.0
 11
4.496153846111822
 21
-17.240536018867338
 31
0.0
  0
ARC
  5
18EA
  8
247
  6
CONTINUOUS
 10
3.884719067291925
 20
-16.087263401947101
 30
0.0
 40
0.3876715809326743
 50
72.997889675292001
 51
172.92416621851231
  0
ARC
  5
18EB
  8
247
  6
CONTINUOUS
 10
3.8052231310258389
 20
-16.38247755680441
 30
0.0
 40
0.6933047965358772
 50
4.7429368522013924
 51
73.849226273266297
1001
GENIUS_GENOBJ-N-FIL_13
1002
{
1000
OWNER
1000
GEN
1002
}
1001
GENIUS_GENODEF_13
1002
{
1000
HIER
1070
     0
1002
}
1002
{
1000
MANEDIT
1070
     0
1002
}
1002
{
1000
NOSEL
1070
     0
1002
}
1002
{
1000
BEHIND
1070
     0
1002
}
1002
{
1000
OTHER
1070
     0
1002
}
1002
{
1000
REACTOR
1002
}
  0
LINE
  5
18EC
  8
247
  6
CONTINUOUS
 10
5.5999999999138321
 20
-16.641674194709658
 30
0.0
 11
5.5999999999138321
 21
-17.557058810057651
 31
0.0
  0
LINE
  5
18ED
  8
247
  6
CONTINUOUS
 10
3.4999999999978222
 20
-16.954893499988241
 30
0.0
 11
3.4999999999978222
 21
-16.039508884640249
 31
0.0
  0
ARC
  5
18EE
  8
247
  6
CONTINUOUS
 10
4.8874169627656991
 20
-16.378306476267131
 30
0.0
 40
0.394857301075386
 50
65.990941652528832
 51
172.26344345906949
  0
ARC
  5
18EF
  8
247
  6
CONTINUOUS
 10
4.8912003273303952
 20
-16.712446610427211
 30
0.0
 40
0.7123241612361686
 50
5.7019851642581392
 51
77.277338436822262
1001
GENIUS_GENOBJ-N-FIL_13
1002
{
1000
OWNER
1000
GEN
1002
}
1001
GENIUS_GENODEF_13
1002
{
1000
HIER
1070
     0
1002
}
1002
{
1000
MANEDIT
1070
     0
1002
}
1002
{
1000
NOSEL
1070
     0
1002
}
1002
{
1000
BEHIND
1070
     0
1002
}
1002
{
1000
OTHER
1070
     0
1002
}
1002
{
1000
REACTOR
1002
}
  0
LINE
  5
18F0
  8
247
  6
CONTINUOUS
 10
5.5999999999138321
 20
-15.68398188706367
 30
0.0
 11
3.4999999999978262
 21
-15.08181657699426
 31
0.0
  0
LINE
  5
18F1
  8
247
  6
CONTINUOUS
 10
3.4999999999978262
 20
-13.585662730908259
 30
0.0
 11
3.4999999999978262
 21
-13.98167836430388
 31
0.0
  0
LINE
  5
18F2
  8
247
  6
CONTINUOUS
 10
5.5999999999138321
 20
-14.60873965394426
 30
0.0
 11
5.5999999999138321
 21
-14.177970423192271
 31
0.0
  0
ARC
  5
18F3
  8
247
  6
CONTINUOUS
 10
4.9582995950811872
 20
-13.381816577070261
 30
0.0
 40
1.576855057639547
 50
202.35948814152729
 51
254.993248542846
  0
ARC
  5
18F4
  8
247
  6
CONTINUOUS
 10
4.0658188585359634
 20
-13.847511366133521
 30
0.0
 40
0.6234706797009447
 50
94.994589319075374
 51
155.16632895730359
1001
GENIUS_GENOBJ-N-FIL_13
1002
{
1000
OWNER
1000
GEN
1002
}
1001
GENIUS_GENODEF_13
1002
{
1000
HIER
1070
     0
1002
}
1002
{
1000
MANEDIT
1070
     0
1002
}
1002
{
1000
NOSEL
1070
     0
1002
}
1002
{
1000
BEHIND
1070
     0
1002
}
1002
{
1000
OTHER
1070
     0
1002
}
1002
{
1000
REACTOR
1002
}
  0
ARC
  5
18F5
  8
247
  6
CONTINUOUS
 10
4.6621021219672674
 20
-14.44418395103307
 30
0.0
 40
0.9749472149106983
 50
15.846096555779869
 51
82.325137004169193
  0
ARC
  5
18F6
  8
247
  6
CONTINUOUS
 10
4.8714704019688941
 20
-14.035211638772511
 30
0.0
 40
0.9271945638692009
 50
249.71360167049701
 51
321.78874565640962
1001
GENIUS_GENOBJ-N-FIL_13
1002
{
1000
OWNER
1000
GEN
1002
}
1001
GENIUS_GENODEF_13
1002
{
1000
HIER
1070
     0
1002
}
1002
{
1000
MANEDIT
1070
     0
1002
}
1002
{
1000
NOSEL
1070
     0
1002
}
1002
{
1000
BEHIND
1070
     0
1002
}
1002
{
1000
OTHER
1070
     0
1002
}
1002
{
1000
REACTOR
1002
}
  0
LINE
  5
18F7
  8
247
  6
CONTINUOUS
 10
4.792307692253801
 20
-13.962585807816261
 30
0.0
 11
4.792307692253801
 21
-13.47797042322026
 31
0.0
  0
ARC
  5
18F8
  8
247
  6
CONTINUOUS
 10
4.7499999999978231
 20
-17.750000000000298
 30
0.0
 40
1.25
 50
180.0
 51
0.0
  0
LINE
  5
18F9
  8
247
  6
CONTINUOUS
 10
3.4999999999978222
 20
-17.750000000000298
 30
0.0
 11
3.4999999999978222
 21
-17.3038461539143
 31
0.0
  0
ARC
  5
18FA
  8
247
  6
CONTINUOUS
 10
4.7499999999978231
 20
-13.11538461567031
 30
0.0
 40
1.25
 50
0.0
 51
180.0
  0
VIEWPORT
  5
22
 67
     1
  8
0
 10
261.51769911504419
 20
148.5
 30
0.0
 40
523.0353982300885
 41
297.0
 68
     1
 69
     1
1001
ACAD
1000
MVIEW
1002
{
1070
    16
1010
0.0
1020
0.0
1030
0.0
1010
0.0
1020
0.0
1030
1.0
1040
0.0
1040
297.0
1040
261.51769911504419
1040
148.5
1040
50.0
1040
0.0
1040
0.0
1070
     0
1070
   100
1070
     1
1070
     1
1070
     0
1070
     0
1070
     0
1070
     0
1040
0.0
1040
0.0
1040
0.0
1040
1.0
1040
1.0
1040
10.0
1040
10.0
1070
     0
1002
{
1002
}
1002
}
1001
GENIUS_GENODEF_13
1002
{
1000
HIER
1070
     0
1002
}
1002
{
1000
MANEDIT
1070
     0
1002
}
1002
{
1000
NOSEL
1070
     0
1002
}
1002
{
1000
BEHIND
1070
     0
1002
}
1002
{
1000
OTHER
1070
     0
1002
}
1002
{
1000
REACTOR
1002
}
1001
GENIUS_GENOBJ-N-SDF_13
1002
{
1000
OWNER
1000
GEN
1002
}
1001
GENIUS_GENSCREG_15
1000
PF
1040
1.0
1000
DF
1040
1.0
1000
MIN
1011
0.0
1021
0.0
1031
0.0
1021
0.0
1031
0.0
1000
MAX
1011
523.0353982300885
1021
0.0
1031
0.0
1021
297.0
1031
0.0
1000
FLAGS
1070
     4
  0
ENDSEC
  0
EOF
