  0
SECTION
  2
HEADER
  9
$ACADVER
  1
AC1009
  9
$INSBASE
 10
0.0
 20
0.0
 30
0.0
  9
$EXTMIN
 10
-29.286115517525491
 20
-21.691245488580929
 30
0.0
  9
$EXTMAX
 10
84.0
 20
54.000000000000007
 30
0.0
  9
$LIMMIN
 10
0.0
 20
0.0
  9
$LIMMAX
 10
297.0
 20
210.0
  9
$ORTHOMODE
 70
     1
  9
$REGENMODE
 70
     1
  9
$FILLMODE
 70
     1
  9
$QTEXTMODE
 70
     0
  9
$MIRRTEXT
 70
     1
  9
$DRAGMODE
 70
     2
  9
$LTSCALE
 40
10.0
  9
$OSMODE
 70
     7
  9
$ATTMODE
 70
     1
  9
$TEXTSIZE
 40
3.0
  9
$TRACEWID
 40
1.0
  9
$TEXTSTYLE
  7
YOKO
  9
$CLAYER
  8
240
  9
$CELTYPE
  6
BYLAYER
  9
$CECOLOR
 62
   256
  9
$DIMSCALE
 40
1.0
  9
$DIMASZ
 40
2.2299999999999991
  9
$DIMEXO
 40
0.5
  9
$DIMDLI
 40
2.5
  9
$DIMRND
 40
0.0
  9
$DIMDLE
 40
0.0
  9
$DIMEXE
 40
1.0
  9
$DIMTP
 40
0.0
  9
$DIMTM
 40
0.0
  9
$DIMTXT
 40
3.0
  9
$DIMCEN
 40
0.0
  9
$DIMTSZ
 40
0.0
  9
$DIMTOL
 70
     0
  9
$DIMLIM
 70
     0
  9
$DIMTIH
 70
     0
  9
$DIMTOH
 70
     0
  9
$DIMSE1
 70
     0
  9
$DIMSE2
 70
     0
  9
$DIMTAD
 70
     3
  9
$DIMZIN
 70
     8
  9
$DIMBLK
  1
OPEN
  9
$DIMASO
 70
     1
  9
$DIMSHO
 70
     1
  9
$DIMPOST
  1

  9
$DIMAPOST
  1

  9
$DIMALT
 70
     0
  9
$DIMALTD
 70
     2
  9
$DIMALTF
 40
25.399999999999999
  9
$DIMLFAC
 40
1.0
  9
$DIMTOFL
 70
     1
  9
$DIMTVP
 40
0.0
  9
$DIMTIX
 70
     0
  9
$DIMSOXD
 70
     0
  9
$DIMSAH
 70
     1
  9
$DIMBLK1
  1

  9
$DIMBLK2
  1

  9
$DIMSTYLE
  2
BIGT
  9
$DIMCLRD
 70
   256
  9
$DIMCLRE
 70
   256
  9
$DIMCLRT
 70
    40
  9
$DIMTFAC
 40
1.0
  9
$DIMGAP
 40
1.0
  9
$LUNITS
 70
     2
  9
$LUPREC
 70
     2
  9
$SKETCHINC
 40
1.0
  9
$FILLETRAD
 40
0.0
  9
$AUNITS
 70
     0
  9
$AUPREC
 70
     3
  9
$MENU
  1
.
  9
$ELEVATION
 40
0.0
  9
$PELEVATION
 40
0.0
  9
$THICKNESS
 40
0.0
  9
$LIMCHECK
 70
     0
  9
$BLIPMODE
 70
     0
  9
$CHAMFERA
 40
10.0
  9
$CHAMFERB
 40
10.0
  9
$SKPOLY
 70
     0
  9
$TDCREATE
 40
2452203.359927292
  9
$TDUPDATE
 40
2460549.5754781719
  9
$TDINDWG
 40
0.128907419
  9
$TDUSRTIMER
 40
0.1289057755
  9
$USRTIMER
 70
     1
  9
$ANGBASE
 50
0.0
  9
$ANGDIR
 70
     0
  9
$PDMODE
 70
    35
  9
$PDSIZE
 40
-5.0
  9
$PLINEWID
 40
0.0
  9
$COORDS
 70
     1
  9
$SPLFRAME
 70
     0
  9
$SPLINETYPE
 70
     6
  9
$SPLINESEGS
 70
     8
  9
$ATTDIA
 70
     1
  9
$ATTREQ
 70
     1
  9
$HANDLING
 70
     1
  9
$HANDSEED
  5
1BE3
  9
$SURFTAB1
 70
     6
  9
$SURFTAB2
 70
     6
  9
$SURFTYPE
 70
     6
  9
$SURFU
 70
     6
  9
$SURFV
 70
     6
  9
$UCSNAME
  2

  9
$UCSORG
 10
0.0
 20
0.0
 30
0.0
  9
$UCSXDIR
 10
1.0
 20
0.0
 30
0.0
  9
$UCSYDIR
 10
0.0
 20
1.0
 30
0.0
  9
$PUCSNAME
  2

  9
$PUCSORG
 10
0.0
 20
0.0
 30
0.0
  9
$PUCSXDIR
 10
1.0
 20
0.0
 30
0.0
  9
$PUCSYDIR
 10
0.0
 20
1.0
 30
0.0
  9
$USERI1
 70
     1
  9
$USERI2
 70
     0
  9
$USERI3
 70
     0
  9
$USERI4
 70
     0
  9
$USERI5
 70
     0
  9
$USERR1
 40
0.0
  9
$USERR2
 40
0.0
  9
$USERR3
 40
0.0
  9
$USERR4
 40
0.0
  9
$USERR5
 40
0.0
  9
$WORLDVIEW
 70
     1
  9
$SHADEDGE
 70
     3
  9
$SHADEDIF
 70
    70
  9
$TILEMODE
 70
     1
  9
$MAXACTVP
 70
    16
  9
$PLIMCHECK
 70
     0
  9
$PEXTMIN
 10
1.0000000000000000E+020
 20
1.0000000000000000E+020
 30
1.0000000000000000E+020
  9
$PEXTMAX
 10
-1.0000000000000000E+020
 20
-1.0000000000000000E+020
 30
-1.0000000000000000E+020
  9
$PLIMMIN
 10
0.0
 20
0.0
  9
$PLIMMAX
 10
420.0
 20
297.0
  9
$UNITMODE
 70
     0
  9
$VISRETAIN
 70
     0
  9
$PLINEGEN
 70
     0
  9
$PSLTSCALE
 70
     1
  0
ENDSEC
  0
SECTION
  2
TABLES
  0
TABLE
  2
VPORT
 70
     1
  0
VPORT
  2
*ACTIVE
 70
     0
 10
0.0
 20
0.0
 11
1.0
 21
1.0
 12
50.824327740457697
 22
-1.0403435416768181
 13
0.0
 23
0.0
 14
7.0
 24
7.0
 15
7.0
 25
7.0
 16
0.0
 26
0.0
 36
1.0
 17
0.0
 27
0.0
 37
0.0
 40
164.7182465896
 41
2.0682680151706689
 42
50.0
 43
0.0
 44
0.0
 50
0.0
 51
0.0
 71
     0
 72
  2000
 73
     1
 74
     0
 75
     1
 76
     1
 77
     0
 78
     0
  0
ENDTAB
  0
TABLE
  2
LTYPE
 70
    18
  0
LTYPE
  2
CONTINUOUS
 70
     0
  3
Solid line
 72
    65
 73
     0
 40
0.0
  0
LTYPE
  2
CENTER2
 70
     0
  3
___ _ ___ _ ___ _ ___ _ ___ _ ___ _ ___ _ ___ _
 72
    65
 73
     4
 40
1.125
 49
0.75
 49
-0.125
 49
0.125
 49
-0.125
  0
LTYPE
  2
PHANTOM2
 70
     0
  3
___ _ _ ___ _ _ ___ _ _ ___ _ _ ___ _ _ ___ _ _
 72
    65
 73
     6
 40
1.25
 49
0.625
 49
-0.125
 49
0.125
 49
-0.125
 49
0.125
 49
-0.125
  0
LTYPE
  2
HIDDEN
 70
     0
  3
Hidden __ __ __ __ __ __ __ __ __ __ __ __ __ _
 72
    65
 73
     2
 40
9.5249999999999986
 49
6.349999999999997
 49
-3.174999999999998
  0
LTYPE
  2
CENTER
 70
     0
  3
Center ____ _ ____ _ ____ _ ____ _ ____ _ ____
 72
    65
 73
     4
 40
50.799999999999997
 49
31.75
 49
-6.349999999999997
 49
6.349999999999997
 49
-6.349999999999997
  0
LTYPE
  2
AMCONSTR
 70
     0
  3
_______________________
 72
    65
 73
     2
 40
9999.0
 49
9999.0
 49
0.0
  0
LTYPE
  2
HIDDEN2
 70
     0
  3
Hidden (.5x) _ _ _ _ _ _ _ _ _ _ _ _ _ _ _ _ _
 72
    65
 73
     2
 40
0.1875
 49
0.125
 49
-0.0625
  0
LTYPE
  2
AMZIGZAG2
 70
     0
  3
/\/-/\/-/\/-/\/-/\/-/\/
 72
    65
 73
     2
 40
0.4401
 49
0.0001
 49
-0.4400000000000002
  0
LTYPE
  2
ACANSTGB
 70
     0
  3
__ . . __ . .
 72
    65
 73
     6
 40
0.35433070866
 49
0.15748031496
 49
-0.03937007874
 49
0.03937007874
 49
-0.03937007874
 49
0.03937007874
 49
-0.03937007874
  0
LTYPE
  2
ACANSTGL
 70
     0
  3
_ _ _ _ _
 72
    65
 73
     2
 40
0.11811023622
 49
0.07874015748
 49
-0.03937007874
  0
ENDTAB
  0
TABLE
  2
LAYER
 70
     9
  0
LAYER
  2
0
 70
     0
 62
     7
  6
CONTINUOUS
  0
LAYER
  2
240
 70
     0
 62
     4
  6
CONTINUOUS
  0
LAYER
  2
241
 70
     0
 62
   211
  6
CONTINUOUS
  0
LAYER
  2
242
 70
     0
 62
     3
  6
CONTINUOUS
  0
LAYER
  2
245
 70
     0
 62
     2
  6
CENTER2
  0
LAYER
  2
246
 70
     0
 62
     3
  6
PHANTOM2
  0
LAYER
  2
247
 70
     0
 62
    60
  6
CONTINUOUS
  0
LAYER
  2
250
 70
     0
 62
     3
  6
CONTINUOUS
  0
LAYER
  2
DEFPOINTS
 70
     0
 62
     7
  6
CONTINUOUS
  0
ENDTAB
  0
TABLE
  2
STYLE
 70
     6
  0
STYLE
  2
STANDARD
 70
     0
 40
0.0
 41
1.0
 50
0.0
 71
     0
 42
3.0
  3
romans.shx
  4
BIGFONT.SHX
  0
STYLE
  2
YOKO
 70
     0
 40
0.0
 41
1.0
 50
0.0
 71
     0
 42
3.0
  3
romans.shx
  4
extfont.shx
  0
STYLE
  2
ACANSGDT
 70
     0
 40
0.0
 41
1.0
 50
0.0
 71
     0
 42
3.0
  3
amgdt.shx
  4

  0
ENDTAB
  0
TABLE
  2
VIEW
 70
     0
  0
ENDTAB
  0
TABLE
  2
UCS
 70
     0
  0
ENDTAB
  0
TABLE
  2
APPID
 70
    26
  0
APPID
  2
ACAD
 70
     0
  0
APPID
  2
ACADANNOTATIVE
 70
     0
  0
APPID
  2
GLOBAL
 70
     0
  0
APPID
  2
DETAIL
 70
     0
  0
APPID
  2
GRPNAME
 70
     0
  0
APPID
  2
GPARA
 70
     0
  0
APPID
  2
ITEMNAME
 70
     0
  0
APPID
  2
HATCH_TYPE
 70
     0
  0
APPID
  2
HATCH_DISPLAY
 70
     0
  0
APPID
  2
HATCH_DISTANCE
 70
     0
  0
APPID
  2
MCAD_NO_VIS
 70
     0
  0
APPID
  2
ACAD_TEMP_GRAPHIC
 70
     0
  0
APPID
  2
AD_DRAW
 70
     0
  0
APPID
  2
ACATTRIBSERVICES
 70
     0
  0
APPID
  2
DESIGNERASSEMBLIES
 70
     0
  0
APPID
  2
ACADM_DIM_EDIT
 70
     0
  0
APPID
  2
AMDT_DM_ADJ
 70
     0
  0
APPID
  2
GENIUS_GENSCREG_15
 70
     0
  0
APPID
  2
GENIUS_GENOBJ-N-SDF_13
 70
     0
  0
APPID
  2
GENIUS_GENODEF_13
 70
     0
  0
APPID
  2
ACAD_DSTYLE_DIMJAG
 70
     0
  0
APPID
  2
ACAD_DSTYLE_DIMBREAK
 70
     0
  0
APPID
  2
ACAD_NAV_VCDISPLAY
 70
     0
  0
APPID
  2
GENIUS_GENOBJ-N-FIL_13
 70
     0
  0
APPID
  2
ACAD_MLEADERVER
 70
     0
  0
APPID
  2
ACAD_EXEMPT_FROM_CAD_STANDARDS
 70
     0
  0
ENDTAB
  0
TABLE
  2
DIMSTYLE
 70
    10
  0
DIMSTYLE
  2
STANDARD
 70
     0
  3

  4

  5

  6

  7

 40
1.0
 41
0.18
 42
0.0625
 43
0.38
 44
0.18
 45
0.0
 46
0.0
 47
0.0
 48
0.0
140
0.18
141
0.09
142
0.0
143
25.399999999999999
144
1.0
145
0.0
146
1.0
147
0.09
 71
     0
 72
     0
 73
     1
 74
     1
 75
     0
 76
     0
 77
     0
 78
     0
170
     0
171
     2
172
     0
173
     0
174
     0
175
     0
176
     0
177
     0
178
     0
  0
DIMSTYLE
  2
BIGT
 70
     0
  3

  4

  5

  6

  7

 40
1.0
 41
2.2299999999999991
 42
0.5
 43
2.5
 44
1.0
 45
0.0
 46
0.0
 47
0.0
 48
0.0
140
3.5
141
0.0
142
0.0
143
25.399999999999999
144
1.0
145
0.0
146
1.0
147
1.0
 71
     0
 72
     0
 73
     0
 74
     0
 75
     0
 76
     0
 77
     3
 78
     9
170
     0
171
     2
172
     1
173
     0
174
     0
175
     0
176
   256
177
   256
178
    40
  0
DIMSTYLE
  2
AM_ANSI
 70
     0
  3

  4
mm
  5

  6

  7

 40
1.0
 41
0.12
 42
0.05
 43
0.5
 44
0.1
 45
0.0
 46
0.0
 47
0.1
 48
0.1
140
0.12
141
0.0
142
0.0
143
25.399999999999999
144
1.0
145
0.0
146
0.71
147
0.06
 71
     0
 72
     0
 73
     1
 74
     1
 75
     0
 76
     0
 77
     0
 78
     7
170
     0
171
     2
172
     0
173
     0
174
     0
175
     0
176
   256
177
   256
178
     2
  0
DIMSTYLE
  2
AM_ANSI$3
 70
     0
  3

  4
mm
  5

  6

  7

 40
1.0
 41
0.12
 42
0.05
 43
0.5
 44
0.1
 45
0.0
 46
0.0
 47
0.1
 48
0.1
140
0.12
141
0.0
142
0.0
143
25.399999999999999
144
1.0
145
0.0
146
0.71
147
0.06
 71
     0
 72
     0
 73
     1
 74
     1
 75
     0
 76
     0
 77
     0
 78
     7
170
     0
171
     2
172
     0
173
     0
174
     0
175
     0
176
   256
177
   256
178
     2
  0
DIMSTYLE
  2
AM_ANSI$4
 70
     0
  3

  4
mm
  5

  6

  7

 40
1.0
 41
0.12
 42
0.05
 43
0.5
 44
0.1
 45
0.0
 46
0.0
 47
0.1
 48
0.1
140
0.12
141
0.0
142
0.0
143
25.399999999999999
144
1.0
145
0.0
146
0.71
147
0.06
 71
     0
 72
     0
 73
     1
 74
     1
 75
     0
 76
     0
 77
     0
 78
     7
170
     0
171
     2
172
     0
173
     0
174
     0
175
     0
176
   256
177
   256
178
     2
  0
DIMSTYLE
  2
AM_ANSI$7
 70
     0
  3

  4
mm
  5

  6

  7

 40
1.0
 41
0.12
 42
0.05
 43
0.5
 44
0.1
 45
0.0
 46
0.0
 47
0.1
 48
0.1
140
0.12
141
0.0
142
0.0
143
25.399999999999999
144
1.0
145
0.0
146
0.71
147
0.06
 71
     0
 72
     0
 73
     1
 74
     1
 75
     0
 76
     0
 77
     0
 78
     7
170
     0
171
     2
172
     0
173
     0
174
     0
175
     0
176
   256
177
   256
178
     2
  0
DIMSTYLE
  2
AM_ANSI$SF
 70
     0
  3

  4
mm
  5

  6

  7

 40
1.0
 41
0.12
 42
0.05
 43
0.5
 44
0.1
 45
0.0
 46
0.0
 47
0.1
 48
0.1
140
0.12
141
0.0
142
0.0
143
25.399999999999999
144
1.0
145
0.0
146
0.71
147
0.06
 71
     0
 72
     0
 73
     1
 74
     1
 75
     1
 76
     1
 77
     0
 78
     7
170
     0
171
     2
172
     0
173
     0
174
     0
175
     0
176
   256
177
   256
178
     2
  0
DIMSTYLE
  2
AM_ANSI$SH
 70
     0
  3

  4
mm
  5

  6

  7

 40
1.0
 41
0.12
 42
0.05
 43
0.5
 44
0.1
 45
0.0
 46
0.0
 47
0.1
 48
0.1
140
0.12
141
0.0
142
0.0
143
25.399999999999999
144
1.0
145
0.0
146
0.71
147
0.06
 71
     0
 72
     0
 73
     1
 74
     1
 75
     1
 76
     1
 77
     0
 78
     7
170
     0
171
     2
172
     0
173
     1
174
     0
175
     0
176
   256
177
   256
178
     2
  0
ENDTAB
  0
ENDSEC
  0
SECTION
  2
BLOCKS
  0
BLOCK
  8
0
  2
$MODEL_SPACE
 70
     0
 10
0.0
 20
0.0
 30
0.0
  3
$MODEL_SPACE
  1

  0
ENDBLK
  5
1AC9
  8
0
  0
BLOCK
 67
     1
  8
0
  2
$PAPER_SPACE
 70
     0
 10
0.0
 20
0.0
 30
0.0
  3
$PAPER_SPACE
  1

  0
ENDBLK
  5
1AC5
 67
     1
  8
0
  0
BLOCK
  8
0
  2
_OPEN
 70
     0
 10
0.0
 20
0.0
 30
0.0
  3
_OPEN
  1

  0
LINE
  5
595
  8
0
  6
BYBLOCK
 62
     0
 10
-1.0
 20
0.1666666666666666
 30
0.0
 11
0.0
 21
0.0
 31
0.0
  0
LINE
  5
596
  8
0
  6
BYBLOCK
 62
     0
 10
-1.0
 20
-0.1666666666666666
 30
0.0
 11
0.0
 21
0.0
 31
0.0
  0
LINE
  5
597
  8
0
  6
BYBLOCK
 62
     0
 10
0.0
 20
0.0
 30
0.0
 11
-1.0
 21
0.0
 31
0.0
  0
ENDBLK
  5
599
  8
0
  0
BLOCK
  8
0
  2
_ACMFILLEDHALF
 70
     0
 10
0.0
 20
0.0
 30
0.0
  3
_ACMFILLEDHALF
  1

  0
TRACE
  5
187D
  8
240
 62
     0
 10
-0.8
 20
0.0
 30
0.0
 11
-1.0
 21
0.166666666
 31
0.0
 12
0.0
 22
0.0
 32
0.0
 13
0.0
 23
0.0
 33
0.0
  0
LINE
  5
187E
  8
240
 62
     0
 10
-1.0
 20
0.0
 30
0.0
 11
-0.8
 21
0.0
 31
0.0
  0
ENDBLK
  5
187C
  8
0
  0
ENDSEC
  0
SECTION
  2
ENTITIES
  0
TEXT
  5
81D
  8
241
  6
CONTINUOUS
 10
-28.0
 20
49.0
 30
0.0
 40
5.0
  1
EWN41-74CKB4
  7
YOKO
 11
-28.0
 21
49.0
 31
0.0
 73
     1
  0
LINE
  5
15B8
  8
250
  6
CONTINUOUS
 10
49.701913253791453
 20
36.309285309416218
 30
0.0
 11
84.0
 21
36.309285309416218
 31
0.0
1001
ITEMNAME
1000
LNSP2
  0
TEXT
  5
16BF
  8
250
  6
CONTINUOUS
 10
52.130484682362912
 20
37.309285309416218
 30
0.0
 40
3.0
  1
ENH4-1,TC11
  7
YOKO
1001
ITEMNAME
1000
LNSP3
1001
ACAD
1000
MTEXTBEGIN
1070
    73
1070
     1
1070
    44
1040
1.0
1070
    74
1070
     0
1000
MTEXTEND
  0
LINE
  5
16C2
  8
250
  6
CONTINUOUS
 10
46.918403800104201
 20
26.999999609675339
 30
0.0
 11
57.000000000000007
 21
26.999999609675339
 31
0.0
  0
LINE
  5
16C3
  8
250
  6
CONTINUOUS
 10
56.000000000000007
 20
24.769999609675349
 30
0.0
 11
56.000000000000007
 21
-12.71428571428571
 31
0.0
  0
LINE
  5
16C6
  8
250
  6
CONTINUOUS
 10
0.0
 20
17.699999999999982
 30
0.0
 11
0.0000000000000012
 21
36.0
 31
0.0
  0
LINE
  5
16C7
  8
250
  6
CONTINUOUS
 10
47.000000000000007
 20
27.143597
 30
0.0
 11
47.000000000000007
 21
36.0
 31
0.0
  0
LINE
  5
16C8
  8
250
  6
CONTINUOUS
 10
2.2299999999999991
 20
35.0
 30
0.0
 11
44.770000000000017
 21
35.0
 31
0.0
  0
TEXT
  5
16D3
  8
250
  6
CONTINUOUS
 10
20.64285714285716
 20
36.0
 30
0.0
 40
3.0
  1
47
1001
ACAD
1000
MTEXTBEGIN
1070
    73
1070
     1
1070
    44
1040
1.0
1070
    74
1070
     0
1000
MTEXTEND
  0
LINE
  5
16D4
  8
250
  6
CONTINUOUS
 10
44.77000000000001
 20
35.37166666666667
 30
0.0
 11
47.000000000000007
 21
35.0
 31
0.0
  0
LINE
  5
16D5
  8
250
  6
CONTINUOUS
 10
44.77000000000001
 20
34.62833333333333
 30
0.0
 11
47.000000000000007
 21
35.0
 31
0.0
  0
LINE
  5
16D6
  8
250
  6
CONTINUOUS
 10
47.000000000000007
 20
35.0
 30
0.0
 11
44.77000000000001
 21
35.0
 31
0.0
  0
LINE
  5
16D7
  8
250
  6
CONTINUOUS
 10
2.2299999999999991
 20
34.62833333333333
 30
0.0
 11
0.0000000000000011
 21
35.0
 31
0.0
  0
LINE
  5
16D8
  8
250
  6
CONTINUOUS
 10
2.2299999999999991
 20
35.371666666666663
 30
0.0
 11
0.0000000000000011
 21
35.0
 31
0.0
  0
LINE
  5
16D9
  8
250
  6
CONTINUOUS
 10
0.0000000000000011
 20
35.0
 30
0.0
 11
2.2299999999999991
 21
35.0
 31
0.0
  0
TEXT
  5
16DA
  8
250
  6
CONTINUOUS
 10
53.714285714285701
 20
-12.28571428571427
 30
0.0
 40
3.0
  1
(
 50
90.0
1001
ACAD
1000
MTEXTBEGIN
1070
    73
1070
     1
1070
    44
1040
1.0
1070
    74
1070
     0
1000
MTEXTEND
  0
TEXT
  5
16DB
  8
250
  6
CONTINUOUS
 10
53.714285714285701
 20
-10.28571428571427
 30
0.0
 40
3.0
  1
\U+2205
 50
90.0
1001
ACAD
1000
MTEXTBEGIN
1070
    73
1070
     1
1070
    44
1040
1.0
1070
    74
1070
     0
1000
MTEXTEND
  0
TEXT
  5
16DC
  8
250
  6
CONTINUOUS
 10
53.714285714285701
 20
-7.5714285714285579
 30
0.0
 40
3.0
  1
41~
 50
90.0
1001
ACAD
1000
MTEXTBEGIN
1070
    73
1070
     1
1070
    44
1040
1.0
1070
    74
1070
     0
1000
MTEXTEND
  0
TEXT
  5
16DD
  8
250
  6
CONTINUOUS
 10
53.714285714285701
 20
1.8571428571428701
 30
0.0
 40
3.0
  1
\U+2205
 50
90.0
1001
ACAD
1000
MTEXTBEGIN
1070
    73
1070
     1
1070
    44
1040
1.0
1070
    74
1070
     0
1000
MTEXTEND
  0
TEXT
  5
16DE
  8
250
  6
CONTINUOUS
 10
53.714285714285701
 20
4.5714285714285854
 30
0.0
 40
3.0
  1
54)
 50
90.0
1001
ACAD
1000
MTEXTBEGIN
1070
    73
1070
     1
1070
    44
1040
1.0
1070
    74
1070
     0
1000
MTEXTEND
  0
LINE
  5
16DF
  8
250
  6
CONTINUOUS
 10
55.62833333333333
 20
24.769999609675349
 30
0.0
 11
56.000000000000007
 21
26.999999609675339
 31
0.0
  0
LINE
  5
16E0
  8
250
  6
CONTINUOUS
 10
56.371666666666677
 20
24.769999609675349
 30
0.0
 11
56.000000000000007
 21
26.999999609675339
 31
0.0
  0
LINE
  5
16E1
  8
250
  6
CONTINUOUS
 10
56.000000000000007
 20
26.999999609675339
 30
0.0
 11
56.000000000000007
 21
24.769999609675349
 31
0.0
  0
LINE
  5
16E2
  8
250
  6
CONTINUOUS
 10
43.266350022180177
 20
27.70502314885503
 30
0.0
 11
49.701913253791453
 21
36.309285309416218
 31
0.0
1001
ACAD
1000
DSTYLE
1002
{
1070
     6
1000
OPEN
1070
    78
1070
     8
1070
   140
1040
3.0
1070
   173
1070
     1
1002
}
  0
LINE
  5
16E3
  8
250
  6
CONTINUOUS
 10
43.563975874291593
 20
27.482413707756798
 30
0.0
 11
41.930693375590771
 21
25.919268036186558
 31
0.0
  0
LINE
  5
16E4
  8
250
  6
CONTINUOUS
 10
42.968724170068761
 20
27.927632589953252
 30
0.0
 11
41.930693375590771
 21
25.919268036186558
 31
0.0
  0
LINE
  5
16E5
  8
250
  6
CONTINUOUS
 10
41.930693375590771
 20
25.919268036186558
 30
0.0
 11
43.266350022180177
 21
27.70502314885503
 31
0.0
  0
LINE
  5
18A0
  8
241
  6
CONTINUOUS
 10
22.800000000000011
 20
18.943597
 30
0.0
 11
28.000000000000959
 21
18.943597
 31
0.0
  0
LINE
  5
18A1
  8
241
  6
CONTINUOUS
 10
26.205771999999989
 20
15.4
 30
0.0
 11
22.5
 21
15.4
 31
0.0
  0
LINE
  5
18A2
  8
241
  6
CONTINUOUS
 10
40.449999999999989
 20
-16.099999999999991
 30
0.0
 11
20.550000000000011
 21
-16.099999999999991
 31
0.0
  0
LINE
  5
18A3
  8
240
  6
CONTINUOUS
 10
27.267692000000011
 20
-17.899999999999999
 30
0.0
 11
20.550000000000011
 21
-16.099999999999991
 31
0.0
  0
LINE
  5
18A4
  8
245
  6
CENTER2
 10
-27.90558
 20
0.0
 30
0.0
 11
44.711945000000007
 21
0.0
 31
0.0
  0
LINE
  5
18A6
  8
241
  6
CONTINUOUS
 10
0.3000000000000114
 20
-17.5
 30
0.0
 11
0.3000000000000114
 21
17.5
 31
0.0
  0
LINE
  5
18C2
  8
240
  6
CONTINUOUS
 10
-0.0000000000000426
 20
-11.000000000000011
 30
0.0
 11
0.0
 21
-17.20000000000001
 31
0.0
  0
LINE
  5
18C3
  8
241
  6
CONTINUOUS
 10
12.0
 20
19.0
 30
0.0
 11
12.0
 21
-19.0
 31
0.0
  0
LINE
  5
18C4
  8
240
  6
CONTINUOUS
 10
20.0
 20
-16.099999999999991
 30
0.0
 11
18.325685000000021
 21
-19.0
 31
0.0
  0
LINE
  5
18C5
  8
240
  6
CONTINUOUS
 10
0.3000000000000114
 20
-19.0
 30
0.0
 11
18.325685000000021
 21
-19.0
 31
0.0
  0
LINE
  5
18C6
  8
240
  6
CONTINUOUS
 10
0.3000000000000114
 20
-19.0
 30
0.0
 11
0.3000000000000114
 21
-17.5
 31
0.0
  0
LINE
  5
18C8
  8
240
  6
CONTINUOUS
 10
0.3000000000000114
 20
-17.5
 30
0.0
 11
0.0
 21
-17.20000000000001
 31
0.0
  0
LINE
  5
192D
  8
240
  6
CONTINUOUS
 10
20.550000000000011
 20
-16.099999999999991
 30
0.0
 11
20.0
 21
-16.099999999999991
 31
0.0
  0
LINE
  5
193C
  8
240
  6
CONTINUOUS
 10
22.5
 20
15.4
 30
0.0
 11
22.5
 21
18.643597000000021
 31
0.0
  0
LINE
  5
193D
  8
240
  6
CONTINUOUS
 10
-0.0000000000001137
 20
10.99999999999994
 30
0.0
 11
0.0
 21
17.199999999999982
 31
0.0
  0
LINE
  5
193E
  8
240
  6
CONTINUOUS
 10
12.42153899999999
 20
19.0
 30
0.0
 11
14.5
 21
15.4
 31
0.0
  0
LINE
  5
193F
  8
240
  6
CONTINUOUS
 10
0.0
 20
10.92131600000001
 30
0.0
 11
0.0
 21
11.58301299999999
 31
0.0
  0
LINE
  5
1940
  8
240
  6
CONTINUOUS
 10
22.5
 20
15.4
 30
0.0
 11
14.5
 21
15.4
 31
0.0
  0
LINE
  5
1941
  8
240
  6
CONTINUOUS
 10
0.3000000000000114
 20
19.0
 30
0.0
 11
12.42153899999999
 21
19.0
 31
0.0
  0
LINE
  5
1942
  8
240
  6
CONTINUOUS
 10
0.3000000000000114
 20
17.5
 30
0.0
 11
0.3000000000000114
 21
19.0
 31
0.0
  0
LINE
  5
1944
  8
240
  6
CONTINUOUS
 10
0.0
 20
17.199999999999982
 30
0.0
 11
0.3000000000000114
 21
17.5
 31
0.0
  0
LINE
  5
1946
  8
240
  6
CONTINUOUS
 10
22.5
 20
18.643597000000021
 30
0.0
 11
22.800000000000011
 21
18.943597
 31
0.0
  0
LINE
  5
1947
  8
245
  6
CENTER2
 10
30.5
 20
-19.83059299999999
 30
0.0
 11
30.5
 21
26.69835499999996
 31
0.0
  0
LINE
  5
1948
  8
240
  6
CONTINUOUS
 10
43.0
 20
10.9
 30
0.0
 11
43.0
 21
-14.25
 31
0.0
  0
CIRCLE
  5
1949
  8
242
  6
CONTINUOUS
 10
30.5
 20
0.0
 30
0.0
 40
3.0
  0
LINE
  5
194A
  8
241
  6
CONTINUOUS
 10
28.75
 20
-1.010362999999981
 30
0.0
 11
28.75
 21
1.010362999999981
 31
0.0
  0
LINE
  5
194B
  8
241
  6
CONTINUOUS
 10
32.25
 20
1.010362999999981
 30
0.0
 11
32.25
 21
-1.010362999999981
 31
0.0
  0
CIRCLE
  5
194C
  8
241
  6
CONTINUOUS
 10
30.5
 20
0.0
 30
0.0
 40
3.25
  0
LINE
  5
194D
  8
240
  6
CONTINUOUS
 10
40.449999999999989
 20
-16.099999999999991
 30
0.0
 11
33.732308999999979
 21
-17.899999999999999
 31
0.0
  0
LINE
  5
194E
  8
240
  6
CONTINUOUS
 10
33.732308999999979
 20
-17.899999999999999
 30
0.0
 11
27.267692000000011
 21
-17.899999999999999
 31
0.0
  0
LINE
  5
194F
  8
241
  6
CONTINUOUS
 10
32.25
 20
-1.010362999999981
 30
0.0
 11
30.5
 21
-2.020725999999994
 31
0.0
  0
LINE
  5
1950
  8
241
  6
CONTINUOUS
 10
30.5
 20
-2.020725999999994
 30
0.0
 11
28.75
 21
-1.010362999999981
 31
0.0
  0
LINE
  5
1951
  8
240
  6
CONTINUOUS
 10
41.931902000000001
 20
-16.099999999999991
 30
0.0
 11
40.449999999999989
 21
-16.099999999999991
 31
0.0
  0
LINE
  5
1952
  8
240
  6
CONTINUOUS
 10
43.0
 20
-14.25
 30
0.0
 11
41.931902000000001
 21
-16.099999999999991
 31
0.0
  0
LINE
  5
1953
  8
240
  6
CONTINUOUS
 10
38.5
 20
12.105771000000001
 30
0.0
 11
38.5
 21
18.643597000000021
 31
0.0
  0
LINE
  5
1954
  8
241
  6
CONTINUOUS
 10
26.205771999999989
 20
15.4
 30
0.0
 11
38.5
 21
12.105771000000001
 31
0.0
  0
LINE
  5
1955
  8
241
  6
CONTINUOUS
 10
30.5
 20
2.020726000000022
 30
0.0
 11
32.25
 21
1.010362999999981
 31
0.0
  0
LINE
  5
1956
  8
241
  6
CONTINUOUS
 10
28.75
 20
1.010362999999981
 30
0.0
 11
30.5
 21
2.020726000000022
 31
0.0
  0
LINE
  5
1957
  8
240
  6
CONTINUOUS
 10
38.5
 20
12.105771000000001
 30
0.0
 11
43.0
 21
10.9
 31
0.0
  0
LINE
  5
1958
  8
241
  6
CONTINUOUS
 10
33.000000000001101
 20
18.943597
 30
0.0
 11
38.199999999999989
 21
18.943597
 31
0.0
  0
LINE
  5
1959
  8
241
  6
CONTINUOUS
 10
28.50121699999999
 20
20.743597000000019
 30
0.0
 11
32.498784000000001
 21
20.743597000000019
 31
0.0
  0
LINE
  5
195A
  8
241
  6
CONTINUOUS
 10
28.0
 20
18.943597
 30
0.0
 11
28.268208000000008
 21
20.546339999999979
 31
0.0
  0
LINE
  5
195B
  8
241
  6
CONTINUOUS
 10
28.268208000000008
 20
20.546339999999979
 30
0.0
 11
28.50121699999999
 21
20.743597000000019
 31
0.0
  0
LINE
  5
195C
  8
241
  6
CONTINUOUS
 10
33.0
 20
18.943597
 30
0.0
 11
32.731792999999989
 21
20.546339999999979
 31
0.0
  0
LINE
  5
195D
  8
241
  6
CONTINUOUS
 10
32.731792999999989
 20
20.546339999999979
 30
0.0
 11
32.498784000000001
 21
20.743597000000019
 31
0.0
  0
LINE
  5
195E
  8
240
  6
CONTINUOUS
 10
38.199999999999989
 20
18.943597
 30
0.0
 11
38.5
 21
18.643597000000021
 31
0.0
  0
ARC
  5
1960
  8
240
  6
CONTINUOUS
 10
24.800000000000072
 20
23.54359700000003
 30
0.0
 40
2.0
 50
89.999999992284415
 51
179.9999999922826
1001
GRPNAME
1000
PASTMD0Y
  0
LINE
  5
1961
  8
240
  6
CONTINUOUS
 10
22.800000000000072
 20
18.943597
 30
0.0
 11
22.800000000000072
 21
23.54359700000003
 31
0.0
1001
GRPNAME
1000
PASTMD0Y
  0
CIRCLE
  5
1962
  8
246
  6
PHANTOM2
 10
43.577254000000011
 20
21.98897599999998
 30
0.0
 40
3.174999999999998
  0
LINE
  5
1963
  8
241
  6
CONTINUOUS
 10
46.999452000000012
 20
26.622662999999989
 30
0.0
 11
46.496352999999992
 21
17.022954999999961
 31
0.0
  0
LINE
  5
1964
  8
241
  6
CONTINUOUS
 10
37.85326400000001
 20
22.635843000000008
 30
0.0
 11
46.41840400000001
 21
26.999999999999989
 31
0.0
  0
ARC
  5
1965
  8
241
  6
CONTINUOUS
 10
36.200000000000038
 20
23.54359700000003
 30
0.0
 40
2.0
 50
0.0000000899764162
 51
90.000000089978045
1001
GRPNAME
1000
PASTMD0Y
  0
ARC
  5
1966
  8
241
  6
CONTINUOUS
 10
46.096901000000003
 20
17.043889999999958
 30
0.0
 40
0.4
 50
237.0000000000002
 51
356.99999999999909
  0
LINE
  5
1967
  8
240
  6
CONTINUOUS
 10
43.503332999999991
 20
16.343596999999988
 30
0.0
 11
46.070213999999979
 21
16.343596999999988
 31
0.0
  0
LINE
  5
1968
  8
241
  6
CONTINUOUS
 10
37.817003999999997
 20
21.94397199999997
 30
0.0
 11
46.08241199999997
 21
16.57635299999998
 31
0.0
  0
LINE
  5
196A
  8
241
  6
CONTINUOUS
 10
28.267748174530311
 20
21.04359700000003
 30
0.0
 11
32.732251825469802
 21
21.04359700000003
 31
0.0
1001
GRPNAME
1000
PASTMD0Y
  0
LINE
  5
196B
  8
241
  6
CONTINUOUS
 10
28.06693704363261
 20
19.343596999999981
 30
0.0
 11
28.267748174530311
 21
20.54359700000003
 31
0.0
1001
GRPNAME
1000
PASTMD0Y
  0
LINE
  5
196C
  8
241
  6
CONTINUOUS
 10
27.666937043632629
 20
18.943597
 30
0.0
 11
28.06693704363261
 21
19.343596999999981
 31
0.0
1001
GRPNAME
1000
PASTMD0Y
  0
LINE
  5
196D
  8
241
  6
CONTINUOUS
 10
28.267748174530311
 20
20.54359700000003
 30
0.0
 11
28.267748174530311
 21
21.04359700000003
 31
0.0
1001
GRPNAME
1000
PASTMD0Y
  0
LINE
  5
196E
  8
241
  6
CONTINUOUS
 10
32.933062956367387
 20
19.343596999999981
 30
0.0
 11
32.732251825469802
 21
20.54359700000003
 31
0.0
1001
GRPNAME
1000
PASTMD0Y
  0
LINE
  5
196F
  8
241
  6
CONTINUOUS
 10
33.333062956367371
 20
18.943597
 30
0.0
 11
32.933062956367387
 21
19.343596999999981
 31
0.0
1001
GRPNAME
1000
PASTMD0Y
  0
LINE
  5
1970
  8
241
  6
CONTINUOUS
 10
32.732251825469802
 20
20.54359700000003
 30
0.0
 11
32.732251825469802
 21
21.04359700000003
 31
0.0
1001
GRPNAME
1000
PASTMD0Y
  0
LINE
  5
1971
  8
240
  6
CONTINUOUS
 10
43.503332999999991
 20
16.343596999999988
 30
0.0
 11
39.0
 21
18.943597
 31
0.0
  0
LINE
  5
1972
  8
241
  6
CONTINUOUS
 10
38.200000000000053
 20
21.695251476279179
 30
0.0
 11
38.200000000000067
 21
18.94359700000069
 31
0.0
1001
GRPNAME
1000
PASTMD0Y
  0
LINE
  5
1973
  8
240
  6
CONTINUOUS
 10
38.199999999999989
 20
18.943597
 30
0.0
 11
39.0
 21
18.943597
 31
0.0
  0
LINE
  5
1974
  8
241
  6
CONTINUOUS
 10
38.200000000000053
 20
22.812513824009329
 30
0.0
 11
38.200000000000053
 21
23.54359700000003
 31
0.0
1001
GRPNAME
1000
PASTMD0Y
  0
ARC
  5
1975
  8
241
  6
CONTINUOUS
 10
38.034859999999988
 20
22.279439999999958
 30
0.0
 40
0.4
 50
117.0000000000002
 51
237.0000000000002
  0
LINE
  5
1976
  8
240
  6
CONTINUOUS
 10
46.08596
 20
16.644039000000021
 30
0.0
 11
46.070213999999979
 21
16.343596999999988
 31
0.0
  0
POLYLINE
  5
1977
  8
240
  6
CONTINUOUS
 66
     1
 10
0.0
 20
0.0
 30
0.0
 70
     8
  0
VERTEX
  5
1978
  8
240
  6
CONTINUOUS
 10
33.86395600000003
 20
25.30492199999998
 30
0.0
 70
    32
  0
VERTEX
  5
1979
  8
240
  6
CONTINUOUS
 10
34.147967000000001
 20
25.35812600000002
 30
0.0
 70
    32
  0
VERTEX
  5
197A
  8
240
  6
CONTINUOUS
 10
34.431978000000022
 20
25.41564
 30
0.0
 70
    32
  0
VERTEX
  5
197B
  8
240
  6
CONTINUOUS
 10
34.715988999999979
 20
25.477463999999991
 30
0.0
 70
    32
  0
VERTEX
  5
197C
  8
240
  6
CONTINUOUS
 10
35.0
 20
25.54359699999997
 30
0.0
 70
    32
  0
SEQEND
  5
197D
  8
240
  6
CONTINUOUS
  0
POLYLINE
  5
197E
  8
241
  6
CONTINUOUS
 66
     1
 10
0.0
 20
0.0
 30
0.0
 70
     8
  0
VERTEX
  5
197F
  8
241
  6
CONTINUOUS
 10
27.136044999999999
 20
25.30492199999998
 30
0.0
 70
    32
  0
VERTEX
  5
1980
  8
241
  6
CONTINUOUS
 10
28.818023000000011
 20
25.07817799999998
 30
0.0
 70
    32
  0
VERTEX
  5
1981
  8
241
  6
CONTINUOUS
 10
30.5
 20
25.00259699999998
 30
0.0
 70
    32
  0
VERTEX
  5
1982
  8
241
  6
CONTINUOUS
 10
32.181978000000022
 20
25.07817799999998
 30
0.0
 70
    32
  0
VERTEX
  5
1983
  8
241
  6
CONTINUOUS
 10
33.86395600000003
 20
25.30492199999998
 30
0.0
 70
    32
  0
SEQEND
  5
1984
  8
241
  6
CONTINUOUS
  0
LINE
  5
1986
  8
240
  6
CONTINUOUS
 10
24.800000000000072
 20
25.543597000000041
 30
0.0
 11
25.980206043372078
 21
25.543597000000052
 31
0.0
1001
GRPNAME
1000
PASTMD0Y
  0
POLYLINE
  5
1987
  8
240
  6
CONTINUOUS
 66
     1
 10
0.0
 20
0.0
 30
0.0
 70
     8
  0
VERTEX
  5
1988
  8
240
  6
CONTINUOUS
 10
26.0
 20
25.54359699999997
 30
0.0
 70
    32
  0
VERTEX
  5
1989
  8
240
  6
CONTINUOUS
 10
26.284012000000018
 20
25.477463999999991
 30
0.0
 70
    32
  0
VERTEX
  5
198A
  8
240
  6
CONTINUOUS
 10
26.568023000000011
 20
25.41564
 30
0.0
 70
    32
  0
VERTEX
  5
198B
  8
240
  6
CONTINUOUS
 10
26.85203400000001
 20
25.35812600000002
 30
0.0
 70
    32
  0
VERTEX
  5
198C
  8
240
  6
CONTINUOUS
 10
27.136044999999999
 20
25.30492199999998
 30
0.0
 70
    32
  0
SEQEND
  5
198D
  8
240
  6
CONTINUOUS
  0
LINE
  5
198E
  8
240
  6
CONTINUOUS
 10
28.400000000000009
 20
25.643596999999989
 30
0.0
 11
27.136044999999999
 21
25.30492199999998
 31
0.0
  0
LINE
  5
198F
  8
240
  6
CONTINUOUS
 10
28.400000000000009
 20
25.643596999999989
 30
0.0
 11
32.600000000000023
 21
25.643596999999989
 31
0.0
  0
LINE
  5
1990
  8
240
  6
CONTINUOUS
 10
32.600000000000023
 20
25.643596999999989
 30
0.0
 11
33.86395600000003
 21
25.30492199999998
 31
0.0
  0
LINE
  5
1991
  8
240
  6
CONTINUOUS
 10
40.037059999999997
 20
25.54359699999997
 30
0.0
 11
45.42440400000001
 21
26.49353199999997
 31
0.0
  0
LINE
  5
1992
  8
240
  6
CONTINUOUS
 10
35.0
 20
25.54359699999997
 30
0.0
 11
40.037059999999997
 21
25.54359699999997
 31
0.0
  0
ARC
  5
1993
  8
241
  6
CONTINUOUS
 10
46.600000000000009
 20
26.643596999999989
 30
0.0
 40
0.4
 50
356.99999999999909
 51
117.0000000000002
  0
LINE
  5
19C5
  8
240
  6
CONTINUOUS
 10
-23.999999999999218
 20
-11.000000000000011
 30
0.0
 11
-23.999999999999218
 21
11.00000000000002
 31
0.0
  0
LINE
  5
19C6
  8
245
  6
CENTER2
 10
-9.9999999999991172
 20
4.845668000000015
 30
0.0
 11
-9.9999999999991172
 21
-5.0356910000000079
 31
0.0
  0
CIRCLE
  5
19C7
  8
241
  6
CONTINUOUS
 10
-9.9999999999991172
 20
0.0000000000000036
 30
0.0
 40
3.0
  0
CIRCLE
  5
19C8
  8
241
  6
CONTINUOUS
 10
-9.9999999999991172
 20
0.0000000000000036
 30
0.0
 40
4.046999999999997
  0
LINE
  5
19C9
  8
240
  6
CONTINUOUS
 10
-1.6665276136935361
 20
-10.999999999999959
 30
0.0
 11
0.0000000000008897
 21
-11.000000000000011
 31
0.0
  0
LINE
  5
19CA
  8
240
  6
CONTINUOUS
 10
-23.999999999999218
 20
-11.000000000000011
 30
0.0
 11
-10.33347138630489
 21
-10.999999999999959
 31
0.0
  0
LINE
  5
19CB
  8
241
  6
CONTINUOUS
 10
-10.33347138630489
 20
-10.999999999999959
 30
0.0
 11
-1.6665276136935361
 21
-10.999999999999959
 31
0.0
  0
LINE
  5
19CC
  8
240
  6
CONTINUOUS
 10
-9.0199999709206722
 20
-13.27499999999999
 30
0.0
 11
-2.9799990290777552
 21
-13.27499999999999
 31
0.0
  0
LINE
  5
19CD
  8
240
  6
CONTINUOUS
 10
-10.33347138630489
 20
-10.999999999999959
 30
0.0
 11
-9.0199999709206722
 21
-13.27499999999999
 31
0.0
  0
LINE
  5
19CE
  8
240
  6
CONTINUOUS
 10
-1.6665276136935361
 20
-10.999999999999959
 30
0.0
 11
-2.9799990290777552
 21
-13.27499999999999
 31
0.0
  0
LINE
  5
19CF
  8
241
  6
CONTINUOUS
 10
0.0000000000008538
 20
10.99999999999994
 30
0.0
 11
0.0000000000007116
 21
-10.999999999999771
 31
0.0
  0
LINE
  5
19D0
  8
240
  6
CONTINUOUS
 10
-1.6665276136935421
 20
10.99999999999994
 30
0.0
 11
0.0000000000007203
 21
10.99999999999994
 31
0.0
  0
LINE
  5
19D1
  8
240
  6
CONTINUOUS
 10
-23.999999999999218
 20
11.00000000000002
 30
0.0
 11
-10.333471386304881
 21
10.99999999999995
 31
0.0
  0
LINE
  5
19D2
  8
241
  6
CONTINUOUS
 10
-10.333471386304881
 20
10.99999999999995
 30
0.0
 11
-1.6665276136935481
 21
10.99999999999995
 31
0.0
  0
LINE
  5
19D3
  8
240
  6
CONTINUOUS
 10
-9.0199999709206757
 20
13.275
 30
0.0
 11
-2.9799990290777512
 21
13.275
 31
0.0
  0
LINE
  5
19D4
  8
240
  6
CONTINUOUS
 10
-10.333471386304881
 20
10.99999999999995
 30
0.0
 11
-9.0199999709206757
 21
13.275
 31
0.0
  0
LINE
  5
19D5
  8
240
  6
CONTINUOUS
 10
-1.6665276136935421
 20
10.99999999999994
 30
0.0
 11
-2.9799990290777512
 21
13.275
 31
0.0
  0
LINE
  5
19D6
  8
250
  6
CONTINUOUS
 10
-29.286115517525491
 20
-21.691245488580929
 30
0.0
 11
-18.886115517525479
 21
-21.691245488580929
 31
0.0
  0
LINE
  5
19D7
  8
250
  6
CONTINUOUS
 10
-18.886115517525479
 20
-21.691245488580929
 30
0.0
 11
-15.108644174331991
 21
-13.043542394356241
 31
0.0
  0
LINE
  5
19D8
  8
250
  6
CONTINUOUS
 10
-15.108644174331991
 20
-13.043542394356241
 30
0.0
 11
-14.21598831540952
 21
-10.99999999999997
 31
0.0
  0
LINE
  5
19D9
  8
250
  6
CONTINUOUS
 10
-14.83960671538963
 20
-13.16106276714507
 30
0.0
 11
-14.21598831540952
 21
-10.99999999999997
 31
0.0
  0
LINE
  5
19DA
  8
250
  6
CONTINUOUS
 10
-14.21598831540952
 20
-10.99999999999997
 30
0.0
 11
-15.37768163327436
 21
-12.92602202156742
 31
0.0
  0
TEXT
  5
19DB
  8
250
  6
CONTINUOUS
 10
-29.68611551752549
 20
-20.291245488580941
 30
0.0
 40
2.799999999999998
  1
CK4
  7
YOKO
  0
LINE
  5
19DC
  8
247
  6
CONTINUOUS
 10
6.000000000001025
 20
-14.250000000000011
 30
0.0
 11
6.0000000000010827
 21
-9.6153846156700382
 31
0.0
  0
LINE
  5
19DD
  8
247
  6
CONTINUOUS
 10
3.500000000001084
 20
-13.454893499987961
 30
0.0
 11
5.5999999999170944
 21
-14.057058810057359
 31
0.0
  0
LINE
  5
19DE
  8
247
  6
CONTINUOUS
 10
4.4961538461150834
 20
-12.82515140351903
 30
0.0
 11
4.4961538461150834
 21
-13.740536018867051
 31
0.0
  0
ARC
  5
19DF
  8
247
  6
CONTINUOUS
 10
3.884719067295185
 20
-12.58726340194681
 30
0.0
 40
0.3876715809326743
 50
72.997889675292001
 51
172.92416621851231
  0
ARC
  5
19E0
  8
247
  6
CONTINUOUS
 10
3.805223131029102
 20
-12.88247755680411
 30
0.0
 40
0.6933047965358772
 50
4.7429368522013924
 51
73.849226273266339
1001
GENIUS_GENOBJ-N-FIL_13
1002
{
1000
OWNER
1000
GEN
1002
}
1001
GENIUS_GENODEF_13
1002
{
1000
HIER
1070
     0
1002
}
1002
{
1000
MANEDIT
1070
     0
1002
}
1002
{
1000
NOSEL
1070
     0
1002
}
1002
{
1000
BEHIND
1070
     0
1002
}
1002
{
1000
OTHER
1070
     0
1002
}
1002
{
1000
REACTOR
1002
}
  0
LINE
  5
19E1
  8
247
  6
CONTINUOUS
 10
5.5999999999170944
 20
-13.14167419470936
 30
0.0
 11
5.5999999999170944
 21
-14.057058810057359
 31
0.0
  0
LINE
  5
19E2
  8
247
  6
CONTINUOUS
 10
3.500000000001084
 20
-13.454893499987961
 30
0.0
 11
3.500000000001084
 21
-12.539508884639959
 31
0.0
  0
ARC
  5
19E3
  8
247
  6
CONTINUOUS
 10
4.887416962768957
 20
-12.878306476266831
 30
0.0
 40
0.394857301075386
 50
65.990941652528889
 51
172.26344345906949
  0
ARC
  5
19E4
  8
247
  6
CONTINUOUS
 10
4.8912003273336531
 20
-13.21244661042692
 30
0.0
 40
0.7123241612361686
 50
5.701985164258037
 51
77.277338436822262
1001
GENIUS_GENOBJ-N-FIL_13
1002
{
1000
OWNER
1000
GEN
1002
}
1001
GENIUS_GENODEF_13
1002
{
1000
HIER
1070
     0
1002
}
1002
{
1000
MANEDIT
1070
     0
1002
}
1002
{
1000
NOSEL
1070
     0
1002
}
1002
{
1000
BEHIND
1070
     0
1002
}
1002
{
1000
OTHER
1070
     0
1002
}
1002
{
1000
REACTOR
1002
}
  0
LINE
  5
19E5
  8
247
  6
CONTINUOUS
 10
5.5999999999170944
 20
-12.18398188706338
 30
0.0
 11
3.5000000000010871
 21
-11.581816576993971
 31
0.0
  0
LINE
  5
19E6
  8
247
  6
CONTINUOUS
 10
3.5000000000010871
 20
-10.085662730907959
 30
0.0
 11
3.5000000000010871
 21
-10.48167836430359
 31
0.0
  0
LINE
  5
19E7
  8
247
  6
CONTINUOUS
 10
5.5999999999170944
 20
-11.10873965394396
 30
0.0
 11
5.5999999999170944
 21
-10.677970423191971
 31
0.0
  0
ARC
  5
19E8
  8
247
  6
CONTINUOUS
 10
4.9582995950844451
 20
-9.8818165770699675
 30
0.0
 40
1.576855057639547
 50
202.35948814152729
 51
254.993248542846
  0
ARC
  5
19E9
  8
247
  6
CONTINUOUS
 10
4.0658188585392221
 20
-10.34751136613321
 30
0.0
 40
0.6234706797009447
 50
94.994589319075374
 51
155.16632895730359
1001
GENIUS_GENOBJ-N-FIL_13
1002
{
1000
OWNER
1000
GEN
1002
}
1001
GENIUS_GENODEF_13
1002
{
1000
HIER
1070
     0
1002
}
1002
{
1000
MANEDIT
1070
     0
1002
}
1002
{
1000
NOSEL
1070
     0
1002
}
1002
{
1000
BEHIND
1070
     0
1002
}
1002
{
1000
OTHER
1070
     0
1002
}
1002
{
1000
REACTOR
1002
}
  0
ARC
  5
19EA
  8
247
  6
CONTINUOUS
 10
4.6621021219705261
 20
-10.94418395103277
 30
0.0
 40
0.9749472149106983
 50
15.846096555779971
 51
82.325137004169164
  0
ARC
  5
19EB
  8
247
  6
CONTINUOUS
 10
4.871470401972152
 20
-10.535211638772219
 30
0.0
 40
0.9271945638692009
 50
249.71360167049701
 51
321.78874565640962
1001
GENIUS_GENOBJ-N-FIL_13
1002
{
1000
OWNER
1000
GEN
1002
}
1001
GENIUS_GENODEF_13
1002
{
1000
HIER
1070
     0
1002
}
1002
{
1000
MANEDIT
1070
     0
1002
}
1002
{
1000
NOSEL
1070
     0
1002
}
1002
{
1000
BEHIND
1070
     0
1002
}
1002
{
1000
OTHER
1070
     0
1002
}
1002
{
1000
REACTOR
1002
}
  0
LINE
  5
19EC
  8
247
  6
CONTINUOUS
 10
4.7923076922570589
 20
-10.462585807815961
 30
0.0
 11
4.7923076922570589
 21
-9.9779704232199702
 31
0.0
  0
ARC
  5
19ED
  8
247
  6
CONTINUOUS
 10
4.7500000000010818
 20
-14.250000000000011
 30
0.0
 40
1.25
 50
180.0
 51
0.0
  0
LINE
  5
19EE
  8
247
  6
CONTINUOUS
 10
3.500000000001084
 20
-14.250000000000011
 30
0.0
 11
3.500000000001084
 21
-13.80384615391401
 31
0.0
  0
ARC
  5
19EF
  8
247
  6
CONTINUOUS
 10
4.7500000000010818
 20
-9.6153846156700258
 30
0.0
 40
1.25
 50
0.0
 51
180.0
  0
VIEWPORT
  5
22
 67
     1
  8
0
 10
261.51769911504419
 20
148.5
 30
0.0
 40
523.0353982300885
 41
297.0
 68
     1
 69
     1
1001
ACAD
1000
MVIEW
1002
{
1070
    16
1010
0.0
1020
0.0
1030
0.0
1010
0.0
1020
0.0
1030
1.0
1040
0.0
1040
297.0
1040
261.51769911504419
1040
148.5
1040
50.0
1040
0.0
1040
0.0
1070
     0
1070
   100
1070
     1
1070
     1
1070
     0
1070
     0
1070
     0
1070
     0
1040
0.0
1040
0.0
1040
0.0
1040
1.0
1040
1.0
1040
10.0
1040
10.0
1070
     0
1002
{
1002
}
1002
}
1001
GENIUS_GENOBJ-N-SDF_13
1002
{
1000
OWNER
1000
GEN
1002
}
1001
GENIUS_GENODEF_13
1002
{
1000
HIER
1070
     0
1002
}
1002
{
1000
MANEDIT
1070
     0
1002
}
1002
{
1000
NOSEL
1070
     0
1002
}
1002
{
1000
BEHIND
1070
     0
1002
}
1002
{
1000
OTHER
1070
     0
1002
}
1002
{
1000
REACTOR
1002
}
1001
GENIUS_GENSCREG_15
1000
PF
1040
1.0
1000
DF
1040
1.0
1000
MIN
1011
0.0
1021
0.0
1031
0.0
1021
0.0
1031
0.0
1000
MAX
1011
523.0353982300885
1021
0.0
1031
0.0
1021
297.0
1031
0.0
1000
FLAGS
1070
     4
  0
ENDSEC
  0
EOF
