  0
SECTION
  2
HEADER
  9
$ACADVER
  1
AC1009
  9
$INSBASE
 10
0.0
 20
0.0
 30
0.0
  9
$EXTMIN
 10
-28.265412971451848
 20
-19.052553054088229
 30
0.0
  9
$EXTMAX
 10
77.345428350541496
 20
47.000000000000007
 30
0.0
  9
$LIMMIN
 10
0.0
 20
0.0
  9
$LIMMAX
 10
297.0
 20
210.0
  9
$ORTHOMODE
 70
     1
  9
$REGENMODE
 70
     1
  9
$FILLMODE
 70
     1
  9
$QTEXTMODE
 70
     0
  9
$MIRRTEXT
 70
     1
  9
$DRAGMODE
 70
     2
  9
$LTSCALE
 40
10.0
  9
$OSMODE
 70
     7
  9
$ATTMODE
 70
     1
  9
$TEXTSIZE
 40
3.0
  9
$TRACEWID
 40
1.0
  9
$TEXTSTYLE
  7
YOKO
  9
$CLAYER
  8
240
  9
$CELTYPE
  6
BYLAYER
  9
$CECOLOR
 62
   256
  9
$DIMSCALE
 40
1.0
  9
$DIMASZ
 40
2.2299999999999991
  9
$DIMEXO
 40
0.5
  9
$DIMDLI
 40
2.5
  9
$DIMRND
 40
0.0
  9
$DIMDLE
 40
0.0
  9
$DIMEXE
 40
1.0
  9
$DIMTP
 40
0.0
  9
$DIMTM
 40
0.0
  9
$DIMTXT
 40
3.0
  9
$DIMCEN
 40
0.0
  9
$DIMTSZ
 40
0.0
  9
$DIMTOL
 70
     0
  9
$DIMLIM
 70
     0
  9
$DIMTIH
 70
     0
  9
$DIMTOH
 70
     0
  9
$DIMSE1
 70
     0
  9
$DIMSE2
 70
     0
  9
$DIMTAD
 70
     3
  9
$DIMZIN
 70
     8
  9
$DIMBLK
  1
OPEN
  9
$DIMASO
 70
     1
  9
$DIMSHO
 70
     1
  9
$DIMPOST
  1

  9
$DIMAPOST
  1

  9
$DIMALT
 70
     0
  9
$DIMALTD
 70
     2
  9
$DIMALTF
 40
25.399999999999999
  9
$DIMLFAC
 40
1.0
  9
$DIMTOFL
 70
     1
  9
$DIMTVP
 40
0.0
  9
$DIMTIX
 70
     0
  9
$DIMSOXD
 70
     0
  9
$DIMSAH
 70
     1
  9
$DIMBLK1
  1

  9
$DIMBLK2
  1

  9
$DIMSTYLE
  2
BIGT
  9
$DIMCLRD
 70
   256
  9
$DIMCLRE
 70
   256
  9
$DIMCLRT
 70
    40
  9
$DIMTFAC
 40
1.0
  9
$DIMGAP
 40
1.0
  9
$LUNITS
 70
     2
  9
$LUPREC
 70
     2
  9
$SKETCHINC
 40
1.0
  9
$FILLETRAD
 40
0.0
  9
$AUNITS
 70
     0
  9
$AUPREC
 70
     3
  9
$MENU
  1
.
  9
$ELEVATION
 40
0.0
  9
$PELEVATION
 40
0.0
  9
$THICKNESS
 40
0.0
  9
$LIMCHECK
 70
     0
  9
$BLIPMODE
 70
     0
  9
$CHAMFERA
 40
10.0
  9
$CHAMFERB
 40
10.0
  9
$SKPOLY
 70
     0
  9
$TDCREATE
 40
2452203.359927292
  9
$TDUPDATE
 40
2460549.5746794329
  9
$TDINDWG
 40
0.1221201042
  9
$TDUSRTIMER
 40
0.1221173611
  9
$USRTIMER
 70
     1
  9
$ANGBASE
 50
0.0
  9
$ANGDIR
 70
     0
  9
$PDMODE
 70
    35
  9
$PDSIZE
 40
-5.0
  9
$PLINEWID
 40
0.0
  9
$COORDS
 70
     1
  9
$SPLFRAME
 70
     0
  9
$SPLINETYPE
 70
     6
  9
$SPLINESEGS
 70
     8
  9
$ATTDIA
 70
     1
  9
$ATTREQ
 70
     1
  9
$HANDLING
 70
     1
  9
$HANDSEED
  5
2DDD
  9
$SURFTAB1
 70
     6
  9
$SURFTAB2
 70
     6
  9
$SURFTYPE
 70
     6
  9
$SURFU
 70
     6
  9
$SURFV
 70
     6
  9
$UCSNAME
  2

  9
$UCSORG
 10
0.0
 20
0.0
 30
0.0
  9
$UCSXDIR
 10
1.0
 20
0.0
 30
0.0
  9
$UCSYDIR
 10
0.0
 20
1.0
 30
0.0
  9
$PUCSNAME
  2

  9
$PUCSORG
 10
0.0
 20
0.0
 30
0.0
  9
$PUCSXDIR
 10
1.0
 20
0.0
 30
0.0
  9
$PUCSYDIR
 10
0.0
 20
1.0
 30
0.0
  9
$USERI1
 70
     1
  9
$USERI2
 70
     0
  9
$USERI3
 70
     0
  9
$USERI4
 70
     0
  9
$USERI5
 70
     0
  9
$USERR1
 40
0.0
  9
$USERR2
 40
0.0
  9
$USERR3
 40
0.0
  9
$USERR4
 40
0.0
  9
$USERR5
 40
0.0
  9
$WORLDVIEW
 70
     1
  9
$SHADEDGE
 70
     3
  9
$SHADEDIF
 70
    70
  9
$TILEMODE
 70
     1
  9
$MAXACTVP
 70
    16
  9
$PLIMCHECK
 70
     0
  9
$PEXTMIN
 10
1.0000000000000000E+020
 20
1.0000000000000000E+020
 30
1.0000000000000000E+020
  9
$PEXTMAX
 10
-1.0000000000000000E+020
 20
-1.0000000000000000E+020
 30
-1.0000000000000000E+020
  9
$PLIMMIN
 10
0.0
 20
0.0
  9
$PLIMMAX
 10
420.0
 20
297.0
  9
$UNITMODE
 70
     0
  9
$VISRETAIN
 70
     0
  9
$PLINEGEN
 70
     0
  9
$PSLTSCALE
 70
     1
  0
ENDSEC
  0
SECTION
  2
TABLES
  0
TABLE
  2
VPORT
 70
     1
  0
VPORT
  2
*ACTIVE
 70
     0
 10
0.0
 20
0.0
 11
1.0
 21
1.0
 12
41.306520005837477
 22
24.414518349679401
 13
0.0
 23
0.0
 14
7.0
 24
7.0
 15
7.0
 25
7.0
 16
0.0
 26
0.0
 36
1.0
 17
0.0
 27
0.0
 37
0.0
 40
105.8581984179113
 41
2.0682680151706689
 42
50.0
 43
0.0
 44
0.0
 50
0.0
 51
0.0
 71
     0
 72
  2000
 73
     1
 74
     0
 75
     0
 76
     1
 77
     0
 78
     1
  0
ENDTAB
  0
TABLE
  2
LTYPE
 70
    18
  0
LTYPE
  2
CONTINUOUS
 70
     0
  3
Solid line
 72
    65
 73
     0
 40
0.0
  0
LTYPE
  2
CENTER2
 70
     0
  3
___ _ ___ _ ___ _ ___ _ ___ _ ___ _ ___ _ ___ _
 72
    65
 73
     4
 40
1.125
 49
0.75
 49
-0.125
 49
0.125
 49
-0.125
  0
LTYPE
  2
PHANTOM2
 70
     0
  3
___ _ _ ___ _ _ ___ _ _ ___ _ _ ___ _ _ ___ _ _
 72
    65
 73
     6
 40
1.25
 49
0.625
 49
-0.125
 49
0.125
 49
-0.125
 49
0.125
 49
-0.125
  0
LTYPE
  2
HIDDEN
 70
     0
  3
Hidden __ __ __ __ __ __ __ __ __ __ __ __ __ _
 72
    65
 73
     2
 40
9.5249999999999986
 49
6.349999999999997
 49
-3.174999999999998
  0
LTYPE
  2
CENTER
 70
     0
  3
Center ____ _ ____ _ ____ _ ____ _ ____ _ ____
 72
    65
 73
     4
 40
50.799999999999997
 49
31.75
 49
-6.349999999999997
 49
6.349999999999997
 49
-6.349999999999997
  0
LTYPE
  2
AMCONSTR
 70
     0
  3
_______________________
 72
    65
 73
     2
 40
9999.0
 49
9999.0
 49
0.0
  0
LTYPE
  2
HIDDEN2
 70
     0
  3
Hidden (.5x) _ _ _ _ _ _ _ _ _ _ _ _ _ _ _ _ _
 72
    65
 73
     2
 40
0.1875
 49
0.125
 49
-0.0625
  0
LTYPE
  2
AMZIGZAG2
 70
     0
  3
/\/-/\/-/\/-/\/-/\/-/\/
 72
    65
 73
     2
 40
0.4401
 49
0.0001
 49
-0.4400000000000003
  0
LTYPE
  2
ACANSTGB
 70
     0
  3
__ . . __ . .
 72
    65
 73
     6
 40
0.35433070866
 49
0.15748031496
 49
-0.03937007874
 49
0.03937007874
 49
-0.03937007874
 49
0.03937007874
 49
-0.03937007874
  0
LTYPE
  2
ACANSTGL
 70
     0
  3
_ _ _ _ _
 72
    65
 73
     2
 40
0.11811023622
 49
0.07874015748
 49
-0.03937007874
  0
ENDTAB
  0
TABLE
  2
LAYER
 70
     9
  0
LAYER
  2
0
 70
     0
 62
     7
  6
CONTINUOUS
  0
LAYER
  2
240
 70
     0
 62
     4
  6
CONTINUOUS
  0
LAYER
  2
241
 70
     0
 62
   211
  6
CONTINUOUS
  0
LAYER
  2
242
 70
     0
 62
     3
  6
CONTINUOUS
  0
LAYER
  2
245
 70
     0
 62
     2
  6
CENTER2
  0
LAYER
  2
246
 70
     0
 62
     3
  6
PHANTOM2
  0
LAYER
  2
250
 70
     0
 62
     3
  6
CONTINUOUS
  0
LAYER
  2
DEFPOINTS
 70
     0
 62
     7
  6
CONTINUOUS
  0
LAYER
  2
247
 70
     0
 62
    60
  6
CONTINUOUS
  0
ENDTAB
  0
TABLE
  2
STYLE
 70
     6
  0
STYLE
  2
STANDARD
 70
     0
 40
0.0
 41
1.0
 50
0.0
 71
     0
 42
3.0
  3
romans.shx
  4
BIGFONT.SHX
  0
STYLE
  2
YOKO
 70
     0
 40
0.0
 41
1.0
 50
0.0
 71
     0
 42
3.0
  3
romans.shx
  4
extfont.shx
  0
STYLE
  2
ACANSGDT
 70
     0
 40
0.0
 41
1.0
 50
0.0
 71
     0
 42
3.0
  3
amgdt.shx
  4

  0
ENDTAB
  0
TABLE
  2
VIEW
 70
     0
  0
ENDTAB
  0
TABLE
  2
UCS
 70
     0
  0
ENDTAB
  0
TABLE
  2
APPID
 70
    26
  0
APPID
  2
ACAD
 70
     0
  0
APPID
  2
ACADANNOTATIVE
 70
     0
  0
APPID
  2
GLOBAL
 70
     0
  0
APPID
  2
DETAIL
 70
     0
  0
APPID
  2
GRPNAME
 70
     0
  0
APPID
  2
GPARA
 70
     0
  0
APPID
  2
ITEMNAME
 70
     0
  0
APPID
  2
HATCH_TYPE
 70
     0
  0
APPID
  2
HATCH_DISPLAY
 70
     0
  0
APPID
  2
HATCH_DISTANCE
 70
     0
  0
APPID
  2
MCAD_NO_VIS
 70
     0
  0
APPID
  2
ACAD_TEMP_GRAPHIC
 70
     0
  0
APPID
  2
AD_DRAW
 70
     0
  0
APPID
  2
ACATTRIBSERVICES
 70
     0
  0
APPID
  2
DESIGNERASSEMBLIES
 70
     0
  0
APPID
  2
ACADM_DIM_EDIT
 70
     0
  0
APPID
  2
AMDT_DM_ADJ
 70
     0
  0
APPID
  2
GENIUS_GENSCREG_15
 70
     0
  0
APPID
  2
GENIUS_GENOBJ-N-SDF_13
 70
     0
  0
APPID
  2
GENIUS_GENODEF_13
 70
     0
  0
APPID
  2
ACAD_DSTYLE_DIMJAG
 70
     0
  0
APPID
  2
ACAD_DSTYLE_DIMBREAK
 70
     0
  0
APPID
  2
ACAD_NAV_VCDISPLAY
 70
     0
  0
APPID
  2
GENIUS_GENOBJ-N-FIL_13
 70
     0
  0
APPID
  2
ACAD_MLEADERVER
 70
     0
  0
APPID
  2
ACAD_EXEMPT_FROM_CAD_STANDARDS
 70
     0
  0
ENDTAB
  0
TABLE
  2
DIMSTYLE
 70
    10
  0
DIMSTYLE
  2
STANDARD
 70
     0
  3

  4

  5

  6

  7

 40
1.0
 41
0.18
 42
0.0625
 43
0.38
 44
0.18
 45
0.0
 46
0.0
 47
0.0
 48
0.0
140
0.18
141
0.09
142
0.0
143
25.399999999999999
144
1.0
145
0.0
146
1.0
147
0.09
 71
     0
 72
     0
 73
     1
 74
     1
 75
     0
 76
     0
 77
     0
 78
     0
170
     0
171
     2
172
     0
173
     0
174
     0
175
     0
176
     0
177
     0
178
     0
  0
DIMSTYLE
  2
BIGT
 70
     0
  3

  4

  5

  6

  7

 40
1.0
 41
2.2299999999999991
 42
0.5
 43
2.5
 44
1.0
 45
0.0
 46
0.0
 47
0.0
 48
0.0
140
3.5
141
0.0
142
0.0
143
25.399999999999999
144
1.0
145
0.0
146
1.0
147
1.0
 71
     0
 72
     0
 73
     0
 74
     0
 75
     0
 76
     0
 77
     3
 78
     9
170
     0
171
     2
172
     1
173
     0
174
     0
175
     0
176
   256
177
   256
178
    40
  0
DIMSTYLE
  2
AM_ANSI
 70
     0
  3

  4
mm
  5

  6

  7

 40
1.0
 41
0.12
 42
0.05
 43
0.5
 44
0.1
 45
0.0
 46
0.0
 47
0.1
 48
0.1
140
0.12
141
0.0
142
0.0
143
25.399999999999999
144
1.0
145
0.0
146
0.71
147
0.06
 71
     0
 72
     0
 73
     1
 74
     1
 75
     0
 76
     0
 77
     0
 78
     7
170
     0
171
     2
172
     0
173
     0
174
     0
175
     0
176
   256
177
   256
178
     2
  0
DIMSTYLE
  2
AM_ANSI$3
 70
     0
  3

  4
mm
  5

  6

  7

 40
1.0
 41
0.12
 42
0.05
 43
0.5
 44
0.1
 45
0.0
 46
0.0
 47
0.1
 48
0.1
140
0.12
141
0.0
142
0.0
143
25.399999999999999
144
1.0
145
0.0
146
0.71
147
0.06
 71
     0
 72
     0
 73
     1
 74
     1
 75
     0
 76
     0
 77
     0
 78
     7
170
     0
171
     2
172
     0
173
     0
174
     0
175
     0
176
   256
177
   256
178
     2
  0
DIMSTYLE
  2
AM_ANSI$4
 70
     0
  3

  4
mm
  5

  6

  7

 40
1.0
 41
0.12
 42
0.05
 43
0.5
 44
0.1
 45
0.0
 46
0.0
 47
0.1
 48
0.1
140
0.12
141
0.0
142
0.0
143
25.399999999999999
144
1.0
145
0.0
146
0.71
147
0.06
 71
     0
 72
     0
 73
     1
 74
     1
 75
     0
 76
     0
 77
     0
 78
     7
170
     0
171
     2
172
     0
173
     0
174
     0
175
     0
176
   256
177
   256
178
     2
  0
DIMSTYLE
  2
AM_ANSI$7
 70
     0
  3

  4
mm
  5

  6

  7

 40
1.0
 41
0.12
 42
0.05
 43
0.5
 44
0.1
 45
0.0
 46
0.0
 47
0.1
 48
0.1
140
0.12
141
0.0
142
0.0
143
25.399999999999999
144
1.0
145
0.0
146
0.71
147
0.06
 71
     0
 72
     0
 73
     1
 74
     1
 75
     0
 76
     0
 77
     0
 78
     7
170
     0
171
     2
172
     0
173
     0
174
     0
175
     0
176
   256
177
   256
178
     2
  0
DIMSTYLE
  2
AM_ANSI$SF
 70
     0
  3

  4
mm
  5

  6

  7

 40
1.0
 41
0.12
 42
0.05
 43
0.5
 44
0.1
 45
0.0
 46
0.0
 47
0.1
 48
0.1
140
0.12
141
0.0
142
0.0
143
25.399999999999999
144
1.0
145
0.0
146
0.71
147
0.06
 71
     0
 72
     0
 73
     1
 74
     1
 75
     1
 76
     1
 77
     0
 78
     7
170
     0
171
     2
172
     0
173
     0
174
     0
175
     0
176
   256
177
   256
178
     2
  0
DIMSTYLE
  2
AM_ANSI$SH
 70
     0
  3

  4
mm
  5

  6

  7

 40
1.0
 41
0.12
 42
0.05
 43
0.5
 44
0.1
 45
0.0
 46
0.0
 47
0.1
 48
0.1
140
0.12
141
0.0
142
0.0
143
25.399999999999999
144
1.0
145
0.0
146
0.71
147
0.06
 71
     0
 72
     0
 73
     1
 74
     1
 75
     1
 76
     1
 77
     0
 78
     7
170
     0
171
     2
172
     0
173
     1
174
     0
175
     0
176
   256
177
   256
178
     2
  0
ENDTAB
  0
ENDSEC
  0
SECTION
  2
BLOCKS
  0
BLOCK
  8
0
  2
$MODEL_SPACE
 70
     0
 10
0.0
 20
0.0
 30
0.0
  3
$MODEL_SPACE
  1

  0
ENDBLK
  5
2C13
  8
0
  0
BLOCK
 67
     1
  8
0
  2
$PAPER_SPACE
 70
     0
 10
0.0
 20
0.0
 30
0.0
  3
$PAPER_SPACE
  1

  0
ENDBLK
  5
2C0F
 67
     1
  8
0
  0
BLOCK
  8
0
  2
_OPEN
 70
     0
 10
0.0
 20
0.0
 30
0.0
  3
_OPEN
  1

  0
LINE
  5
595
  8
0
  6
BYBLOCK
 62
     0
 10
-1.0
 20
0.1666666666666666
 30
0.0
 11
0.0
 21
0.0
 31
0.0
  0
LINE
  5
596
  8
0
  6
BYBLOCK
 62
     0
 10
-1.0
 20
-0.1666666666666666
 30
0.0
 11
0.0
 21
0.0
 31
0.0
  0
LINE
  5
597
  8
0
  6
BYBLOCK
 62
     0
 10
0.0
 20
0.0
 30
0.0
 11
-1.0
 21
0.0
 31
0.0
  0
ENDBLK
  5
599
  8
0
  0
BLOCK
  8
0
  2
_ACMFILLEDHALF
 70
     0
 10
0.0
 20
0.0
 30
0.0
  3
_ACMFILLEDHALF
  1

  0
TRACE
  5
2840
  8
240
 62
     0
 10
-0.8
 20
0.0
 30
0.0
 11
-1.0
 21
0.166666666
 31
0.0
 12
0.0
 22
0.0
 32
0.0
 13
0.0
 23
0.0
 33
0.0
  0
LINE
  5
2841
  8
240
 62
     0
 10
-1.0
 20
0.0
 30
0.0
 11
-0.8
 21
0.0
 31
0.0
  0
ENDBLK
  5
283F
  8
0
  0
ENDSEC
  0
SECTION
  2
ENTITIES
  0
TEXT
  5
81D
  8
241
  6
CONTINUOUS
 10
-21.0
 20
42.0
 30
0.0
 40
5.0
  1
EWN32-60CKB3
  7
YOKO
 11
-21.0
 21
42.0
 31
0.0
 73
     1
  0
LINE
  5
23F5
  8
250
  6
CONTINUOUS
 10
42.74344514409664
 20
35.130627992610691
 30
0.0
 11
76.733404584094615
 21
35.130627992610691
 31
0.0
1001
ITEMNAME
1000
LNSP2
  0
TEXT
  5
2681
  8
250
  6
CONTINUOUS
 10
45.172016572668063
 20
36.130627992610691
 30
0.0
 40
3.0
  1
ENH3-1,TP08
  7
YOKO
1001
ITEMNAME
1000
LNSP3
1001
ACAD
1000
MTEXTBEGIN
1070
    73
1070
     1
1070
    44
1040
1.0
1070
    74
1070
     0
1000
MTEXTEND
  0
LINE
  5
2687
  8
250
  6
CONTINUOUS
 10
0.0000000000000142
 20
14.0
 30
0.0
 11
0.0000000000000152
 21
29.16492199999993
 31
0.0
  0
LINE
  5
2688
  8
250
  6
CONTINUOUS
 10
39.999725906950921
 20
21.311331808751358
 30
0.0
 11
39.999725906950921
 21
29.16492199999993
 31
0.0
  0
LINE
  5
2689
  8
250
  6
CONTINUOUS
 10
2.2300000000000151
 20
28.16492199999993
 30
0.0
 11
37.769725906950931
 21
28.16492199999993
 31
0.0
  0
LINE
  5
268D
  8
250
  6
CONTINUOUS
 10
40.209201900052093
 20
21.000000304837599
 30
0.0
 11
50.299995648824982
 21
21.000000304837599
 31
0.0
  0
LINE
  5
268E
  8
250
  6
CONTINUOUS
 10
49.299995648824961
 20
18.770000304837609
 30
0.0
 11
49.299995648824961
 21
-12.714286475671781
 31
0.0
  0
TEXT
  5
2691
  8
250
  6
CONTINUOUS
 10
47.014281363110683
 20
-12.285715047100361
 30
0.0
 40
3.0
  1
(
 50
90.0
1001
ACAD
1000
MTEXTBEGIN
1070
    73
1070
     1
1070
    44
1040
1.0
1070
    74
1070
     0
1000
MTEXTEND
  0
TEXT
  5
2692
  8
250
  6
CONTINUOUS
 10
47.014281363110683
 20
-10.285715047100361
 30
0.0
 40
3.0
  1
\U+2205
 50
90.0
1001
ACAD
1000
MTEXTBEGIN
1070
    73
1070
     1
1070
    44
1040
1.0
1070
    74
1070
     0
1000
MTEXTEND
  0
TEXT
  5
2693
  8
250
  6
CONTINUOUS
 10
47.014281363110683
 20
-7.5714293328146409
 30
0.0
 40
3.0
  1
32~
 50
90.0
1001
ACAD
1000
MTEXTBEGIN
1070
    73
1070
     1
1070
    44
1040
1.0
1070
    74
1070
     0
1000
MTEXTEND
  0
TEXT
  5
2694
  8
250
  6
CONTINUOUS
 10
47.014281363110683
 20
1.857142095756779
 30
0.0
 40
3.0
  1
\U+2205
 50
90.0
1001
ACAD
1000
MTEXTBEGIN
1070
    73
1070
     1
1070
    44
1040
1.0
1070
    74
1070
     0
1000
MTEXTEND
  0
TEXT
  5
2695
  8
250
  6
CONTINUOUS
 10
47.014281363110683
 20
4.5714278100424961
 30
0.0
 40
3.0
  1
42)
 50
90.0
1001
ACAD
1000
MTEXTBEGIN
1070
    73
1070
     1
1070
    44
1040
1.0
1070
    74
1070
     0
1000
MTEXTEND
  0
LINE
  5
2696
  8
250
  6
CONTINUOUS
 10
48.928328982158298
 20
18.770000304837598
 30
0.0
 11
49.299995648824961
 21
21.000000304837599
 31
0.0
  0
LINE
  5
2697
  8
250
  6
CONTINUOUS
 10
49.671662315491638
 20
18.770000304837598
 30
0.0
 11
49.299995648824961
 21
21.000000304837599
 31
0.0
  0
LINE
  5
2698
  8
250
  6
CONTINUOUS
 10
49.299995648824961
 20
21.000000304837599
 30
0.0
 11
49.299995648824961
 21
18.770000304837598
 31
0.0
  0
TEXT
  5
2699
  8
250
  6
CONTINUOUS
 10
17.14272009633261
 20
29.16492199999993
 30
0.0
 40
3.0
  1
40
1001
ACAD
1000
MTEXTBEGIN
1070
    73
1070
     1
1070
    44
1040
1.0
1070
    74
1070
     0
1000
MTEXTEND
  0
LINE
  5
269A
  8
250
  6
CONTINUOUS
 10
37.769725906950931
 20
28.536588666666589
 30
0.0
 11
39.999725906950921
 21
28.16492199999993
 31
0.0
  0
LINE
  5
269B
  8
250
  6
CONTINUOUS
 10
37.769725906950931
 20
27.79325533333326
 30
0.0
 11
39.999725906950921
 21
28.16492199999993
 31
0.0
  0
LINE
  5
269C
  8
250
  6
CONTINUOUS
 10
39.999725906950921
 20
28.16492199999993
 30
0.0
 11
37.769725906950931
 21
28.16492199999993
 31
0.0
  0
LINE
  5
269D
  8
250
  6
CONTINUOUS
 10
2.2300000000000142
 20
27.79325533333326
 30
0.0
 11
0.0000000000000151
 21
28.16492199999993
 31
0.0
  0
LINE
  5
269E
  8
250
  6
CONTINUOUS
 10
2.2300000000000142
 20
28.536588666666589
 30
0.0
 11
0.0000000000000151
 21
28.16492199999993
 31
0.0
  0
LINE
  5
269F
  8
250
  6
CONTINUOUS
 10
0.0000000000000151
 20
28.16492199999993
 30
0.0
 11
2.2300000000000142
 21
28.16492199999993
 31
0.0
  0
LINE
  5
26A4
  8
250
  6
CONTINUOUS
 10
34.933752861306431
 20
21.603844167339471
 30
0.0
 11
42.74344514409664
 21
35.130627992610691
 31
0.0
1001
ACAD
1000
DSTYLE
1002
{
1070
     6
1000
OPEN
1070
    41
1040
2.2299999999999991
1070
    78
1070
     8
1070
    79
1070
     2
1070
   140
1040
3.0
1070
   173
1070
     1
1070
   179
1070
     3
1070
   371
1070
    -1
1070
   372
1070
    -1
1002
}
  0
LINE
  5
26A5
  8
250
  6
CONTINUOUS
 10
35.255625636379641
 20
21.418010834006139
 30
0.0
 11
33.818752861306429
 21
19.672607516900172
 31
0.0
  0
LINE
  5
26A6
  8
250
  6
CONTINUOUS
 10
34.611880086233207
 20
21.789677500672809
 30
0.0
 11
33.818752861306429
 21
19.672607516900172
 31
0.0
  0
LINE
  5
26A7
  8
250
  6
CONTINUOUS
 10
33.818752861306429
 20
19.672607516900172
 30
0.0
 11
34.933752861306431
 21
21.603844167339481
 31
0.0
  0
LINE
  5
2864
  8
241
  6
CONTINUOUS
 10
24.550258000000039
 20
11.69999999999998
 30
0.0
 11
30.999999999999979
 21
9.9717969999999791
 31
0.0
  0
LINE
  5
2865
  8
240
  6
CONTINUOUS
 10
32.950000000000031
 20
-12.600000000000019
 30
0.0
 11
27.351924000000039
 21
-14.100000000000019
 31
0.0
  0
LINE
  5
2866
  8
241
  6
CONTINUOUS
 10
32.950000000000031
 20
-12.600000000000019
 30
0.0
 11
17.04999999999999
 21
-12.600000000000019
 31
0.0
  0
LINE
  5
2867
  8
245
  6
CENTER2
 10
-23.656569999999999
 20
0.0
 30
0.0
 11
37.991398999999973
 21
0.0
 31
0.0
  0
LINE
  5
2875
  8
245
  6
CENTER2
 10
24.999999999999979
 20
-15.29998400000005
 30
0.0
 11
24.999999999999979
 21
20.425484999999981
 31
0.0
  0
LINE
  5
2876
  8
241
  6
CONTINUOUS
 10
0.3000000000000114
 20
-13.80000000000001
 30
0.0
 11
0.3000000000000114
 21
13.80000000000001
 31
0.0
  0
LINE
  5
2877
  8
241
  6
CONTINUOUS
 10
8.7999999999999972
 20
14.5
 30
0.0
 11
8.7999999999999972
 21
-15.0
 31
0.0
  0
LINE
  5
2895
  8
240
  6
CONTINUOUS
 10
0.3000000000000114
 20
-15.0
 30
0.0
 11
15.114360000000019
 21
-15.0
 31
0.0
  0
LINE
  5
28A0
  8
240
  6
CONTINUOUS
 10
0.0
 20
-13.5
 30
0.0
 11
0.0000000000000284
 21
-8.9999999999999716
 31
0.0
  0
LINE
  5
28A1
  8
240
  6
CONTINUOUS
 10
0.3000000000000114
 20
-15.0
 30
0.0
 11
0.3000000000000114
 21
-13.80000000000001
 31
0.0
  0
LINE
  5
28A3
  8
240
  6
CONTINUOUS
 10
0.0
 20
-13.5
 30
0.0
 11
0.3000000000000114
 21
-13.80000000000001
 31
0.0
  0
LINE
  5
28C4
  8
240
  6
CONTINUOUS
 10
22.648076999999979
 20
-14.100000000000019
 30
0.0
 11
17.04999999999999
 21
-12.600000000000019
 31
0.0
  0
LINE
  5
28C5
  8
240
  6
CONTINUOUS
 10
16.499999999999979
 20
-12.600000000000019
 30
0.0
 11
15.114360000000019
 21
-15.0
 31
0.0
  0
LINE
  5
28C6
  8
240
  6
CONTINUOUS
 10
17.04999999999999
 20
-12.600000000000019
 30
0.0
 11
16.499999999999979
 21
-12.600000000000019
 31
0.0
  0
LINE
  5
28C7
  8
240
  6
CONTINUOUS
 10
27.351924000000039
 20
-14.100000000000019
 30
0.0
 11
22.648076999999979
 21
-14.100000000000019
 31
0.0
  0
LINE
  5
28C8
  8
240
  6
CONTINUOUS
 10
0.3000000000000114
 20
15.0
 30
0.0
 11
8.7999999999999972
 21
15.0
 31
0.0
  0
LINE
  5
28CF
  8
240
  6
CONTINUOUS
 10
0.0
 20
13.5
 30
0.0
 11
0.0000000000000426
 21
8.9999999999999432
 31
0.0
  0
LINE
  5
28FC
  8
240
  6
CONTINUOUS
 10
0.0
 20
13.5
 30
0.0
 11
0.3000000000000114
 21
13.80000000000001
 31
0.0
  0
LINE
  5
28FE
  8
240
  6
CONTINUOUS
 10
0.3000000000000114
 20
13.80000000000001
 30
0.0
 11
0.3000000000000114
 21
15.0
 31
0.0
  0
CIRCLE
  5
2906
  8
242
  6
CONTINUOUS
 10
24.999999999999979
 20
0.0
 30
0.0
 40
2.1000000000000001
  0
LINE
  5
2907
  8
241
  6
CONTINUOUS
 10
26.499999999999989
 20
0.8660259999999767
 30
0.0
 11
26.499999999999989
 21
-0.866024999999979
 31
0.0
  0
LINE
  5
2908
  8
241
  6
CONTINUOUS
 10
23.499999999999972
 20
-0.866024999999979
 30
0.0
 11
23.499999999999972
 21
0.8660259999999767
 31
0.0
  0
CIRCLE
  5
2909
  8
241
  6
CONTINUOUS
 10
24.999999999999979
 20
0.0
 30
0.0
 40
2.5
  0
LINE
  5
290A
  8
241
  6
CONTINUOUS
 10
24.999999999999979
 20
-1.7320510000000111
 30
0.0
 11
23.499999999999972
 21
-0.866024999999979
 31
0.0
  0
LINE
  5
290B
  8
241
  6
CONTINUOUS
 10
26.499999999999989
 20
-0.866024999999979
 30
0.0
 11
24.999999999999979
 21
-1.7320510000000111
 31
0.0
  0
LINE
  5
290C
  8
241
  6
CONTINUOUS
 10
23.499999999999972
 20
0.8660259999999767
 30
0.0
 11
24.999999999999979
 21
1.732050999999954
 31
0.0
  0
LINE
  5
290D
  8
241
  6
CONTINUOUS
 10
24.999999999999979
 20
1.732050999999954
 30
0.0
 11
26.499999999999989
 21
0.8660259999999767
 31
0.0
  0
LINE
  5
290E
  8
240
  6
CONTINUOUS
 10
18.999999999999961
 20
11.69999999999998
 30
0.0
 11
10.700000000000021
 21
11.69999999999998
 31
0.0
  0
LINE
  5
290F
  8
240
  6
CONTINUOUS
 10
9.083420000000034
 20
14.5
 30
0.0
 11
10.700000000000021
 21
11.69999999999998
 31
0.0
  0
LINE
  5
2910
  8
240
  6
CONTINUOUS
 10
8.7999999999999972
 20
15.0
 30
0.0
 11
8.7999999999999972
 21
14.5
 31
0.0
  0
LINE
  5
2911
  8
240
  6
CONTINUOUS
 10
9.083420000000034
 20
14.5
 30
0.0
 11
8.7999999999999972
 21
14.5
 31
0.0
  0
LINE
  5
2913
  8
241
  6
CONTINUOUS
 10
24.550258000000039
 20
11.69999999999998
 30
0.0
 11
18.999999999999961
 21
11.69999999999998
 31
0.0
  0
LINE
  5
2914
  8
240
  6
CONTINUOUS
 10
19.200000000000031
 20
13.62179899999995
 30
0.0
 11
19.29999999999999
 21
13.62179899999995
 31
0.0
  0
LINE
  5
2915
  8
240
  6
CONTINUOUS
 10
19.200000000000031
 20
13.62179899999995
 30
0.0
 11
18.999999999999961
 21
13.421798999999959
 31
0.0
  0
LINE
  5
2916
  8
240
  6
CONTINUOUS
 10
18.999999999999961
 20
11.69999999999998
 30
0.0
 11
18.999999999999961
 21
13.421798999999959
 31
0.0
  0
LINE
  5
2917
  8
241
  6
CONTINUOUS
 10
27.099999999999781
 20
13.62179900000128
 30
0.0
 11
26.899189000000021
 21
14.82179899999994
 31
0.0
  0
LINE
  5
2918
  8
241
  6
CONTINUOUS
 10
23.101270999999979
 20
14.824541999999999
 30
0.0
 11
22.90000000000002
 21
13.62179899999995
 31
0.0
  0
LINE
  5
2919
  8
241
  6
CONTINUOUS
 10
26.665721000000001
 20
15.02179899999998
 30
0.0
 11
23.334280000000021
 21
15.02179899999998
 31
0.0
  0
LINE
  5
291A
  8
241
  6
CONTINUOUS
 10
23.101270999999979
 20
14.824541999999999
 30
0.0
 11
23.334280000000021
 21
15.02179899999998
 31
0.0
  0
LINE
  5
291B
  8
241
  6
CONTINUOUS
 10
26.898729999999979
 20
14.824541999999999
 30
0.0
 11
26.665721000000001
 21
15.02179899999998
 31
0.0
  0
LINE
  5
291C
  8
240
  6
CONTINUOUS
 10
34.999999999999979
 20
8.8999999999999702
 30
0.0
 11
34.999999999999979
 21
-12.0
 31
0.0
  0
LINE
  5
291D
  8
240
  6
CONTINUOUS
 10
34.653589999999987
 20
-12.600000000000019
 30
0.0
 11
32.950000000000031
 21
-12.600000000000019
 31
0.0
  0
LINE
  5
291E
  8
240
  6
CONTINUOUS
 10
34.348804000000008
 20
-12.600000000000019
 30
0.0
 11
32.950000000000031
 21
-12.600000000000019
 31
0.0
  0
LINE
  5
291F
  8
240
  6
CONTINUOUS
 10
34.999999999999979
 20
-12.0
 30
0.0
 11
34.653589999999987
 21
-12.600000000000019
 31
0.0
  0
LINE
  5
2920
  8
240
  6
CONTINUOUS
 10
30.999999999999979
 20
9.9717969999999791
 30
0.0
 11
34.999999999999979
 21
8.8999999999999702
 31
0.0
  0
LINE
  5
2921
  8
240
  6
CONTINUOUS
 10
30.800000000000001
 20
13.62179899999995
 30
0.0
 11
30.999999999999979
 21
13.421798999999959
 31
0.0
  0
LINE
  5
2922
  8
240
  6
CONTINUOUS
 10
30.999999999999979
 20
9.9717969999999791
 30
0.0
 11
30.999999999999979
 21
13.421798999999959
 31
0.0
  0
LINE
  5
2923
  8
240
  6
CONTINUOUS
 10
31.26209099999992
 20
19.221798999999969
 30
0.0
 11
38.84260899999996
 21
20.558448999999989
 31
0.0
  0
LINE
  5
2924
  8
240
  6
CONTINUOUS
 10
37.312177999999939
 20
10.12179899999995
 30
0.0
 11
31.249999999999929
 21
13.62179899999995
 31
0.0
  0
CIRCLE
  5
2925
  8
246
  6
PHANTOM2
 10
37.425373999999941
 20
17.165194999999979
 30
0.0
 40
2.379999999999999
  0
LINE
  5
2926
  8
241
  6
CONTINUOUS
 10
32.98055099999997
 20
17.571580999999981
 30
0.0
 11
39.709201999999927
 21
21.0
 31
0.0
  0
LINE
  5
2927
  8
241
  6
CONTINUOUS
 10
32.962421999999933
 20
17.22564599999998
 30
0.0
 11
39.295844999999971
 21
13.112672999999971
 31
0.0
  0
LINE
  5
2928
  8
241
  6
CONTINUOUS
 10
23.100811130897661
 20
15.221798999999971
 30
0.0
 11
26.899188869102229
 21
15.221798999999971
 31
0.0
1001
GRPNAME
1000
PASTMD0O
  0
POLYLINE
  5
292A
  8
241
  6
CONTINUOUS
 66
     1
 10
0.0
 20
0.0
 30
0.0
 70
     8
  0
VERTEX
  5
292B
  8
241
  6
CONTINUOUS
 10
21.95790399999996
 20
18.975582999999968
 30
0.0
 70
    32
  0
VERTEX
  5
292C
  8
241
  6
CONTINUOUS
 10
23.478951999999911
 20
18.72224499999998
 30
0.0
 70
    32
  0
VERTEX
  5
292D
  8
241
  6
CONTINUOUS
 10
24.999999999999929
 20
18.637798999999958
 30
0.0
 70
    32
  0
VERTEX
  5
292E
  8
241
  6
CONTINUOUS
 10
26.52104899999992
 20
18.72224499999998
 30
0.0
 70
    32
  0
VERTEX
  5
292F
  8
241
  6
CONTINUOUS
 10
28.042096999999931
 20
18.975582999999968
 30
0.0
 70
    32
  0
SEQEND
  5
2930
  8
241
  6
CONTINUOUS
  0
ARC
  5
2931
  8
240
  6
CONTINUOUS
 10
20.79999999999993
 20
17.721798999999969
 30
0.0
 40
1.5
 50
90.0
 51
180.0
  0
LINE
  5
2932
  8
241
  6
CONTINUOUS
 10
22.966937043632502
 20
14.02179899999993
 30
0.0
 11
23.100811130897661
 21
14.82179899999994
 31
0.0
1001
GRPNAME
1000
PASTMD0O
  0
LINE
  5
2933
  8
240
  6
CONTINUOUS
 10
19.29999999999993
 20
13.62179899999995
 30
0.0
 11
19.29999999999993
 21
17.721798999999969
 31
0.0
  0
LINE
  5
2934
  8
241
  6
CONTINUOUS
 10
19.29999999999993
 20
13.62179899999995
 30
0.0
 11
22.90000000000002
 21
13.62179899999995
 31
0.0
  0
LINE
  5
2935
  8
241
  6
CONTINUOUS
 10
22.566937043632581
 20
13.62179899999995
 30
0.0
 11
22.966937043632559
 21
14.02179899999998
 31
0.0
1001
GRPNAME
1000
PASTMD0O
  0
LINE
  5
2936
  8
241
  6
CONTINUOUS
 10
23.100811130897661
 20
14.82179899999994
 30
0.0
 11
23.100811130897661
 21
15.221798999999971
 31
0.0
1001
GRPNAME
1000
PASTMD0O
  0
LINE
  5
2937
  8
240
  6
CONTINUOUS
 10
20.79999999999993
 20
19.221798999999969
 30
0.0
 11
20.999999999999918
 21
19.221798999999969
 31
0.0
  0
POLYLINE
  5
2938
  8
240
  6
CONTINUOUS
 66
     1
 10
0.0
 20
0.0
 30
0.0
 70
     8
  0
VERTEX
  5
2939
  8
240
  6
CONTINUOUS
 10
20.999999999999918
 20
19.221798999999969
 30
0.0
 70
    32
  0
VERTEX
  5
293A
  8
240
  6
CONTINUOUS
 10
21.239475999999929
 20
19.153964999999971
 30
0.0
 70
    32
  0
VERTEX
  5
293B
  8
240
  6
CONTINUOUS
 10
21.478951999999911
 20
19.090317999999961
 30
0.0
 70
    32
  0
VERTEX
  5
293C
  8
240
  6
CONTINUOUS
 10
21.718427999999928
 20
19.030856999999958
 30
0.0
 70
    32
  0
VERTEX
  5
293D
  8
240
  6
CONTINUOUS
 10
21.95790399999996
 20
18.975582999999968
 30
0.0
 70
    32
  0
SEQEND
  5
293E
  8
240
  0
LINE
  5
293F
  8
240
  6
CONTINUOUS
 10
23.249999999999929
 20
19.321798999999931
 30
0.0
 11
21.991180999999958
 21
18.984498999999971
 31
0.0
  0
ARC
  5
2940
  8
241
  6
CONTINUOUS
 10
29.19999999999996
 20
17.721798999999969
 30
0.0
 40
1.5
 50
0.0
 51
90.0
  0
LINE
  5
2941
  8
240
  6
CONTINUOUS
 10
31.249999999999929
 20
13.62179899999995
 30
0.0
 11
30.800000000000001
 21
13.62179899999995
 31
0.0
  0
LINE
  5
2942
  8
241
  6
CONTINUOUS
 10
27.033062956367338
 20
14.02179899999993
 30
0.0
 11
26.899188869102229
 21
14.82179899999994
 31
0.0
1001
GRPNAME
1000
PASTMD0O
  0
LINE
  5
2943
  8
241
  6
CONTINUOUS
 10
27.433062956367319
 20
13.62179899999995
 30
0.0
 11
27.033062956367271
 21
14.02179899999998
 31
0.0
1001
GRPNAME
1000
PASTMD0O
  0
LINE
  5
2944
  8
241
  6
CONTINUOUS
 10
26.899188869102229
 20
14.82179899999994
 30
0.0
 11
26.899188869102229
 21
15.221798999999971
 31
0.0
1001
GRPNAME
1000
PASTMD0O
  0
LINE
  5
2945
  8
241
  6
CONTINUOUS
 10
30.69999999999996
 20
13.62179899999995
 30
0.0
 11
30.69999999999996
 21
17.721798999999969
 31
0.0
  0
ARC
  5
2946
  8
241
  6
CONTINUOUS
 10
33.071348999999913
 20
17.393379999999961
 30
0.0
 40
0.2
 50
117.0000000000002
 51
237.0000000000002
  0
LINE
  5
2947
  8
240
  6
CONTINUOUS
 10
28.999999999999929
 20
19.221798999999969
 30
0.0
 11
31.26209099999992
 21
19.221798999999969
 31
0.0
  0
LINE
  5
2948
  8
240
  6
CONTINUOUS
 10
23.249999999999929
 20
19.321798999999931
 30
0.0
 11
26.749999999999929
 21
19.321798999999931
 31
0.0
  0
LINE
  5
2949
  8
240
  6
CONTINUOUS
 10
26.749999999999929
 20
19.321798999999931
 30
0.0
 11
28.042096999999931
 21
18.975582999999968
 31
0.0
  0
POLYLINE
  5
294A
  8
240
  6
CONTINUOUS
 66
     1
 10
0.0
 20
0.0
 30
0.0
 70
     8
  0
VERTEX
  5
294B
  8
240
  6
CONTINUOUS
 10
28.042096999999931
 20
18.975582999999968
 30
0.0
 70
    32
  0
VERTEX
  5
294C
  8
240
  6
CONTINUOUS
 10
28.281572999999948
 20
19.030856999999958
 30
0.0
 70
    32
  0
VERTEX
  5
294D
  8
240
  6
CONTINUOUS
 10
28.52104899999993
 20
19.090317999999961
 30
0.0
 70
    32
  0
VERTEX
  5
294E
  8
240
  6
CONTINUOUS
 10
28.760524999999951
 20
19.153964999999971
 30
0.0
 70
    32
  0
VERTEX
  5
294F
  8
240
  6
CONTINUOUS
 10
28.999999999999929
 20
19.221798999999969
 30
0.0
 70
    32
  0
SEQEND
  5
2950
  8
240
  0
ARC
  5
2951
  8
240
  6
CONTINUOUS
 10
38.611490999999901
 20
10.62179899999995
 30
0.0
 40
0.5
 50
270.0
 51
357.00000000000091
  0
LINE
  5
2952
  8
240
  6
CONTINUOUS
 10
37.312177999999939
 20
10.12179899999995
 30
0.0
 11
38.611490999999901
 21
10.12179899999995
 31
0.0
  0
LINE
  5
2953
  8
241
  6
CONTINUOUS
 10
39.999725999999917
 20
20.81133199999999
 30
0.0
 11
39.604498999999947
 21
13.26993899999996
 31
0.0
  0
LINE
  5
2954
  8
240
  6
CONTINUOUS
 10
39.244466999999972
 20
13.146037999999971
 30
0.0
 11
39.11080599999994
 21
10.59563099999996
 31
0.0
  0
ARC
  5
2955
  8
241
  6
CONTINUOUS
 10
39.404772999999949
 20
13.280406999999959
 30
0.0
 40
0.2
 50
237.0000000000002
 51
357.00000000000091
  0
ARC
  5
2956
  8
241
  6
CONTINUOUS
 10
39.799999999999933
 20
20.821798999999942
 30
0.0
 40
0.2
 50
357.00000000000091
 51
117.0000000000002
  0
LINE
  5
2988
  8
240
  6
CONTINUOUS
 10
-20.0
 20
-8.9999999999999911
 30
0.0
 11
-20.0
 21
8.9999999999999911
 31
0.0
  0
LINE
  5
2989
  8
240
  6
CONTINUOUS
 10
-20.0
 20
-8.9999999999999911
 30
0.0
 11
-8.5646999775780408
 21
-9.0000000000000124
 31
0.0
  0
LINE
  5
298A
  8
241
  6
CONTINUOUS
 10
-8.5646999775780408
 20
-9.0000000000000089
 30
0.0
 11
-1.4352990224219571
 21
-9.0000000000000124
 31
0.0
  0
LINE
  5
298B
  8
240
  6
CONTINUOUS
 10
-7.4100000056054993
 20
-11.0
 30
0.0
 11
-2.5899989943945001
 21
-11.0
 31
0.0
  0
LINE
  5
298C
  8
240
  6
CONTINUOUS
 10
-8.5646999775780408
 20
-9.0000000000000124
 30
0.0
 11
-7.4100000056054993
 21
-11.0
 31
0.0
  0
LINE
  5
298D
  8
240
  6
CONTINUOUS
 10
-1.4352990224219491
 20
-8.9999999999999982
 30
0.0
 11
0.0000000000000284
 21
-8.9999999999999716
 31
0.0
  0
LINE
  5
298E
  8
240
  6
CONTINUOUS
 10
-1.4352990224219491
 20
-8.9999999999999982
 30
0.0
 11
-2.5899989943945001
 21
-11.0
 31
0.0
  0
LINE
  5
298F
  8
240
  6
CONTINUOUS
 10
-1.435299022421973
 20
8.9999999999999822
 30
0.0
 11
-2.5899989943945352
 21
11.0
 31
0.0
  0
LINE
  5
2990
  8
240
  6
CONTINUOUS
 10
-8.5646999775780071
 20
9.0000000000000124
 30
0.0
 11
-7.410000005605462
 21
11.0
 31
0.0
  0
LINE
  5
2991
  8
240
  6
CONTINUOUS
 10
-20.0
 20
8.9999999999999911
 30
0.0
 11
-8.5646999775780071
 21
9.0000000000000124
 31
0.0
  0
CIRCLE
  5
2992
  8
241
  6
CONTINUOUS
 10
-8.0000000000000231
 20
-0.0000000000000995
 30
0.0
 40
2.9904999999999982
  0
CIRCLE
  5
2993
  8
241
  6
CONTINUOUS
 10
-8.0000000000000231
 20
-0.0000000000000995
 30
0.0
 40
2.25
  0
LINE
  5
2994
  8
245
  6
CENTER2
 10
-8.0000000000000231
 20
4.0476119999998561
 30
0.0
 11
-8.0000000000000231
 21
-3.9881560000001031
 31
0.0
  0
LINE
  5
2995
  8
241
  6
CONTINUOUS
 10
-8.5646999775780071
 20
9.0000000000000124
 30
0.0
 11
-1.435299022421973
 21
8.9999999999999822
 31
0.0
  0
LINE
  5
2996
  8
240
  6
CONTINUOUS
 10
-1.435299022421973
 20
8.9999999999999822
 30
0.0
 11
0.0000000000000426
 21
8.9999999999999432
 31
0.0
  0
LINE
  5
2997
  8
240
  6
CONTINUOUS
 10
-7.410000005605462
 20
11.0
 30
0.0
 11
-2.5899989943945352
 21
11.0
 31
0.0
  0
LINE
  5
2998
  8
250
  6
CONTINUOUS
 10
-24.994284614108409
 20
-19.052553054088211
 30
0.0
 11
-16.042736603975971
 21
-19.052553054088211
 31
0.0
  0
LINE
  5
2999
  8
250
  6
CONTINUOUS
 10
-16.042736603975971
 20
-19.052553054088211
 30
0.0
 11
-11.947411334816611
 21
-10.98830079559097
 31
0.0
  0
LINE
  5
299A
  8
250
  6
CONTINUOUS
 10
-11.947411334816611
 20
-10.98830079559097
 30
0.0
 11
-10.937678723551461
 21
-9.0000000000000089
 31
0.0
  0
LINE
  5
299B
  8
250
  6
CONTINUOUS
 10
-11.68564657028999
 20
-11.121234615166349
 30
0.0
 11
-10.937678723551461
 21
-9.0000000000000089
 31
0.0
  0
LINE
  5
299C
  8
250
  6
CONTINUOUS
 10
-10.937678723551461
 20
-9.0000000000000089
 30
0.0
 11
-12.20917609934326
 21
-10.85536697601558
 31
0.0
  0
TEXT
  5
299D
  8
250
  6
CONTINUOUS
 10
-25.394284614108411
 20
-17.761820145766698
 30
0.0
 40
2.799999999999998
  1
CK3
  7
YOKO
  0
LINE
  5
299E
  8
241
  6
CONTINUOUS
 10
-0.000000000000924
 20
8.9999999999999432
 30
0.0
 11
-0.0000000000009273
 21
-8.9999999999999876
 31
0.0
  0
LINE
  5
299F
  8
247
  6
CONTINUOUS
 10
4.0000000000011351
 20
-10.50000000000003
 30
0.0
 11
4.0000000000011804
 21
-6.7923076925360482
 31
0.0
  0
LINE
  5
29A0
  8
247
  6
CONTINUOUS
 10
2.0000000000011791
 20
-9.8639147999903791
 30
0.0
 11
3.6799999999339841
 21
-10.34564704804591
 31
0.0
  0
LINE
  5
29A1
  8
247
  6
CONTINUOUS
 10
2.7969230768923792
 20
-9.3601211228152508
 30
0.0
 11
2.7969230768923792
 21
-10.092428815093649
 31
0.0
  0
ARC
  5
29A2
  8
247
  6
CONTINUOUS
 10
2.3077752538364602
 20
-9.1698107215574662
 30
0.0
 40
0.3101372647461394
 50
72.997889675292001
 51
172.92416621851231
  0
ARC
  5
29A3
  8
247
  6
CONTINUOUS
 10
2.2441785048235912
 20
-9.4059820454433112
 30
0.0
 40
0.5546438372287014
 50
4.7429368522013924
 51
73.849226273266339
1001
GENIUS_GENOBJ-N-FIL_13
1002
{
1000
OWNER
1000
GEN
1002
}
1001
GENIUS_GENODEF_13
1002
{
1000
HIER
1070
     0
1002
}
1002
{
1000
MANEDIT
1070
     0
1002
}
1002
{
1000
NOSEL
1070
     0
1002
}
1002
{
1000
BEHIND
1070
     0
1002
}
1002
{
1000
OTHER
1070
     0
1002
}
1002
{
1000
REACTOR
1002
}
  0
LINE
  5
29A4
  8
247
  6
CONTINUOUS
 10
3.6799999999339841
 20
-9.6133393557675113
 30
0.0
 11
3.6799999999339841
 21
-10.34564704804591
 31
0.0
  0
LINE
  5
29A5
  8
247
  6
CONTINUOUS
 10
2.0000000000011791
 20
-9.8639147999903862
 30
0.0
 11
2.0000000000011791
 21
-9.131607107711984
 31
0.0
  0
ARC
  5
29A6
  8
247
  6
CONTINUOUS
 10
3.1099335702154791
 20
-9.4026451810134901
 30
0.0
 40
0.3158858408603088
 50
65.990941652528889
 51
172.26344345906949
  0
ARC
  5
29A7
  8
247
  6
CONTINUOUS
 10
3.1129602618672361
 20
-9.6699572883415552
 30
0.0
 40
0.5698593289889349
 50
5.701985164258037
 51
77.277338436822262
1001
GENIUS_GENOBJ-N-FIL_13
1002
{
1000
OWNER
1000
GEN
1002
}
1001
GENIUS_GENODEF_13
1002
{
1000
HIER
1070
     0
1002
}
1002
{
1000
MANEDIT
1070
     0
1002
}
1002
{
1000
NOSEL
1070
     0
1002
}
1002
{
1000
BEHIND
1070
     0
1002
}
1002
{
1000
OTHER
1070
     0
1002
}
1002
{
1000
REACTOR
1002
}
  0
LINE
  5
29A8
  8
247
  6
CONTINUOUS
 10
3.6799999999339841
 20
-8.847185509650723
 30
0.0
 11
2.0000000000011791
 21
-8.3654532615951975
 31
0.0
  0
LINE
  5
29A9
  8
247
  6
CONTINUOUS
 10
2.0000000000011791
 20
-7.168530184726392
 30
0.0
 11
2.0000000000011791
 21
-7.4853426914428889
 31
0.0
  0
LINE
  5
29AA
  8
247
  6
CONTINUOUS
 10
3.6799999999339841
 20
-7.9869917231551932
 30
0.0
 11
3.6799999999339841
 21
-7.6423763385535981
 31
0.0
  0
ARC
  5
29AB
  8
247
  6
CONTINUOUS
 10
3.1666396760678701
 20
-7.0054532616559921
 30
0.0
 40
1.261484046111637
 50
202.35948814152729
 51
254.993248542846
  0
ARC
  5
29AC
  8
247
  6
CONTINUOUS
 10
2.4526550868316912
 20
-7.378009092906602
 30
0.0
 40
0.4987765437607558
 50
94.994589319075374
 51
155.16632895730359
1001
GENIUS_GENOBJ-N-FIL_13
1002
{
1000
OWNER
1000
GEN
1002
}
1001
GENIUS_GENODEF_13
1002
{
1000
HIER
1070
     0
1002
}
1002
{
1000
MANEDIT
1070
     0
1002
}
1002
{
1000
NOSEL
1070
     0
1002
}
1002
{
1000
BEHIND
1070
     0
1002
}
1002
{
1000
OTHER
1070
     0
1002
}
1002
{
1000
REACTOR
1002
}
  0
ARC
  5
29AD
  8
247
  6
CONTINUOUS
 10
2.929681697576731
 20
-7.8553471608262431
 30
0.0
 40
0.7799577719285588
 50
15.846096555779971
 51
82.325137004169164
  0
ARC
  5
29AE
  8
247
  6
CONTINUOUS
 10
3.097176321578035
 20
-7.5281693110177983
 30
0.0
 40
0.7417556510953607
 50
249.71360167049701
 51
321.78874565640962
1001
GENIUS_GENOBJ-N-FIL_13
1002
{
1000
OWNER
1000
GEN
1002
}
1001
GENIUS_GENODEF_13
1002
{
1000
HIER
1070
     0
1002
}
1002
{
1000
MANEDIT
1070
     0
1002
}
1002
{
1000
NOSEL
1070
     0
1002
}
1002
{
1000
BEHIND
1070
     0
1002
}
1002
{
1000
OTHER
1070
     0
1002
}
1002
{
1000
REACTOR
1002
}
  0
LINE
  5
29AF
  8
247
  6
CONTINUOUS
 10
3.03384615380596
 20
-7.4700686462527921
 30
0.0
 11
3.03384615380596
 21
-7.082376338575993
 31
0.0
  0
ARC
  5
29B0
  8
247
  6
CONTINUOUS
 10
3.0000000000011791
 20
-10.50000000000003
 30
0.0
 40
1.0
 50
180.0
 51
0.0
  0
LINE
  5
29B1
  8
247
  6
CONTINUOUS
 10
2.0000000000011791
 20
-10.50000000000003
 30
0.0
 11
2.0000000000011791
 21
-10.14307692313122
 31
0.0
  0
ARC
  5
29B2
  8
247
  6
CONTINUOUS
 10
3.0000000000011791
 20
-6.7923076925360331
 30
0.0
 40
1.0
 50
0.0
 51
180.0
  0
LINE
  5
2B3F
  8
241
  6
CONTINUOUS
 10
30.800000000000001
 20
13.62179899999995
 30
0.0
 11
27.100000000000009
 21
13.62179899999995
 31
0.0
  0
VIEWPORT
  5
22
 67
     1
  8
0
 10
261.51769911504419
 20
148.5
 30
0.0
 40
523.0353982300885
 41
297.0
 68
     1
 69
     1
1001
ACAD
1000
MVIEW
1002
{
1070
    16
1010
0.0
1020
0.0
1030
0.0
1010
0.0
1020
0.0
1030
1.0
1040
0.0
1040
297.0
1040
261.51769911504419
1040
148.5
1040
50.0
1040
0.0
1040
0.0
1070
     0
1070
   100
1070
     1
1070
     1
1070
     0
1070
     0
1070
     0
1070
     0
1040
0.0
1040
0.0
1040
0.0
1040
1.0
1040
1.0
1040
10.0
1040
10.0
1070
     0
1002
{
1002
}
1002
}
1001
GENIUS_GENOBJ-N-SDF_13
1002
{
1000
OWNER
1000
GEN
1002
}
1001
GENIUS_GENODEF_13
1002
{
1000
HIER
1070
     0
1002
}
1002
{
1000
MANEDIT
1070
     0
1002
}
1002
{
1000
NOSEL
1070
     0
1002
}
1002
{
1000
BEHIND
1070
     0
1002
}
1002
{
1000
OTHER
1070
     0
1002
}
1002
{
1000
REACTOR
1002
}
1001
GENIUS_GENSCREG_15
1000
PF
1040
1.0
1000
DF
1040
1.0
1000
MIN
1011
0.0
1021
0.0
1031
0.0
1021
0.0
1031
0.0
1000
MAX
1011
523.0353982300885
1021
0.0
1031
0.0
1021
297.0
1031
0.0
1000
FLAGS
1070
     4
  0
ENDSEC
  0
EOF
