  0
SECTION
  2
HEADER
  9
$ACADVER
  1
AC1009
  9
$INSBASE
 10
0.0
 20
0.0
 30
0.0
  9
$EXTMIN
 10
-19.96927907915752
 20
-15.33373705482972
 30
0.0
  9
$EXTMAX
 10
73.382305897163974
 20
47.000000000000007
 30
0.0
  9
$LIMMIN
 10
0.0
 20
0.0
  9
$LIMMAX
 10
297.0
 20
210.0
  9
$ORTHOMODE
 70
     1
  9
$REGENMODE
 70
     1
  9
$FILLMODE
 70
     1
  9
$QTEXTMODE
 70
     0
  9
$MIRRTEXT
 70
     1
  9
$DRAGMODE
 70
     2
  9
$LTSCALE
 40
10.0
  9
$OSMODE
 70
     7
  9
$ATTMODE
 70
     1
  9
$TEXTSIZE
 40
3.0
  9
$TRACEWID
 40
1.0
  9
$TEXTSTYLE
  7
YOKO
  9
$CLAYER
  8
240
  9
$CELTYPE
  6
BYLAYER
  9
$CECOLOR
 62
   256
  9
$DIMSCALE
 40
1.0
  9
$DIMASZ
 40
2.2299999999999991
  9
$DIMEXO
 40
0.5
  9
$DIMDLI
 40
7.0
  9
$DIMRND
 40
0.0
  9
$DIMDLE
 40
0.0
  9
$DIMEXE
 40
1.0
  9
$DIMTP
 40
0.0
  9
$DIMTM
 40
0.01
  9
$DIMTXT
 40
2.799999999999998
  9
$DIMCEN
 40
0.0
  9
$DIMTSZ
 40
0.0
  9
$DIMTOL
 70
     0
  9
$DIMLIM
 70
     0
  9
$DIMTIH
 70
     0
  9
$DIMTOH
 70
     0
  9
$DIMSE1
 70
     0
  9
$DIMSE2
 70
     0
  9
$DIMTAD
 70
     3
  9
$DIMZIN
 70
     9
  9
$DIMBLK
  1
OPEN
  9
$DIMASO
 70
     1
  9
$DIMSHO
 70
     1
  9
$DIMPOST
  1

  9
$DIMAPOST
  1

  9
$DIMALT
 70
     0
  9
$DIMALTD
 70
     2
  9
$DIMALTF
 40
25.399999999999999
  9
$DIMLFAC
 40
1.0
  9
$DIMTOFL
 70
     1
  9
$DIMTVP
 40
0.0
  9
$DIMTIX
 70
     1
  9
$DIMSOXD
 70
     0
  9
$DIMSAH
 70
     0
  9
$DIMBLK1
  1

  9
$DIMBLK2
  1

  9
$DIMSTYLE
  2
BIGT
  9
$DIMCLRD
 70
   256
  9
$DIMCLRE
 70
   256
  9
$DIMCLRT
 70
    40
  9
$DIMTFAC
 40
1.0
  9
$DIMGAP
 40
1.0
  9
$LUNITS
 70
     2
  9
$LUPREC
 70
     3
  9
$SKETCHINC
 40
1.0
  9
$FILLETRAD
 40
0.0
  9
$AUNITS
 70
     0
  9
$AUPREC
 70
     3
  9
$MENU
  1
.
  9
$ELEVATION
 40
0.0
  9
$PELEVATION
 40
0.0
  9
$THICKNESS
 40
0.0
  9
$LIMCHECK
 70
     0
  9
$BLIPMODE
 70
     0
  9
$CHAMFERA
 40
0.25
  9
$CHAMFERB
 40
0.25
  9
$SKPOLY
 70
     0
  9
$TDCREATE
 40
2453614.7196634379
  9
$TDUPDATE
 40
2460549.5737707289
  9
$TDINDWG
 40
0.0076457639
  9
$TDUSRTIMER
 40
0.0076457292
  9
$USRTIMER
 70
     1
  9
$ANGBASE
 50
0.0
  9
$ANGDIR
 70
     0
  9
$PDMODE
 70
    35
  9
$PDSIZE
 40
-5.0
  9
$PLINEWID
 40
0.0
  9
$COORDS
 70
     1
  9
$SPLFRAME
 70
     0
  9
$SPLINETYPE
 70
     6
  9
$SPLINESEGS
 70
     4
  9
$ATTDIA
 70
     1
  9
$ATTREQ
 70
     1
  9
$HANDLING
 70
     1
  9
$HANDSEED
  5
1CB8
  9
$SURFTAB1
 70
     6
  9
$SURFTAB2
 70
     6
  9
$SURFTYPE
 70
     6
  9
$SURFU
 70
     6
  9
$SURFV
 70
     6
  9
$UCSNAME
  2

  9
$UCSORG
 10
0.0
 20
0.0
 30
0.0
  9
$UCSXDIR
 10
1.0
 20
0.0
 30
0.0
  9
$UCSYDIR
 10
0.0
 20
1.0
 30
0.0
  9
$PUCSNAME
  2

  9
$PUCSORG
 10
0.0
 20
0.0
 30
0.0
  9
$PUCSXDIR
 10
1.0
 20
0.0
 30
0.0
  9
$PUCSYDIR
 10
0.0
 20
1.0
 30
0.0
  9
$USERI1
 70
     1
  9
$USERI2
 70
     0
  9
$USERI3
 70
     0
  9
$USERI4
 70
     0
  9
$USERI5
 70
     0
  9
$USERR1
 40
0.0
  9
$USERR2
 40
0.0
  9
$USERR3
 40
0.0
  9
$USERR4
 40
0.0
  9
$USERR5
 40
0.0
  9
$WORLDVIEW
 70
     1
  9
$SHADEDGE
 70
     3
  9
$SHADEDIF
 70
    70
  9
$TILEMODE
 70
     1
  9
$MAXACTVP
 70
    16
  9
$PLIMCHECK
 70
     0
  9
$PEXTMIN
 10
1.0000000000000000E+020
 20
1.0000000000000000E+020
 30
1.0000000000000000E+020
  9
$PEXTMAX
 10
-1.0000000000000000E+020
 20
-1.0000000000000000E+020
 30
-1.0000000000000000E+020
  9
$PLIMMIN
 10
0.0
 20
0.0
  9
$PLIMMAX
 10
420.0
 20
297.0
  9
$UNITMODE
 70
     0
  9
$VISRETAIN
 70
     1
  9
$PLINEGEN
 70
     0
  9
$PSLTSCALE
 70
     1
  0
ENDSEC
  0
SECTION
  2
TABLES
  0
TABLE
  2
VPORT
 70
     1
  0
VPORT
  2
*ACTIVE
 70
     0
 10
0.0
 20
0.0
 11
1.0
 21
1.0
 12
35.911810089858122
 22
17.225617753126809
 13
0.0
 23
0.0
 14
7.0
 24
7.0
 15
7.0
 25
7.0
 16
0.0
 26
0.0
 36
1.0
 17
0.0
 27
0.0
 37
0.0
 40
77.840627058707042
 41
2.0682680151706689
 42
50.0
 43
0.0
 44
0.0
 50
0.0
 51
0.0
 71
     0
 72
  2000
 73
     1
 74
     0
 75
     0
 76
     0
 77
     0
 78
     0
  0
ENDTAB
  0
TABLE
  2
LTYPE
 70
    18
  0
LTYPE
  2
CONTINUOUS
 70
     0
  3
Solid line
 72
    65
 73
     0
 40
0.0
  0
LTYPE
  2
CENTER2
 70
     0
  3
___ _ ___ _ ___ _ ___ _ ___ _ ___ _ ___ _ ___ _
 72
    65
 73
     4
 40
1.125
 49
0.75
 49
-0.125
 49
0.125
 49
-0.125
  0
LTYPE
  2
HIDDEN2
 70
     0
  3
_ _ _ _ _ _ _ _ _ _ _ _ _ _ _ _ _ _ _ _ _ _ _ _
 72
    65
 73
     2
 40
0.1875
 49
0.125
 49
-0.0625
  0
LTYPE
  2
PHANTOM2
 70
     0
  3
___ _ _ ___ _ _ ___ _ _ ___ _ _ ___ _ _ ___ _ _
 72
    65
 73
     6
 40
1.25
 49
0.625
 49
-0.125
 49
0.125
 49
-0.125
 49
0.125
 49
-0.125
  0
LTYPE
  2
CENTER
 70
     0
  3
____ _ ____ _ ____ _ ____ _ ____ _ ____ _ ____ 
 72
    65
 73
     4
 40
2.0
 49
1.25
 49
-0.25
 49
0.25
 49
-0.25
  0
LTYPE
  2
AMCONSTR
 70
     0
  3
_______________________
 72
    65
 73
     2
 40
9999.0
 49
9999.0
 49
0.0
  0
LTYPE
  2
HIDDEN
 70
     0
  3
Hidden __ __ __ __ __ __ __ __ __ __ __ __ __ _
 72
    65
 73
     2
 40
9.5249999999999986
 49
6.349999999999997
 49
-3.174999999999998
  0
LTYPE
  2
ACANSTGB
 70
     0
  3
__ . . __ . .
 72
    65
 73
     6
 40
0.35433070866
 49
0.15748031496
 49
-0.03937007874
 49
0.03937007874
 49
-0.03937007874
 49
0.03937007874
 49
-0.03937007874
  0
LTYPE
  2
ACANSTGL
 70
     0
  3
_ _ _ _ _
 72
    65
 73
     2
 40
0.11811023622
 49
0.07874015748
 49
-0.03937007874
  0
LTYPE
  2
AMZIGZAG2
 70
     0
  3
/\/-/\/-/\/-/\/-/\/-/\/
 72
    65
 73
     2
 40
0.4401
 49
0.0001
 49
-0.4400000000000003
  0
ENDTAB
  0
TABLE
  2
LAYER
 70
     9
  0
LAYER
  2
0
 70
     0
 62
     7
  6
CONTINUOUS
  0
LAYER
  2
240
 70
     0
 62
     4
  6
CONTINUOUS
  0
LAYER
  2
241
 70
     0
 62
   211
  6
CONTINUOUS
  0
LAYER
  2
DEFPOINTS
 70
     0
 62
     7
  6
CONTINUOUS
  0
LAYER
  2
245
 70
     0
 62
     2
  6
CENTER2
  0
LAYER
  2
242
 70
     0
 62
     3
  6
CONTINUOUS
  0
LAYER
  2
246
 70
     0
 62
     3
  6
PHANTOM2
  0
LAYER
  2
247
 70
     0
 62
    60
  6
CONTINUOUS
  0
LAYER
  2
250
 70
     0
 62
     3
  6
CONTINUOUS
  0
ENDTAB
  0
TABLE
  2
STYLE
 70
     6
  0
STYLE
  2
STANDARD
 70
     0
 40
0.0
 41
1.0
 50
0.0
 71
     0
 42
3.0
  3
romans.shx
  4
extfont.shx
  0
STYLE
  2
YOKO
 70
     0
 40
0.0
 41
1.0
 50
0.0
 71
     0
 42
3.0
  3
romans.shx
  4
extfont.shx
  0
STYLE
  2
ACANSGDT
 70
     0
 40
0.0
 41
1.0
 50
0.0
 71
     0
 42
3.0
  3
amgdt.shx
  4

  0
ENDTAB
  0
TABLE
  2
VIEW
 70
     0
  0
ENDTAB
  0
TABLE
  2
UCS
 70
     0
  0
ENDTAB
  0
TABLE
  2
APPID
 70
    38
  0
APPID
  2
ACAD
 70
     0
  0
APPID
  2
ACADANNOTATIVE
 70
     0
  0
APPID
  2
GLOBAL
 70
     0
  0
APPID
  2
DETAIL
 70
     0
  0
APPID
  2
GRPNAME
 70
     0
  0
APPID
  2
GPARA
 70
     0
  0
APPID
  2
MCAD_NO_VIS
 70
     0
  0
APPID
  2
ACAD_TEMP_GRAPHIC
 70
     0
  0
APPID
  2
ACATTRIBSERVICES
 70
     0
  0
APPID
  2
GENIUS_GENSCREG_15
 70
     0
  0
APPID
  2
GENIUS_GENODEF_13
 70
     0
  0
APPID
  2
GENIUS_GENOBJ-N-SDF_13
 70
     0
  0
APPID
  2
GENIUS_GENREC_14
 70
     0
  0
APPID
  2
GENIUS_GENOBJ-N-REC_13
 70
     0
  0
APPID
  2
GENIUS_GENDIMSH_14
 70
     0
  0
APPID
  2
GENIUS_GENOBJ-N-DIM_13
 70
     0
  0
APPID
  2
GENIUS_GENDIM_13
 70
     0
  0
APPID
  2
GENIUS_GENDTOL_13
 70
     0
  0
APPID
  2
GENIUS_GENOLIS_13
 70
     0
  0
APPID
  2
GENIUS_GENOENT_13
 70
     0
  0
APPID
  2
GENIUS_GENOBJ-F-FEM_13
 70
     0
  0
APPID
  2
GENIUS_GENOREF_13
 70
     0
  0
APPID
  2
GENIUS_GEFFEM_13
 70
     0
  0
APPID
  2
GENIUS_GEFFEMP_13
 70
     0
  0
APPID
  2
AD_DRAW
 70
     0
  0
APPID
  2
DESIGNERASSEMBLIES
 70
     0
  0
APPID
  2
ACADM_DIM_EDIT
 70
     0
  0
APPID
  2
AMDT_DM_ADJ
 70
     0
  0
APPID
  2
ITEMNAME
 70
     0
  0
APPID
  2
HATCH_TYPE
 70
     0
  0
APPID
  2
HATCH_DISPLAY
 70
     0
  0
APPID
  2
HATCH_DISTANCE
 70
     0
  0
APPID
  2
ACAD_DSTYLE_DIMBREAK
 70
     0
  0
APPID
  2
ACAD_DSTYLE_DIMJAG
 70
     0
  0
APPID
  2
ACAD_NAV_VCDISPLAY
 70
     0
  0
APPID
  2
GENIUS_GENOBJ-N-FIL_13
 70
     0
  0
APPID
  2
ACAD_EXEMPT_FROM_CAD_STANDARDS
 70
     0
  0
APPID
  2
ACAD_MLEADERVER
 70
     0
  0
ENDTAB
  0
TABLE
  2
DIMSTYLE
 70
    10
  0
DIMSTYLE
  2
STANDARD
 70
     0
  3

  4

  5

  6

  7

 40
1.0
 41
0.18
 42
0.0625
 43
0.38
 44
0.18
 45
0.0
 46
0.0
 47
0.0
 48
0.0
140
0.18
141
0.09
142
0.0
143
25.399999999999999
144
1.0
145
0.0
146
1.0
147
0.09
 71
     0
 72
     0
 73
     1
 74
     1
 75
     0
 76
     0
 77
     0
 78
     0
170
     0
171
     2
172
     0
173
     0
174
     0
175
     0
176
     0
177
     0
178
     0
  0
DIMSTYLE
  2
BIGT
 70
     0
  3

  4

  5

  6

  7

 40
1.0
 41
2.2299999999999991
 42
0.5
 43
7.0
 44
1.0
 45
0.0
 46
0.0
 47
0.0
 48
0.01
140
2.799999999999998
141
0.0
142
0.0
143
25.399999999999999
144
1.0
145
0.0
146
1.0
147
1.0
 71
     0
 72
     0
 73
     0
 74
     0
 75
     0
 76
     0
 77
     3
 78
     9
170
     0
171
     2
172
     1
173
     0
174
     1
175
     0
176
   256
177
   256
178
    40
  0
DIMSTYLE
  2
AM_ANSI
 70
     0
  3

  4
mm
  5

  6

  7

 40
1.0
 41
0.1
 42
0.05
 43
0.5
 44
0.1
 45
0.0
 46
0.0
 47
0.1
 48
0.1
140
0.12
141
0.0
142
0.0
143
25.399999999999999
144
1.0
145
0.0
146
0.71
147
0.06
 71
     0
 72
     0
 73
     1
 74
     1
 75
     0
 76
     0
 77
     0
 78
     7
170
     0
171
     2
172
     0
173
     0
174
     0
175
     0
176
   256
177
   256
178
     2
  0
DIMSTYLE
  2
AM_ANSI$3
 70
     0
  3

  4
mm
  5

  6

  7

 40
1.0
 41
0.1
 42
0.05
 43
0.5
 44
0.1
 45
0.0
 46
0.0
 47
0.1
 48
0.1
140
0.12
141
0.0
142
0.0
143
25.399999999999999
144
1.0
145
0.0
146
0.71
147
0.06
 71
     0
 72
     0
 73
     1
 74
     1
 75
     0
 76
     0
 77
     0
 78
     7
170
     0
171
     2
172
     0
173
     0
174
     0
175
     0
176
   256
177
   256
178
     2
  0
DIMSTYLE
  2
AM_ANSI$4
 70
     0
  3

  4
mm
  5

  6

  7

 40
1.0
 41
0.1
 42
0.05
 43
0.5
 44
0.1
 45
0.0
 46
0.0
 47
0.1
 48
0.1
140
0.12
141
0.0
142
0.0
143
25.399999999999999
144
1.0
145
0.0
146
0.71
147
0.06
 71
     0
 72
     0
 73
     1
 74
     1
 75
     0
 76
     0
 77
     0
 78
     7
170
     0
171
     2
172
     0
173
     0
174
     0
175
     0
176
   256
177
   256
178
     2
  0
DIMSTYLE
  2
AM_ANSI$7
 70
     0
  3

  4
mm
  5

  6

  7

 40
1.0
 41
0.1
 42
0.05
 43
0.5
 44
0.1
 45
0.0
 46
0.0
 47
0.1
 48
0.1
140
0.24
141
0.0
142
0.0
143
25.399999999999999
144
1.0
145
0.0
146
0.71
147
0.06
 71
     0
 72
     0
 73
     1
 74
     1
 75
     0
 76
     0
 77
     0
 78
     7
170
     0
171
     2
172
     0
173
     0
174
     0
175
     0
176
   256
177
   256
178
     2
  0
DIMSTYLE
  2
AM_ANSI$SF
 70
     0
  3

  4
mm
  5

  6

  7

 40
1.0
 41
0.1
 42
0.05
 43
0.5
 44
0.1
 45
0.0
 46
0.0
 47
0.1
 48
0.1
140
0.12
141
0.0
142
0.0
143
25.399999999999999
144
1.0
145
0.0
146
0.71
147
0.06
 71
     0
 72
     0
 73
     1
 74
     1
 75
     1
 76
     1
 77
     0
 78
     7
170
     0
171
     2
172
     0
173
     0
174
     0
175
     0
176
   256
177
   256
178
     2
  0
DIMSTYLE
  2
AM_ANSI$SH
 70
     0
  3

  4
mm
  5

  6

  7

 40
1.0
 41
0.1
 42
0.05
 43
0.5
 44
0.1
 45
0.0
 46
0.0
 47
0.1
 48
0.1
140
0.12
141
0.0
142
0.0
143
25.399999999999999
144
1.0
145
0.0
146
0.71
147
0.06
 71
     0
 72
     0
 73
     1
 74
     1
 75
     1
 76
     1
 77
     0
 78
     7
170
     0
171
     2
172
     0
173
     1
174
     0
175
     0
176
   256
177
   256
178
     2
  0
ENDTAB
  0
ENDSEC
  0
SECTION
  2
BLOCKS
  0
BLOCK
  8
0
  2
$MODEL_SPACE
 70
     0
 10
0.0
 20
0.0
 30
0.0
  3
$MODEL_SPACE
  1

  0
ENDBLK
  5
1B95
  8
0
  0
BLOCK
 67
     1
  8
0
  2
$PAPER_SPACE
 70
     0
 10
0.0
 20
0.0
 30
0.0
  3
$PAPER_SPACE
  1

  0
ENDBLK
  5
1B91
 67
     1
  8
0
  0
BLOCK
  8
0
  2
_OPEN
 70
     0
 10
0.0
 20
0.0
 30
0.0
  3
_OPEN
  1

  0
LINE
  5
595
  8
0
  6
BYBLOCK
 62
     0
 10
-1.0
 20
0.1666666666666666
 30
0.0
 11
0.0
 21
0.0
 31
0.0
  0
LINE
  5
596
  8
0
  6
BYBLOCK
 62
     0
 10
-1.0
 20
-0.1666666666666666
 30
0.0
 11
0.0
 21
0.0
 31
0.0
  0
LINE
  5
597
  8
0
  6
BYBLOCK
 62
     0
 10
0.0
 20
0.0
 30
0.0
 11
-1.0
 21
0.0
 31
0.0
  0
ENDBLK
  5
599
  8
0
  0
BLOCK
  8
0
  2
_ACMFILLEDHALF
 70
     0
 10
0.0
 20
0.0
 30
0.0
  3
_ACMFILLEDHALF
  1

  0
TRACE
  5
17AE
  8
240
 62
     0
 10
-0.8
 20
0.0
 30
0.0
 11
-1.0
 21
0.166666666
 31
0.0
 12
0.0
 22
0.0
 32
0.0
 13
0.0
 23
0.0
 33
0.0
  0
LINE
  5
17AF
  8
240
 62
     0
 10
-1.0
 20
0.0
 30
0.0
 11
-0.8
 21
0.0
 31
0.0
  0
ENDBLK
  5
17AD
  8
0
  0
ENDSEC
  0
SECTION
  2
ENTITIES
  0
LINE
  5
145B
  8
250
  6
CONTINUOUS
 10
35.49972600000001
 20
28.164921999999901
 30
0.0
 11
33.269726000000013
 21
28.164921999999901
 31
0.0
  0
LINE
  5
145C
  8
250
  6
CONTINUOUS
 10
33.269726000000013
 20
27.793255333333239
 30
0.0
 11
35.49972600000001
 21
28.164921999999901
 31
0.0
  0
LINE
  5
145D
  8
250
  6
CONTINUOUS
 10
33.269726000000013
 20
28.536588666666571
 30
0.0
 11
35.49972600000001
 21
28.164921999999901
 31
0.0
  0
LINE
  5
145E
  8
250
  6
CONTINUOUS
 10
48.999982048628141
 20
16.604259999999861
 30
0.0
 11
48.999982048628141
 21
14.37425999999987
 31
0.0
  0
LINE
  5
145F
  8
250
  6
CONTINUOUS
 10
49.37164871529481
 20
14.37425999999987
 30
0.0
 11
48.999982048628141
 21
16.604259999999861
 31
0.0
  0
LINE
  5
1460
  8
250
  6
CONTINUOUS
 10
48.628315381961471
 20
14.37425999999987
 30
0.0
 11
48.999982048628141
 21
16.604259999999861
 31
0.0
  0
LINE
  5
1461
  8
250
  6
CONTINUOUS
 10
32.161603888524347
 20
16.220630999999941
 30
0.0
 11
33.276603888524363
 21
18.151867650439211
 31
0.0
  0
LINE
  5
1462
  8
250
  6
CONTINUOUS
 10
32.954731113451139
 20
18.337700983772571
 30
0.0
 11
32.161603888524347
 21
16.220630999999941
 31
0.0
  0
LINE
  5
1463
  8
250
  6
CONTINUOUS
 10
33.598476663597573
 20
17.966034317105901
 30
0.0
 11
32.161603888524347
 21
16.220630999999941
 31
0.0
  0
TEXT
  5
1464
  8
250
  6
CONTINUOUS
 10
46.714267762913849
 20
4.6538896635877212
 30
0.0
 40
3.0
  1
33)
 50
90.0
1001
ACAD
1000
MTEXTBEGIN
1070
    73
1070
     1
1070
    44
1040
1.0
1070
    74
1070
     0
1000
MTEXTEND
  0
TEXT
  5
1465
  8
250
  6
CONTINUOUS
 10
46.714267762913849
 20
1.939603949302011
 30
0.0
 40
3.0
  1
\U+2205
 50
90.0
1001
ACAD
1000
MTEXTBEGIN
1070
    73
1070
     1
1070
    44
1040
1.0
1070
    74
1070
     0
1000
MTEXTEND
  0
TEXT
  5
1466
  8
250
  6
CONTINUOUS
 10
46.714267762913849
 20
-7.4889674792694141
 30
0.0
 40
3.0
  1
25~
 50
90.0
1001
ACAD
1000
MTEXTBEGIN
1070
    73
1070
     1
1070
    44
1040
1.0
1070
    74
1070
     0
1000
MTEXTEND
  0
TEXT
  5
1467
  8
250
  6
CONTINUOUS
 10
46.714267762913849
 20
-10.203253193555129
 30
0.0
 40
3.0
  1
\U+2205
 50
90.0
1001
ACAD
1000
MTEXTBEGIN
1070
    73
1070
     1
1070
    44
1040
1.0
1070
    74
1070
     0
1000
MTEXTEND
  0
TEXT
  5
1468
  8
250
  6
CONTINUOUS
 10
46.714267762913849
 20
-12.203253193555121
 30
0.0
 40
3.0
  1
(
 50
90.0
1001
ACAD
1000
MTEXTBEGIN
1070
    73
1070
     1
1070
    44
1040
1.0
1070
    74
1070
     0
1000
MTEXTEND
  0
LINE
  5
1469
  8
250
  6
CONTINUOUS
 10
33.276603888524363
 20
18.151867650439211
 30
0.0
 11
38.998506496213729
 21
28.062493682918038
 31
0.0
1001
ACAD
1000
DSTYLE
1002
{
1070
     5
1000
OPEN
1070
    41
1040
2.2299999999999991
1070
    78
1070
     8
1070
    79
1070
     2
1070
   140
1040
3.0
1070
   179
1070
     3
1070
   341
1005
0
1070
   371
1070
    -1
1070
   372
1070
    -1
1002
}
  0
TEXT
  5
146A
  8
250
  6
CONTINUOUS
 10
12.74986300000001
 20
29.164921999999901
 30
0.0
 40
3.0
  1
35.5
1001
ACAD
1000
MTEXTBEGIN
1070
    73
1070
     1
1070
    44
1040
1.0
1070
    74
1070
     0
1000
MTEXTEND
  0
LINE
  5
146B
  8
250
  6
CONTINUOUS
 10
0.0000000000000011
 20
28.164921999999901
 30
0.0
 11
2.2299999999999991
 21
28.164921999999901
 31
0.0
  0
LINE
  5
146C
  8
250
  6
CONTINUOUS
 10
2.2299999999999991
 20
28.536588666666571
 30
0.0
 11
0.0000000000000011
 21
28.164921999999901
 31
0.0
  0
LINE
  5
146D
  8
250
  6
CONTINUOUS
 10
2.2299999999999991
 20
27.793255333333239
 30
0.0
 11
0.0000000000000011
 21
28.164921999999901
 31
0.0
  0
TEXT
  5
147E
  8
250
  6
CONTINUOUS
 10
41.427077924785181
 20
29.062493682918038
 30
0.0
 40
3.0
  1
ENH2-1,TP08
  7
YOKO
1001
ITEMNAME
1000
LNSP3
1001
ACAD
1000
MTEXTBEGIN
1070
    73
1070
     1
1070
    44
1040
1.0
1070
    74
1070
     0
1000
MTEXTEND
  0
LINE
  5
147F
  8
250
  6
CONTINUOUS
 10
48.999982048628141
 20
14.37425999999987
 30
0.0
 11
48.999982048628141
 21
-12.63182462212656
 31
0.0
  0
LINE
  5
1480
  8
250
  6
CONTINUOUS
 10
35.709201900052101
 20
16.604259999999879
 30
0.0
 11
49.999982048628148
 21
16.604259999999861
 31
0.0
  0
LINE
  5
1482
  8
250
  6
CONTINUOUS
 10
2.2299999999999991
 20
28.164921999999901
 30
0.0
 11
33.269726000000013
 21
28.164921999999901
 31
0.0
  0
LINE
  5
1483
  8
250
  6
CONTINUOUS
 10
35.49972600000001
 20
16.89379199999993
 30
0.0
 11
35.49972600000001
 21
29.164921999999901
 31
0.0
  0
LINE
  5
1484
  8
250
  6
CONTINUOUS
 10
0.0
 20
10.98246099999991
 30
0.0
 11
0.0000000000000011
 21
29.164921999999901
 31
0.0
  0
LINE
  5
1490
  8
250
  6
CONTINUOUS
 10
34.74446700000005
 20
8.6460370000001099
 30
0.0
 11
34.74057700000003
 21
8.5717990000000732
 31
0.0
  0
LINE
  5
14A8
  8
250
  6
CONTINUOUS
 10
38.998506496213729
 20
28.062493682918038
 30
0.0
 11
73.382305897163974
 21
28.062493682918038
 31
0.0
1001
ITEMNAME
1000
LNSP2
  0
TEXT
  5
14AA
  8
241
  6
CONTINUOUS
 10
-14.0
 20
42.0
 30
0.0
 40
5.0
  1
EWN25-47CKB2
  7
YOKO
 11
-14.0
 21
42.0
 31
0.0
 73
     1
  0
LINE
  5
17D1
  8
241
  6
CONTINUOUS
 10
28.70000000000001
 20
11.07179899999994
 30
0.0
 11
25.099999999998229
 21
11.07179899999975
 31
0.0
  0
LINE
  5
17D2
  8
241
  6
CONTINUOUS
 10
23.5
 20
9.3999999999999755
 30
0.0
 11
29.000000000000028
 21
7.9262792777777502
 31
0.0
  0
LINE
  5
17D3
  8
240
  6
CONTINUOUS
 10
25.700000000000021
 20
-10.788784000000019
 30
0.0
 11
29.95000000000001
 21
-9.6500000000000341
 31
0.0
  0
LINE
  5
17D4
  8
245
  6
CENTER2
 10
34.984166999999978
 20
0.0
 30
0.0
 11
-17.739975999999992
 21
0.0
 31
0.0
  0
LINE
  5
17D5
  8
241
  6
CONTINUOUS
 10
29.95000000000001
 20
-9.6500000000000341
 30
0.0
 11
17.050000000000011
 21
-9.6500000000000341
 31
0.0
  0
LINE
  5
17D6
  8
245
  6
CENTER2
 10
23.5
 20
-13.39123399999999
 30
0.0
 11
23.5
 21
17.155063999999982
 31
0.0
  0
LINE
  5
1815
  8
241
  6
CONTINUOUS
 10
0.3000000000000114
 20
-10.69999999999998
 30
0.0
 11
0.3000000000000114
 21
10.69999999999998
 31
0.0
  0
LINE
  5
1824
  8
240
  6
CONTINUOUS
 10
0.0
 20
-10.400000000000031
 30
0.0
 11
0.0000000000002984
 21
-6.9999999999999272
 31
0.0
  0
LINE
  5
1826
  8
240
  6
CONTINUOUS
 10
0.3000000000000114
 20
-11.69999999999998
 30
0.0
 11
0.3000000000000114
 21
-10.69999999999998
 31
0.0
  0
LINE
  5
1828
  8
240
  6
CONTINUOUS
 10
0.0
 20
-10.400000000000031
 30
0.0
 11
0.3000000000000114
 21
-10.69999999999998
 31
0.0
  0
LINE
  5
183C
  8
240
  6
CONTINUOUS
 10
0.0
 20
10.39999999999997
 30
0.0
 11
-0.0000000000000426
 21
6.9999999999998863
 31
0.0
  0
LINE
  5
1841
  8
240
  6
CONTINUOUS
 10
0.0
 20
10.39999999999997
 30
0.0
 11
0.3000000000000114
 21
10.69999999999998
 31
0.0
  0
LINE
  5
1842
  8
240
  6
CONTINUOUS
 10
0.3000000000000114
 20
10.69999999999998
 30
0.0
 11
0.3000000000000114
 21
11.69999999999998
 31
0.0
  0
LINE
  5
1846
  8
240
  6
CONTINUOUS
 10
16.0
 20
-9.6500000000000341
 30
0.0
 11
14.81643199999999
 21
-11.69999999999998
 31
0.0
  0
LINE
  5
1848
  8
241
  6
CONTINUOUS
 10
9.3000000000000131
 20
11.69999999999998
 30
0.0
 11
9.3000000000000131
 21
-11.69999999999998
 31
0.0
  0
LINE
  5
1872
  8
240
  6
CONTINUOUS
 10
14.81643199999999
 20
-11.69999999999998
 30
0.0
 11
0.3000000000000114
 21
-11.69999999999998
 31
0.0
  0
LINE
  5
1873
  8
240
  6
CONTINUOUS
 10
21.300000000000011
 20
-10.788784000000019
 30
0.0
 11
25.700000000000021
 21
-10.788784000000019
 31
0.0
  0
LINE
  5
1874
  8
240
  6
CONTINUOUS
 10
21.300000000000011
 20
-10.788784000000019
 30
0.0
 11
17.050000000000011
 21
-9.6500000000000341
 31
0.0
  0
LINE
  5
1875
  8
240
  6
CONTINUOUS
 10
17.050000000000011
 20
-9.6500000000000341
 30
0.0
 11
16.0
 21
-9.6500000000000341
 31
0.0
  0
CIRCLE
  5
1876
  8
241
  6
CONTINUOUS
 10
23.5
 20
0.0
 30
0.0
 40
2.0
  0
LINE
  5
1877
  8
241
  6
CONTINUOUS
 10
23.5
 20
1.1546999999999901
 30
0.0
 11
24.5
 21
0.5773499999999672
 31
0.0
  0
LINE
  5
1878
  8
241
  6
CONTINUOUS
 10
22.5
 20
0.5773499999999672
 30
0.0
 11
23.5
 21
1.1546999999999901
 31
0.0
  0
CIRCLE
  5
1879
  8
242
  6
CONTINUOUS
 10
23.5
 20
0.0
 30
0.0
 40
1.649999999999999
  0
LINE
  5
187A
  8
241
  6
CONTINUOUS
 10
24.5
 20
-0.577350000000024
 30
0.0
 11
23.5
 21
-1.1547010000000431
 31
0.0
  0
LINE
  5
187B
  8
241
  6
CONTINUOUS
 10
24.5
 20
0.5773499999999672
 30
0.0
 11
24.5
 21
-0.577350000000024
 31
0.0
  0
LINE
  5
187C
  8
241
  6
CONTINUOUS
 10
22.5
 20
-0.577350000000024
 30
0.0
 11
22.5
 21
0.5773499999999672
 31
0.0
  0
LINE
  5
187D
  8
241
  6
CONTINUOUS
 10
23.5
 20
-1.1547010000000431
 30
0.0
 11
22.5
 21
-0.577350000000024
 31
0.0
  0
LINE
  5
187E
  8
240
  6
CONTINUOUS
 10
18.000000000000199
 20
9.3999999999999755
 30
0.0
 11
11.30000000000001
 21
9.3999999999999755
 31
0.0
  0
LINE
  5
187F
  8
240
  6
CONTINUOUS
 10
9.9720949999999942
 20
11.69999999999998
 30
0.0
 11
11.30000000000001
 21
9.3999999999999755
 31
0.0
  0
LINE
  5
1880
  8
240
  6
CONTINUOUS
 10
9.9720949999999942
 20
11.69999999999998
 30
0.0
 11
0.3000000000000114
 21
11.69999999999998
 31
0.0
  0
LINE
  5
1881
  8
241
  6
CONTINUOUS
 10
9.3000000000000131
 20
10.89999999999997
 30
0.0
 11
9.3000000000000131
 21
11.69999999999998
 31
0.0
  0
LINE
  5
1882
  8
241
  6
CONTINUOUS
 10
18.300000000000011
 20
11.07179899999994
 30
0.0
 11
21.899999999999949
 21
11.07179899999994
 31
0.0
  0
LINE
  5
1883
  8
241
  6
CONTINUOUS
 10
23.5
 20
9.3999999999999755
 30
0.0
 11
18.000000000000199
 21
9.3999999999999755
 31
0.0
  0
LINE
  5
1884
  8
240
  6
CONTINUOUS
 10
18.0
 20
10.77179899999998
 30
0.0
 11
18.000000000000451
 21
9.4000000000000767
 31
0.0
  0
LINE
  5
1885
  8
240
  6
CONTINUOUS
 10
18.300000000000011
 20
11.07179899999994
 30
0.0
 11
18.0
 21
10.77179899999998
 31
0.0
  0
LINE
  5
1886
  8
241
  6
CONTINUOUS
 10
24.715924000000001
 20
12.171798999999959
 30
0.0
 11
24.948932999999968
 21
11.974540999999981
 31
0.0
  0
LINE
  5
1887
  8
241
  6
CONTINUOUS
 10
22.051068000000011
 20
11.974540999999981
 30
0.0
 11
22.284076999999989
 21
12.171798999999959
 31
0.0
  0
LINE
  5
1888
  8
241
  6
CONTINUOUS
 10
21.899999999999999
 20
11.07179899999994
 30
0.0
 11
22.051068000000011
 21
11.974540999999981
 31
0.0
  0
LINE
  5
1889
  8
241
  6
CONTINUOUS
 10
24.715924000000001
 20
12.171798999999959
 30
0.0
 11
22.284076999999989
 21
12.171798999999959
 31
0.0
  0
LINE
  5
188A
  8
241
  6
CONTINUOUS
 10
25.099999999999991
 20
11.07179899999994
 30
0.0
 11
24.948932999999968
 21
11.974540999999981
 31
0.0
  0
LINE
  5
188B
  8
240
  6
CONTINUOUS
 10
32.5
 20
6.9884569999999764
 30
0.0
 11
32.5
 21
-9.0
 31
0.0
  0
LINE
  5
188C
  8
240
  6
CONTINUOUS
 10
32.124722999999989
 20
-9.6500000000000341
 30
0.0
 11
29.95000000000001
 21
-9.6500000000000341
 31
0.0
  0
LINE
  5
188D
  8
240
  6
CONTINUOUS
 10
32.5
 20
-9.0
 30
0.0
 11
32.124722999999989
 21
-9.6500000000000341
 31
0.0
  0
LINE
  5
188E
  8
240
  6
CONTINUOUS
 10
29.0
 20
7.9262789999999619
 30
0.0
 11
29.0
 21
10.77179899999998
 31
0.0
  0
LINE
  5
188F
  8
240
  6
CONTINUOUS
 10
29.000000000000028
 20
7.9262792777777502
 30
0.0
 11
32.5
 21
6.9884569999999764
 31
0.0
  0
LINE
  5
1890
  8
240
  6
CONTINUOUS
 10
29.0
 20
10.77179899999998
 30
0.0
 11
28.70000000000001
 21
11.07179899999994
 31
0.0
  0
LINE
  5
18C3
  8
240
  6
CONTINUOUS
 10
-16.0
 20
-7.0000000000000044
 30
0.0
 11
-16.0
 21
7.0000000000000071
 31
0.0
  0
LINE
  5
18C4
  8
240
  6
CONTINUOUS
 10
-16.0
 20
-7.0000000000000044
 30
0.0
 11
-6.5410254293981041
 21
-6.9999999999999822
 31
0.0
  0
LINE
  5
18C5
  8
241
  6
CONTINUOUS
 10
-6.5410254293981041
 20
-6.9999999999999822
 30
0.0
 11
-1.458973570601874
 21
-6.9999999999999512
 31
0.0
  0
LINE
  5
18C6
  8
240
  6
CONTINUOUS
 10
-5.6749998926504732
 20
-8.5
 30
0.0
 11
-2.3249991073495182
 21
-8.5
 31
0.0
  0
LINE
  5
18C7
  8
240
  6
CONTINUOUS
 10
-6.5410254293981041
 20
-6.9999999999999822
 30
0.0
 11
-5.6749998926504732
 21
-8.5
 31
0.0
  0
LINE
  5
18C8
  8
240
  6
CONTINUOUS
 10
-1.458973570601874
 20
-6.9999999999999512
 30
0.0
 11
0.0000000000002984
 21
-6.9999999999999272
 31
0.0
  0
LINE
  5
18C9
  8
240
  6
CONTINUOUS
 10
-1.458973570601874
 20
-6.9999999999999512
 30
0.0
 11
-2.3249991073495182
 21
-8.5
 31
0.0
  0
CIRCLE
  5
18CA
  8
241
  6
CONTINUOUS
 10
-6.4999999999999432
 20
0.0824609999999666
 30
0.0
 40
2.4954999999999981
  0
CIRCLE
  5
18CB
  8
241
  6
CONTINUOUS
 10
-6.4999999999999432
 20
0.0824609999999666
 30
0.0
 40
2.0
  0
LINE
  5
18CC
  8
245
  6
CENTER2
 10
-6.4999999999999432
 20
-2.7520980000000441
 30
0.0
 11
-6.4999999999999432
 21
2.9957579999999662
 31
0.0
  0
LINE
  5
18CD
  8
240
  6
CONTINUOUS
 10
-16.0
 20
7.0000000000000071
 30
0.0
 11
-6.541024729375815
 21
6.999999999999968
 31
0.0
  0
LINE
  5
18CE
  8
240
  6
CONTINUOUS
 10
-5.6750000676560459
 20
8.5
 30
0.0
 11
-2.3249989323439442
 21
8.5
 31
0.0
  0
LINE
  5
18CF
  8
241
  6
CONTINUOUS
 10
-6.541024729375815
 20
6.999999999999968
 30
0.0
 11
-1.45897427062415
 21
6.9999999999999112
 31
0.0
  0
LINE
  5
18D0
  8
240
  6
CONTINUOUS
 10
-6.541024729375815
 20
6.999999999999968
 30
0.0
 11
-5.6750000676560459
 21
8.5
 31
0.0
  0
LINE
  5
18D1
  8
240
  6
CONTINUOUS
 10
-1.45897427062415
 20
6.9999999999999112
 30
0.0
 11
-0.0000000000000426
 21
6.9999999999998863
 31
0.0
  0
LINE
  5
18D2
  8
240
  6
CONTINUOUS
 10
-1.45897427062415
 20
6.9999999999999112
 30
0.0
 11
-2.3249989323439442
 21
8.5
 31
0.0
  0
LINE
  5
18D3
  8
250
  6
CONTINUOUS
 10
-19.96927907915752
 20
-15.33373705482972
 30
0.0
 11
-11.180408596639269
 21
-15.33373705482972
 31
0.0
  0
LINE
  5
18D4
  8
250
  6
CONTINUOUS
 10
-11.180408596639269
 20
-15.33373705482972
 30
0.0
 11
-9.4237583927216484
 21
-9.1452473344089924
 31
0.0
  0
LINE
  5
18D5
  8
250
  6
CONTINUOUS
 10
-9.4237583927216484
 20
-9.1452473344089924
 30
0.0
 11
-8.8148135067007161
 21
-6.9999999999999831
 31
0.0
  0
LINE
  5
18D6
  8
250
  6
CONTINUOUS
 10
-9.1413312244641087
 20
-9.2254164491890265
 30
0.0
 11
-8.8148135067007161
 21
-6.9999999999999831
 31
0.0
  0
LINE
  5
18D7
  8
250
  6
CONTINUOUS
 10
-8.8148135067007161
 20
-6.9999999999999831
 30
0.0
 11
-9.7061855609791881
 21
-9.0650782196289512
 31
0.0
  0
TEXT
  5
18D8
  8
250
  6
CONTINUOUS
 10
-20.369279079157518
 20
-13.933737054829731
 30
0.0
 40
2.799999999999998
  1
CK2
  7
YOKO
  0
LINE
  5
18D9
  8
241
  6
CONTINUOUS
 10
0.0000000000001104
 20
6.9999999999998863
 30
0.0
 11
0.0000000000002984
 21
-6.9999999999999272
 31
0.0
  0
LINE
  5
18DA
  8
247
  6
CONTINUOUS
 10
3.9999999999997802
 20
-9.0000000000000124
 30
0.0
 11
3.999999999999825
 21
-5.2923076925360322
 31
0.0
  0
LINE
  5
18DB
  8
247
  6
CONTINUOUS
 10
1.999999999999825
 20
-8.3639147999903631
 30
0.0
 11
3.6799999999326309
 21
-8.8456470480458975
 31
0.0
  0
LINE
  5
18DC
  8
247
  6
CONTINUOUS
 10
2.7969230768910198
 20
-7.8601211228152339
 30
0.0
 11
2.7969230768910198
 21
-8.5924288150936388
 31
0.0
  0
ARC
  5
18DD
  8
247
  6
CONTINUOUS
 10
2.3077752538351071
 20
-7.669810721557452
 30
0.0
 40
0.3101372647461394
 50
72.997889675292001
 51
172.92416621851231
  0
ARC
  5
18DE
  8
247
  6
CONTINUOUS
 10
2.244178504822238
 20
-7.9059820454432961
 30
0.0
 40
0.5546438372287014
 50
4.7429368522013924
 51
73.849226273266339
1001
GENIUS_GENOBJ-N-FIL_13
1002
{
1000
OWNER
1000
GEN
1002
}
1001
GENIUS_GENODEF_13
1002
{
1000
HIER
1070
     0
1002
}
1002
{
1000
MANEDIT
1070
     0
1002
}
1002
{
1000
NOSEL
1070
     0
1002
}
1002
{
1000
BEHIND
1070
     0
1002
}
1002
{
1000
OTHER
1070
     0
1002
}
1002
{
1000
REACTOR
1002
}
  0
LINE
  5
18DF
  8
247
  6
CONTINUOUS
 10
3.6799999999326309
 20
-8.1133393557674935
 30
0.0
 11
3.6799999999326309
 21
-8.8456470480458975
 31
0.0
  0
LINE
  5
18E0
  8
247
  6
CONTINUOUS
 10
1.999999999999825
 20
-8.3639147999903702
 30
0.0
 11
1.999999999999825
 21
-7.6316071077119663
 31
0.0
  0
ARC
  5
18E1
  8
247
  6
CONTINUOUS
 10
3.1099335702141242
 20
-7.9026451810134732
 30
0.0
 40
0.3158858408603088
 50
65.990941652528889
 51
172.26344345906949
  0
ARC
  5
18E2
  8
247
  6
CONTINUOUS
 10
3.112960261865878
 20
-8.1699572883415392
 30
0.0
 40
0.5698593289889349
 50
5.701985164258037
 51
77.277338436822262
1001
GENIUS_GENOBJ-N-FIL_13
1002
{
1000
OWNER
1000
GEN
1002
}
1001
GENIUS_GENODEF_13
1002
{
1000
HIER
1070
     0
1002
}
1002
{
1000
MANEDIT
1070
     0
1002
}
1002
{
1000
NOSEL
1070
     0
1002
}
1002
{
1000
BEHIND
1070
     0
1002
}
1002
{
1000
OTHER
1070
     0
1002
}
1002
{
1000
REACTOR
1002
}
  0
LINE
  5
18E3
  8
247
  6
CONTINUOUS
 10
3.6799999999326309
 20
-7.347185509650707
 30
0.0
 11
1.999999999999825
 21
-6.8654532615951771
 31
0.0
  0
LINE
  5
18E4
  8
247
  6
CONTINUOUS
 10
1.999999999999825
 20
-5.668530184726376
 30
0.0
 11
1.999999999999825
 21
-5.985342691442872
 31
0.0
  0
LINE
  5
18E5
  8
247
  6
CONTINUOUS
 10
3.6799999999326309
 20
-6.4869917231551764
 30
0.0
 11
3.6799999999326309
 21
-6.1423763385535821
 31
0.0
  0
ARC
  5
18E6
  8
247
  6
CONTINUOUS
 10
3.1666396760665152
 20
-5.505453261655977
 30
0.0
 40
1.261484046111637
 50
202.35948814152729
 51
254.993248542846
  0
ARC
  5
18E7
  8
247
  6
CONTINUOUS
 10
2.4526550868303341
 20
-5.878009092906586
 30
0.0
 40
0.4987765437607558
 50
94.994589319075374
 51
155.16632895730351
1001
GENIUS_GENOBJ-N-FIL_13
1002
{
1000
OWNER
1000
GEN
1002
}
1001
GENIUS_GENODEF_13
1002
{
1000
HIER
1070
     0
1002
}
1002
{
1000
MANEDIT
1070
     0
1002
}
1002
{
1000
NOSEL
1070
     0
1002
}
1002
{
1000
BEHIND
1070
     0
1002
}
1002
{
1000
OTHER
1070
     0
1002
}
1002
{
1000
REACTOR
1002
}
  0
ARC
  5
18E8
  8
247
  6
CONTINUOUS
 10
2.929681697575377
 20
-6.3553471608262271
 30
0.0
 40
0.7799577719285588
 50
15.846096555779971
 51
82.325137004169164
  0
ARC
  5
18E9
  8
247
  6
CONTINUOUS
 10
3.0971763215766801
 20
-6.0281693110177823
 30
0.0
 40
0.7417556510953607
 50
249.71360167049701
 51
321.78874565640962
1001
GENIUS_GENOBJ-N-FIL_13
1002
{
1000
OWNER
1000
GEN
1002
}
1001
GENIUS_GENODEF_13
1002
{
1000
HIER
1070
     0
1002
}
1002
{
1000
MANEDIT
1070
     0
1002
}
1002
{
1000
NOSEL
1070
     0
1002
}
1002
{
1000
BEHIND
1070
     0
1002
}
1002
{
1000
OTHER
1070
     0
1002
}
1002
{
1000
REACTOR
1002
}
  0
LINE
  5
18EA
  8
247
  6
CONTINUOUS
 10
3.0338461538046042
 20
-5.970068646252777
 30
0.0
 11
3.0338461538046042
 21
-5.582376338575977
 31
0.0
  0
ARC
  5
18EB
  8
247
  6
CONTINUOUS
 10
2.999999999999825
 20
-9.0000000000000124
 30
0.0
 40
1.0
 50
180.0
 51
0.0
  0
LINE
  5
18EC
  8
247
  6
CONTINUOUS
 10
1.999999999999825
 20
-9.0000000000000124
 30
0.0
 11
1.999999999999825
 21
-8.6430769231312023
 31
0.0
  0
ARC
  5
18ED
  8
247
  6
CONTINUOUS
 10
2.999999999999825
 20
-5.2923076925360171
 30
0.0
 40
1.0
 50
0.0
 51
180.0
  0
ARC
  5
18EE
  8
241
  6
CONTINUOUS
 10
27.700000000000049
 20
14.52179900000012
 30
0.0
 40
1.0
 50
0.0
 51
90.0
  0
LINE
  5
18EF
  8
240
 10
26.250000000000028
 20
15.52179900000012
 30
0.0
 11
28.80000000000004
 21
15.52179900000012
 31
0.0
  0
LINE
  5
18F0
  8
240
 10
28.700000000000049
 20
11.071798999999899
 30
0.0
 11
29.136621000000051
 21
11.07179900000007
 31
0.0
  0
LINE
  5
18F1
  8
240
 10
22.30000000000004
 20
15.57179900000007
 30
0.0
 11
21.65085200000005
 21
15.33552800000008
 31
0.0
  0
LINE
  5
18F2
  8
241
  6
CONTINUOUS
 10
21.650202782724541
 20
11.071798999999871
 30
0.0
 11
21.950202782724489
 21
11.37179899999988
 31
0.0
1001
GRPNAME
1000
PASTMD2W
  0
LINE
  5
18F3
  8
240
 10
18.30000000000004
 20
11.07179900000007
 30
0.0
 11
18.30000000000004
 21
14.52179900000012
 31
0.0
  0
ARC
  5
18F4
  8
240
 10
19.30000000000004
 20
14.52179900000012
 30
0.0
 40
1.0
 50
90.0
 51
180.0
  0
LINE
  5
18F5
  8
240
 10
19.30000000000004
 20
15.52179900000012
 30
0.0
 11
20.750000000000021
 21
15.52179900000012
 31
0.0
  0
LINE
  5
18F6
  8
241
  6
CONTINUOUS
 10
22.050608348173341
 20
12.32179899999988
 30
0.0
 11
24.949391651826719
 21
12.32179899999988
 31
0.0
1001
GRPNAME
1000
PASTMD2W
  0
LINE
  5
18F7
  8
241
  6
CONTINUOUS
 10
21.950202782724489
 20
11.37179899999988
 30
0.0
 11
22.050608348173341
 21
11.97179899999985
 31
0.0
1001
GRPNAME
1000
PASTMD2W
  0
LINE
  5
18F8
  8
241
  6
CONTINUOUS
 10
22.050608348173341
 20
11.97179899999985
 30
0.0
 11
22.050608348173341
 21
12.32179899999988
 31
0.0
1001
GRPNAME
1000
PASTMD2W
  0
LINE
  5
18F9
  8
241
  6
CONTINUOUS
 10
25.049797217275628
 20
11.37179899999988
 30
0.0
 11
24.949391651826719
 21
11.97179899999985
 31
0.0
1001
GRPNAME
1000
PASTMD2W
  0
LINE
  5
18FA
  8
241
  6
CONTINUOUS
 10
24.949391651826719
 20
11.97179899999985
 30
0.0
 11
24.949391651826719
 21
12.32179899999988
 31
0.0
1001
GRPNAME
1000
PASTMD2W
  0
LINE
  5
18FB
  8
241
  6
CONTINUOUS
 10
25.349797217269561
 20
11.071799000000301
 30
0.0
 11
25.049797217275628
 21
11.37179899999988
 31
0.0
1001
GRPNAME
1000
PASTMD2W
  0
LINE
  5
18FC
  8
240
 10
24.700000000000049
 20
15.57179900000007
 30
0.0
 11
25.34914900000004
 21
15.33552800000008
 31
0.0
  0
LINE
  5
18FD
  8
240
 10
22.30000000000004
 20
15.57179900000007
 30
0.0
 11
24.700000000000049
 21
15.57179900000007
 31
0.0
  0
LINE
  5
18FE
  8
241
  6
CONTINUOUS
 10
30.016973000000039
 20
11.716108000000141
 30
0.0
 11
34.79584500000005
 21
8.6126720000001686
 31
0.0
  0
LINE
  5
18FF
  8
240
 10
34.49788800000006
 20
8.5717990000000732
 30
0.0
 11
29.136621000000051
 21
11.07179900000007
 31
0.0
  0
LINE
  5
1900
  8
241
  6
CONTINUOUS
 10
35.499726000000038
 20
16.311331000000131
 30
0.0
 11
35.104499000000033
 21
8.7699390000001554
 31
0.0
  0
LINE
  5
1901
  8
240
 10
34.49788800000006
 20
8.5717990000000732
 30
0.0
 11
34.74057700000003
 21
8.5717990000000732
 31
0.0
  0
ARC
  5
1902
  8
241
  6
CONTINUOUS
 10
34.904773000000041
 20
8.7804060000001058
 30
0.0
 40
0.2
 50
237.0000000000002
 51
357.00000000000091
  0
CIRCLE
  5
1903
  8
246
  6
PHANTOM2
 10
32.925374000000041
 20
12.66519500000012
 30
0.0
 40
2.379999999999999
  0
LINE
  5
1904
  8
241
  6
CONTINUOUS
 10
34.213739000000032
 20
15.9927860000001
 30
0.0
 11
35.209202000000012
 21
16.500000000000131
 31
0.0
  0
LINE
  5
1905
  8
241
  6
CONTINUOUS
 10
28.480551000000052
 20
13.07158100000011
 30
0.0
 11
30.132112000000038
 21
13.91309300000014
 31
0.0
  0
LINE
  5
1906
  8
241
  6
CONTINUOUS
 10
28.700000000000049
 20
14.52179900000012
 30
0.0
 11
28.700000000004
 21
13.18339580241487
 31
0.0
  0
LINE
  5
1907
  8
241
  6
CONTINUOUS
 10
28.462422000000029
 20
12.725646000000109
 30
0.0
 11
30.016973000000039
 21
11.716108000000141
 31
0.0
  0
LINE
  5
1908
  8
241
  6
CONTINUOUS
 10
28.700000000000049
 20
11.07179900000007
 30
0.0
 11
28.700000000000362
 21
12.57136092413843
 31
0.0
  0
ARC
  5
1909
  8
241
  6
CONTINUOUS
 10
28.571349000000041
 20
12.893380000000111
 30
0.0
 40
0.2
 50
117.0000000000002
 51
237.0000000000002
  0
LINE
  5
190A
  8
240
 10
29.867587000000029
 20
16.138170000000141
 30
0.0
 11
34.49907100000005
 21
16.138170000000141
 31
0.0
  0
LINE
  5
190B
  8
241
  6
CONTINUOUS
 10
30.132112000000038
 20
13.91309300000014
 30
0.0
 11
34.213739000000032
 21
15.9927860000001
 31
0.0
  0
LINE
  5
190C
  8
240
 10
28.80000000000004
 20
15.52179900000012
 30
0.0
 11
29.867587000000029
 21
16.138170000000141
 31
0.0
  0
ARC
  5
190D
  8
241
  6
CONTINUOUS
 10
35.30000000000004
 20
16.32179900000007
 30
0.0
 40
0.2
 50
357.00000000000091
 51
117.0000000000002
  0
LINE
  5
1912
  8
240
 10
20.750000000000021
 20
15.52179900000012
 30
0.0
 11
20.975213000000061
 21
15.468390000000131
 31
0.0
  0
LINE
  5
1913
  8
240
 10
20.975213000000061
 20
15.468390000000131
 30
0.0
 11
21.20042600000005
 21
15.41954200000011
 31
0.0
  0
LINE
  5
1914
  8
240
 10
21.20042600000005
 20
15.41954200000011
 30
0.0
 11
21.425639000000022
 21
15.3752550000001
 31
0.0
  0
LINE
  5
1915
  8
240
 10
21.425639000000022
 20
15.3752550000001
 30
0.0
 11
21.65085200000005
 21
15.33552800000008
 31
0.0
  0
LINE
  5
1916
  8
240
 10
25.34914900000004
 20
15.33552800000008
 30
0.0
 11
25.57436200000004
 21
15.3752550000001
 31
0.0
  0
LINE
  5
1917
  8
240
 10
25.57436200000004
 20
15.3752550000001
 30
0.0
 11
25.79957500000004
 21
15.41954200000011
 31
0.0
  0
LINE
  5
1918
  8
240
 10
25.79957500000004
 20
15.41954200000011
 30
0.0
 11
26.024787000000039
 21
15.468390000000131
 31
0.0
  0
LINE
  5
1919
  8
240
 10
26.024787000000039
 20
15.468390000000131
 30
0.0
 11
26.250000000000028
 21
15.52179900000012
 31
0.0
  0
ARC
  5
1929
  8
241
  6
CONTINUOUS
 10
23.500000500000048
 20
26.38002048226101
 30
0.0
 40
11.19822148226093
 50
260.49528514633892
 51
279.50471485366103
  0
VIEWPORT
  5
22
 67
     1
  8
0
 10
261.51769911504419
 20
148.5
 30
0.0
 40
523.0353982300885
 41
297.0
 68
     1
 69
     1
1001
ACAD
1000
MVIEW
1002
{
1070
    16
1010
0.0
1020
0.0
1030
0.0
1010
0.0
1020
0.0
1030
1.0
1040
0.0
1040
297.0
1040
261.51769911504419
1040
148.5
1040
50.0
1040
0.0
1040
0.0
1070
     0
1070
   100
1070
     1
1070
     1
1070
     0
1070
     0
1070
     0
1070
     0
1040
0.0
1040
0.0
1040
0.0
1040
1.0
1040
1.0
1040
10.0
1040
10.0
1070
     0
1002
{
1002
}
1002
}
1001
GENIUS_GENODEF_13
1002
{
1000
HIER
1070
     0
1002
}
1002
{
1000
MANEDIT
1070
     0
1002
}
1002
{
1000
NOSEL
1070
     0
1002
}
1002
{
1000
BEHIND
1070
     0
1002
}
1002
{
1000
OTHER
1070
     0
1002
}
1002
{
1000
REACTOR
1002
}
1001
GENIUS_GENOBJ-N-SDF_13
1002
{
1000
OWNER
1000
GEN
1002
}
1001
GENIUS_GENSCREG_15
1000
PF
1040
1.0
1000
DF
1040
1.0
1000
MIN
1011
0.0
1021
0.0
1031
0.0
1021
0.0
1031
0.0
1000
MAX
1011
523.0353982300885
1021
0.0
1031
0.0
1021
297.0
1031
0.0
1000
FLAGS
1070
     4
  0
ENDSEC
  0
EOF
