  0
SECTION
  2
HEADER
  9
$ACADVER
  1
AC1009
  9
$INSBASE
 10
0.0
 20
0.0
 30
0.0
  9
$EXTMIN
 10
-115.4603639515136
 20
-130.4018595685194
 30
0.0
  9
$EXTMAX
 10
21.4543240518564
 20
115.82564904410999
 30
0.0
  9
$LIMMIN
 10
0.0
 20
0.0
  9
$LIMMAX
 10
297.0
 20
210.0
  9
$ORTHOMODE
 70
     0
  9
$REGENMODE
 70
     1
  9
$FILLMODE
 70
     1
  9
$QTEXTMODE
 70
     0
  9
$MIRRTEXT
 70
     1
  9
$DRAGMODE
 70
     2
  9
$LTSCALE
 40
10.0
  9
$OSMODE
 70
    45
  9
$ATTMODE
 70
     1
  9
$TEXTSIZE
 40
3.0
  9
$TRACEWID
 40
1.0
  9
$TEXTSTYLE
  7
YOKO
  9
$CLAYER
  8
0
  9
$CELTYPE
  6
BYLAYER
  9
$CECOLOR
 62
   256
  9
$DIMSCALE
 40
1.0
  9
$DIMASZ
 40
2.2299999999999991
  9
$DIMEXO
 40
0.5
  9
$DIMDLI
 40
7.0
  9
$DIMRND
 40
0.0
  9
$DIMDLE
 40
0.0
  9
$DIMEXE
 40
1.0
  9
$DIMTP
 40
0.0
  9
$DIMTM
 40
0.01
  9
$DIMTXT
 40
2.799999999999998
  9
$DIMCEN
 40
0.0
  9
$DIMTSZ
 40
0.0
  9
$DIMTOL
 70
     0
  9
$DIMLIM
 70
     0
  9
$DIMTIH
 70
     0
  9
$DIMTOH
 70
     0
  9
$DIMSE1
 70
     0
  9
$DIMSE2
 70
     0
  9
$DIMTAD
 70
     3
  9
$DIMZIN
 70
     9
  9
$DIMBLK
  1
OPEN
  9
$DIMASO
 70
     1
  9
$DIMSHO
 70
     1
  9
$DIMPOST
  1

  9
$DIMAPOST
  1

  9
$DIMALT
 70
     0
  9
$DIMALTD
 70
     2
  9
$DIMALTF
 40
25.399999999999999
  9
$DIMLFAC
 40
1.0
  9
$DIMTOFL
 70
     1
  9
$DIMTVP
 40
0.0
  9
$DIMTIX
 70
     1
  9
$DIMSOXD
 70
     0
  9
$DIMSAH
 70
     0
  9
$DIMBLK1
  1

  9
$DIMBLK2
  1

  9
$DIMSTYLE
  2
BIGT
  9
$DIMCLRD
 70
   256
  9
$DIMCLRE
 70
   256
  9
$DIMCLRT
 70
    40
  9
$DIMTFAC
 40
1.0
  9
$DIMGAP
 40
1.0
  9
$LUNITS
 70
     2
  9
$LUPREC
 70
     3
  9
$SKETCHINC
 40
1.0
  9
$FILLETRAD
 40
1.0
  9
$AUNITS
 70
     0
  9
$AUPREC
 70
     3
  9
$MENU
  1
.
  9
$ELEVATION
 40
0.0
  9
$PELEVATION
 40
0.0
  9
$THICKNESS
 40
0.0
  9
$LIMCHECK
 70
     0
  9
$BLIPMODE
 70
     0
  9
$CHAMFERA
 40
0.25
  9
$CHAMFERB
 40
0.25
  9
$SKPOLY
 70
     0
  9
$TDCREATE
 40
2456512.5784828011
  9
$TDUPDATE
 40
2457857.674149618
  9
$TDINDWG
 40
0.0541586458
  9
$TDUSRTIMER
 40
0.0541581019
  9
$USRTIMER
 70
     1
  9
$ANGBASE
 50
0.0
  9
$ANGDIR
 70
     0
  9
$PDMODE
 70
     1
  9
$PDSIZE
 40
0.0
  9
$PLINEWID
 40
0.0
  9
$COORDS
 70
     1
  9
$SPLFRAME
 70
     0
  9
$SPLINETYPE
 70
     6
  9
$SPLINESEGS
 70
     4
  9
$ATTDIA
 70
     1
  9
$ATTREQ
 70
     1
  9
$HANDLING
 70
     1
  9
$HANDSEED
  5
519A
  9
$SURFTAB1
 70
     6
  9
$SURFTAB2
 70
     6
  9
$SURFTYPE
 70
     6
  9
$SURFU
 70
     6
  9
$SURFV
 70
     6
  9
$UCSNAME
  2

  9
$UCSORG
 10
0.0
 20
0.0
 30
0.0
  9
$UCSXDIR
 10
1.0
 20
0.0
 30
0.0
  9
$UCSYDIR
 10
0.0
 20
1.0
 30
0.0
  9
$PUCSNAME
  2

  9
$PUCSORG
 10
0.0
 20
0.0
 30
0.0
  9
$PUCSXDIR
 10
1.0
 20
0.0
 30
0.0
  9
$PUCSYDIR
 10
0.0
 20
1.0
 30
0.0
  9
$USERI1
 70
     1
  9
$USERI2
 70
     0
  9
$USERI3
 70
     0
  9
$USERI4
 70
     0
  9
$USERI5
 70
     0
  9
$USERR1
 40
0.0
  9
$USERR2
 40
0.0
  9
$USERR3
 40
0.0
  9
$USERR4
 40
0.0
  9
$USERR5
 40
0.0
  9
$WORLDVIEW
 70
     1
  9
$SHADEDGE
 70
     3
  9
$SHADEDIF
 70
    70
  9
$TILEMODE
 70
     1
  9
$MAXACTVP
 70
    16
  9
$PLIMCHECK
 70
     0
  9
$PEXTMIN
 10
1.0000000000000000E+020
 20
1.0000000000000000E+020
 30
1.0000000000000000E+020
  9
$PEXTMAX
 10
-1.0000000000000000E+020
 20
-1.0000000000000000E+020
 30
-1.0000000000000000E+020
  9
$PLIMMIN
 10
0.0
 20
0.0
  9
$PLIMMAX
 10
420.0
 20
297.0
  9
$UNITMODE
 70
     0
  9
$VISRETAIN
 70
     1
  9
$PLINEGEN
 70
     0
  9
$PSLTSCALE
 70
     1
  0
ENDSEC
  0
SECTION
  2
TABLES
  0
TABLE
  2
VPORT
 70
     1
  0
VPORT
  2
*ACTIVE
 70
     0
 10
0.0
 20
0.0
 11
1.0
 21
1.0
 12
-44.392430185229273
 22
-17.811067265758759
 13
0.0
 23
0.0
 14
7.0
 24
7.0
 15
7.0
 25
7.0
 16
0.0
 26
0.0
 36
1.0
 17
0.0
 27
0.0
 37
0.0
 40
363.21119928169878
 41
1.5928489042675891
 42
50.0
 43
0.0
 44
0.0
 50
0.0
 51
0.0
 71
     0
 72
  2000
 73
     1
 74
     0
 75
     0
 76
     0
 77
     0
 78
     0
  0
ENDTAB
  0
TABLE
  2
LTYPE
 70
    17
  0
LTYPE
  2
CONTINUOUS
 70
     0
  3
Solid line
 72
    65
 73
     0
 40
0.0
  0
LTYPE
  2
CENTER2
 70
     0
  3
___ _ ___ _ ___ _ ___ _ ___ _ ___ _ ___ _ ___ _
 72
    65
 73
     4
 40
1.125
 49
0.75
 49
-0.125
 49
0.125
 49
-0.125
  0
LTYPE
  2
HIDDEN2
 70
     0
  3
_ _ _ _ _ _ _ _ _ _ _ _ _ _ _ _ _ _ _ _ _ _ _ _
 72
    65
 73
     2
 40
0.1875
 49
0.125
 49
-0.0625
  0
LTYPE
  2
PHANTOM2
 70
     0
  3
___ _ _ ___ _ _ ___ _ _ ___ _ _ ___ _ _ ___ _ _
 72
    65
 73
     6
 40
1.25
 49
0.625
 49
-0.125
 49
0.125
 49
-0.125
 49
0.125
 49
-0.125
  0
LTYPE
  2
CENTER
 70
     0
  3
____ _ ____ _ ____ _ ____ _ ____ _ ____ _ ____ 
 72
    65
 73
     4
 40
2.0
 49
1.25
 49
-0.25
 49
0.25
 49
-0.25
  0
LTYPE
  2
AMCONSTR
 70
     0
  3
_______________________
 72
    65
 73
     2
 40
9999.0
 49
9999.0
 49
0.0
  0
LTYPE
  2
HIDDEN
 70
     0
  3
Hidden __ __ __ __ __ __ __ __ __ __ __ __ __ _
 72
    65
 73
     2
 40
9.5249999999999986
 49
6.349999999999997
 49
-3.174999999999998
  0
LTYPE
  2
AMZIGZAG2
 70
     0
  3
/\/-/\/-/\/-/\/-/\/-/\/
 72
    65
 73
     2
 40
0.4401
 49
0.0001
 49
-0.4400000000000003
  0
LTYPE
  2
ACANSTGB
 70
     0
  3
__ . . __ . .
 72
    65
 73
     6
 40
0.35433070866
 49
0.15748031496
 49
-0.03937007874
 49
0.03937007874
 49
-0.03937007874
 49
0.03937007874
 49
-0.03937007874
  0
LTYPE
  2
ACANSTGL
 70
     0
  3
_ _ _ _ _
 72
    65
 73
     2
 40
0.11811023622
 49
0.07874015748
 49
-0.03937007874
  0
LTYPE
  2
AM_ISO02W050
 70
     0
  3
__ __ __ __ __ __ __ __ __ __ __ __ __ __ __
 72
    65
 73
     2
 40
7.5
 49
6.0
 49
-1.5
  0
LTYPE
  2
AM_ISO08W050
 70
     0
  3
____ . ____ . ____ . ____ . ____ . ____ . ____
 72
    65
 73
     4
 40
18.0
 49
12.0
 49
-1.5
 49
3.0
 49
-1.5
  0
LTYPE
  2
AM_ISO09W050
 70
     0
  3
_____ . . _____ . . _____ . . ____ .. ____
 72
    65
 73
     6
 40
22.5
 49
12.0
 49
-1.5
 49
3.0
 49
-1.5
 49
3.0
 49
-1.5
  0
LTYPE
  2
AM_ISO08W050X2
 70
     0
  3
__ . __ . __ . __ . __ . __
 72
    65
 73
     4
 40
9.0
 49
6.0
 49
-0.75
 49
1.5
 49
-0.75
  0
LTYPE
  2
AM_ISO02W050X2
 70
     0
  3
 _ _ _ _ _ _ _ _ _ _ _ _
 72
    65
 73
     2
 40
3.75
 49
3.0
 49
-0.75
  0
LTYPE
  2
AMZIGZAG
 70
     0
  3
/\/-/\/-/\/-/\/-/\/-/\/
 72
    65
 73
     2
 40
11.0001
 49
0.0001
 49
-11.0
  0
ENDTAB
  0
TABLE
  2
LAYER
 70
     7
  0
LAYER
  2
0
 70
     0
 62
     7
  6
CONTINUOUS
  0
LAYER
  2
240
 70
     0
 62
     4
  6
CONTINUOUS
  0
LAYER
  2
DEFPOINTS
 70
     0
 62
     7
  6
CONTINUOUS
  0
LAYER
  2
245
 70
     0
 62
     2
  6
CENTER2
  0
LAYER
  2
241
 70
     0
 62
   211
  6
CONTINUOUS
  0
LAYER
  2
246
 70
     0
 62
     3
  6
PHANTOM2
  0
LAYER
  2
250
 70
     0
 62
     3
  6
CONTINUOUS
  0
ENDTAB
  0
TABLE
  2
STYLE
 70
     6
  0
STYLE
  2
STANDARD
 70
     0
 40
0.0
 41
1.0
 50
0.0
 71
     0
 42
3.0
  3
romans.shx
  4
extfont.shx
  0
STYLE
  2
ANNOTATIVE
 70
     0
 40
0.0
 41
1.0
 50
0.0
 71
     0
 42
0.2
  3
txt
  4

  0
STYLE
  2
YOKO
 70
     0
 40
0.0
 41
1.0
 50
0.0
 71
     0
 42
3.0
  3
romans.shx
  4
extfont.shx
  0
STYLE
  2
ACANSTS
 70
     0
 40
1.0
 41
1.0
 50
0.0
 71
     0
 42
3.0
  3
romans.shx
  4
extfont.shx
  0
STYLE
  2
ACANSGDT
 70
     0
 40
0.0
 41
1.0
 50
0.0
 71
     0
 42
3.0
  3
amgdt.shx
  4

  0
STYLE
  2

 70
     1
 40
0.0
 41
1.0
 50
0.0
 71
     0
 42
3.0
  3
genltshp.shx
  4

  0
ENDTAB
  0
TABLE
  2
VIEW
 70
     0
  0
ENDTAB
  0
TABLE
  2
UCS
 70
     0
  0
ENDTAB
  0
TABLE
  2
APPID
 70
    38
  0
APPID
  2
ACAD
 70
     0
  0
APPID
  2
ACADANNOTATIVE
 70
     0
  0
APPID
  2
GLOBAL
 70
     0
  0
APPID
  2
DETAIL
 70
     0
  0
APPID
  2
GRPNAME
 70
     0
  0
APPID
  2
GPARA
 70
     0
  0
APPID
  2
MCAD_NO_VIS
 70
     0
  0
APPID
  2
ACAD_TEMP_GRAPHIC
 70
     0
  0
APPID
  2
ACATTRIBSERVICES
 70
     0
  0
APPID
  2
GENIUS_GENSCREG_15
 70
     0
  0
APPID
  2
GENIUS_GENODEF_13
 70
     0
  0
APPID
  2
GENIUS_GENOBJ-N-SDF_13
 70
     0
  0
APPID
  2
GENIUS_GENREC_14
 70
     0
  0
APPID
  2
GENIUS_GENOBJ-N-REC_13
 70
     0
  0
APPID
  2
GENIUS_GENDIMSH_14
 70
     0
  0
APPID
  2
GENIUS_GENOBJ-N-DIM_13
 70
     0
  0
APPID
  2
GENIUS_GENDIM_13
 70
     0
  0
APPID
  2
GENIUS_GENDTOL_13
 70
     0
  0
APPID
  2
GENIUS_GENOLIS_13
 70
     0
  0
APPID
  2
GENIUS_GENOENT_13
 70
     0
  0
APPID
  2
GENIUS_GENOBJ-F-FEM_13
 70
     0
  0
APPID
  2
GENIUS_GENOREF_13
 70
     0
  0
APPID
  2
GENIUS_GEFFEM_13
 70
     0
  0
APPID
  2
GENIUS_GEFFEMP_13
 70
     0
  0
APPID
  2
AD_DRAW
 70
     0
  0
APPID
  2
DESIGNERASSEMBLIES
 70
     0
  0
APPID
  2
ACADM_DIM_EDIT
 70
     0
  0
APPID
  2
AMDT_DM_ADJ
 70
     0
  0
APPID
  2
GENIUS_GENFIL_13
 70
     0
  0
APPID
  2
GENIUS_GENOBJ-N-CHA_13
 70
     0
  0
APPID
  2
ACAD_PSEXT
 70
     0
  0
APPID
  2
ACDBATTR
 70
     0
  0
APPID
  2
GENIUS_GENOBJ-N-FIL_13
 70
     0
  0
APPID
  2
ACAD_DSTYLE_DIMBREAK
 70
     0
  0
APPID
  2
ACAD_DSTYLE_DIMJAG
 70
     0
  0
APPID
  2
ACAD_NAV_VCDISPLAY
 70
     0
  0
APPID
  2
ACAD_EXEMPT_FROM_CAD_STANDARDS
 70
     0
  0
APPID
  2
ACAD_MLEADERVER
 70
     0
  0
ENDTAB
  0
TABLE
  2
DIMSTYLE
 70
     9
  0
DIMSTYLE
  2
STANDARD
 70
     0
  3

  4

  5

  6

  7

 40
1.0
 41
0.18
 42
0.0625
 43
0.38
 44
0.18
 45
0.0
 46
0.0
 47
0.0
 48
0.0
140
0.18
141
0.09
142
0.0
143
25.399999999999999
144
1.0
145
0.0
146
1.0
147
0.09
 71
     0
 72
     0
 73
     1
 74
     1
 75
     0
 76
     0
 77
     0
 78
     0
170
     0
171
     2
172
     0
173
     0
174
     0
175
     0
176
     0
177
     0
178
     0
  0
DIMSTYLE
  2
ANNOTATIVE
 70
     0
  3

  4

  5

  6

  7

 40
1.0
 41
0.18
 42
0.0625
 43
0.38
 44
0.18
 45
0.0
 46
0.0
 47
0.0
 48
0.0
140
0.18
141
0.09
142
0.0
143
25.399999999999999
144
1.0
145
0.0
146
1.0
147
0.09
 71
     0
 72
     0
 73
     1
 74
     1
 75
     0
 76
     0
 77
     0
 78
     0
170
     0
171
     2
172
     0
173
     0
174
     0
175
     0
176
     0
177
     0
178
     0
  0
DIMSTYLE
  2
BIGT
 70
     0
  3

  4

  5

  6

  7

 40
1.0
 41
2.2299999999999991
 42
0.5
 43
7.0
 44
1.0
 45
0.0
 46
0.0
 47
0.0
 48
0.01
140
2.799999999999998
141
0.0
142
0.0
143
25.399999999999999
144
1.0
145
0.0
146
1.0
147
1.0
 71
     0
 72
     0
 73
     0
 74
     0
 75
     0
 76
     0
 77
     3
 78
     9
170
     0
171
     2
172
     1
173
     0
174
     1
175
     0
176
   256
177
   256
178
    40
  0
DIMSTYLE
  2
AM_ANSI
 70
     0
  3

  4
mm
  5

  6

  7

 40
1.0
 41
0.1
 42
0.05
 43
0.5
 44
0.1
 45
0.0
 46
0.0
 47
0.1
 48
0.1
140
0.12
141
0.0
142
0.0
143
25.399999999999999
144
1.0
145
0.0
146
0.71
147
0.06
 71
     0
 72
     0
 73
     1
 74
     1
 75
     0
 76
     0
 77
     0
 78
     7
170
     0
171
     2
172
     0
173
     0
174
     0
175
     0
176
   256
177
   256
178
     2
  0
DIMSTYLE
  2
AM_ANSI$3
 70
     0
  3

  4
mm
  5

  6

  7

 40
1.0
 41
0.1
 42
0.05
 43
0.5
 44
0.1
 45
0.0
 46
0.0
 47
0.1
 48
0.1
140
0.12
141
0.0
142
0.0
143
25.399999999999999
144
1.0
145
0.0
146
0.71
147
0.06
 71
     0
 72
     0
 73
     1
 74
     1
 75
     0
 76
     0
 77
     0
 78
     7
170
     0
171
     2
172
     0
173
     0
174
     0
175
     0
176
   256
177
   256
178
     2
  0
DIMSTYLE
  2
AM_ANSI$4
 70
     0
  3

  4
mm
  5

  6

  7

 40
1.0
 41
0.1
 42
0.05
 43
0.5
 44
0.1
 45
0.0
 46
0.0
 47
0.1
 48
0.1
140
0.12
141
0.0
142
0.0
143
25.399999999999999
144
1.0
145
0.0
146
0.71
147
0.06
 71
     0
 72
     0
 73
     1
 74
     1
 75
     0
 76
     0
 77
     0
 78
     7
170
     0
171
     2
172
     0
173
     0
174
     0
175
     0
176
   256
177
   256
178
     2
  0
DIMSTYLE
  2
AM_ANSI$7
 70
     0
  3

  4
mm
  5

  6

  7

 40
1.0
 41
0.1
 42
0.05
 43
0.5
 44
0.1
 45
0.0
 46
0.0
 47
0.1
 48
0.1
140
0.24
141
0.0
142
0.0
143
25.399999999999999
144
1.0
145
0.0
146
0.71
147
0.06
 71
     0
 72
     0
 73
     1
 74
     1
 75
     0
 76
     0
 77
     0
 78
     7
170
     0
171
     2
172
     0
173
     0
174
     0
175
     0
176
   256
177
   256
178
     2
  0
DIMSTYLE
  2
AM_ANSI$SF
 70
     0
  3

  4
mm
  5

  6

  7

 40
1.0
 41
0.1
 42
0.05
 43
0.5
 44
0.1
 45
0.0
 46
0.0
 47
0.1
 48
0.1
140
0.12
141
0.0
142
0.0
143
25.399999999999999
144
1.0
145
0.0
146
0.71
147
0.06
 71
     0
 72
     0
 73
     1
 74
     1
 75
     1
 76
     1
 77
     0
 78
     7
170
     0
171
     2
172
     0
173
     0
174
     0
175
     0
176
   256
177
   256
178
     2
  0
DIMSTYLE
  2
AM_ANSI$SH
 70
     0
  3

  4
mm
  5

  6

  7

 40
1.0
 41
0.1
 42
0.05
 43
0.5
 44
0.1
 45
0.0
 46
0.0
 47
0.1
 48
0.1
140
0.12
141
0.0
142
0.0
143
25.399999999999999
144
1.0
145
0.0
146
0.71
147
0.06
 71
     0
 72
     0
 73
     1
 74
     1
 75
     1
 76
     1
 77
     0
 78
     7
170
     0
171
     2
172
     0
173
     1
174
     0
175
     0
176
   256
177
   256
178
     2
  0
ENDTAB
  0
ENDSEC
  0
SECTION
  2
BLOCKS
  0
BLOCK
  8
0
  2
$MODEL_SPACE
 70
     0
 10
0.0
 20
0.0
 30
0.0
  3
$MODEL_SPACE
  1

  0
ENDBLK
  5
5070
  8
0
  0
BLOCK
 67
     1
  8
0
  2
$PAPER_SPACE
 70
     0
 10
0.0
 20
0.0
 30
0.0
  3
$PAPER_SPACE
  1

  0
ENDBLK
  5
506C
 67
     1
  8
0
  0
BLOCK
  8
0
  2
_OPEN
 70
     0
 10
0.0
 20
0.0
 30
0.0
  3
_OPEN
  1

  0
LINE
  5
1E2C
  8
0
  6
BYBLOCK
 62
     0
 10
-1.0
 20
0.1666666666666666
 30
0.0
 11
0.0
 21
0.0
 31
0.0
  0
LINE
  5
1E2D
  8
0
  6
BYBLOCK
 62
     0
 10
-1.0
 20
-0.1666666666666666
 30
0.0
 11
0.0
 21
0.0
 31
0.0
  0
LINE
  5
1E2E
  8
0
  6
BYBLOCK
 62
     0
 10
0.0
 20
0.0
 30
0.0
 11
-1.0
 21
0.0
 31
0.0
  0
ENDBLK
  5
1E2F
  8
0
  0
BLOCK
  8
0
  2
*U3
 70
     1
 10
0.0
 20
0.0
 30
0.0
  3
*U3
  1

  0
TEXT
  5
1EA3
  8
250
 10
-58.101409304089401
 20
46.012451155652933
 30
0.0
 40
2.799999999999998
  1
ENH7-2
  7
YOKO
  0
ENDBLK
  5
1EA5
  8
0
  0
BLOCK
  8
0
  2
*U4
 70
     1
 10
0.0
 20
0.0
 30
0.0
  3
*U4
  1

  0
TEXT
  5
1F1D
  8
250
 10
-58.101409304089401
 20
88.012451155652926
 30
0.0
 40
2.799999999999998
  1
ENH7-3
  7
YOKO
  0
ENDBLK
  5
1F1F
  8
0
  0
BLOCK
  8
0
  2
_ACMFILLEDHALF
 70
     0
 10
0.0
 20
0.0
 30
0.0
  3
_ACMFILLEDHALF
  1

  0
TRACE
  5
510D
  8
0
 62
     0
 10
-0.8
 20
0.0
 30
0.0
 11
-1.0
 21
0.166666666
 31
0.0
 12
0.0
 22
0.0
 32
0.0
 13
0.0
 23
0.0
 33
0.0
  0
LINE
  5
510E
  8
0
 62
     0
 10
-1.0
 20
0.0
 30
0.0
 11
-0.8
 21
0.0
 31
0.0
  0
ENDBLK
  5
510C
  8
0
  0
ENDSEC
  0
SECTION
  2
ENTITIES
  0
LINE
  5
1470
  8
246
  6
PHANTOM2
 10
-51.000000238420022
 20
-34.999998807906948
 30
0.0
 11
-92.999999905006902
 21
-34.999998807906948
 31
0.0
  0
LINE
  5
1472
  8
246
  6
PHANTOM2
 10
-92.999999905006902
 20
-34.999998807906948
 30
0.0
 11
-95.000000000001904
 21
-37.000002861022793
 31
0.0
  0
LINE
  5
1473
  8
246
  6
PHANTOM2
 10
-95.000000000001904
 20
-37.000002861022793
 30
0.0
 11
-95.000000000001904
 21
-60.000000000000071
 31
0.0
  0
LINE
  5
1474
  8
246
  6
PHANTOM2
 10
-49.99999821186303
 20
-36.000000834463961
 30
0.0
 11
-51.000000238420022
 21
-34.999998807906948
 31
0.0
  0
LINE
  5
1475
  8
240
  6
CONTINUOUS
 10
-48.999998164365302
 20
-17.499998807907168
 30
0.0
 11
-49.99999821186303
 21
-18.500000834464871
 31
0.0
  0
LINE
  5
1476
  8
240
  6
CONTINUOUS
 10
-15.203886926176761
 20
-93.190000057220757
 30
0.0
 11
-6.9933731853986814
 21
-90.990000069141203
 31
0.0
  0
LINE
  5
1477
  8
240
  6
CONTINUOUS
 10
-6.9933731853986814
 20
-90.990000069141203
 30
0.0
 11
-5.5557724833511051
 21
-88.499999269843173
 31
0.0
  0
LINE
  5
1478
  8
240
  6
CONTINUOUS
 10
-48.999998164365302
 20
-17.499998807907168
 30
0.0
 11
-49.999998211862057
 21
-18.500000834469851
 31
0.0
  0
POLYLINE
  5
1F20
  8
241
  6
CONTINUOUS
 66
     1
 10
0.0
 20
0.0
 30
0.0
 70
     8
  0
VERTEX
  5
1F21
  8
241
  6
CONTINUOUS
 10
-11.372400000000001
 20
-80.0
 30
0.0
 70
    32
  0
VERTEX
  5
1F22
  8
241
  6
CONTINUOUS
 10
-11.3832
 20
-80.0
 30
0.0
 70
    32
  0
VERTEX
  5
1F23
  8
241
  6
CONTINUOUS
 10
-11.394
 20
-80.0
 30
0.0
 70
    32
  0
VERTEX
  5
1F24
  8
241
  6
CONTINUOUS
 10
-11.4048
 20
-80.0
 30
0.0
 70
    32
  0
VERTEX
  5
1F25
  8
241
  6
CONTINUOUS
 10
-11.4156
 20
-80.0
 30
0.0
 70
    32
  0
VERTEX
  5
1F26
  8
241
  6
CONTINUOUS
 10
-11.426399999999999
 20
-80.0
 30
0.0
 70
    32
  0
VERTEX
  5
1F27
  8
241
  6
CONTINUOUS
 10
-11.437200000000001
 20
-80.0
 30
0.0
 70
    32
  0
VERTEX
  5
1F28
  8
241
  6
CONTINUOUS
 10
-11.448
 20
-80.0
 30
0.0
 70
    32
  0
VERTEX
  5
1F29
  8
241
  6
CONTINUOUS
 10
-11.4588
 20
-80.0
 30
0.0
 70
    32
  0
VERTEX
  5
1F2A
  8
241
  6
CONTINUOUS
 10
-11.4696
 20
-80.0
 30
0.0
 70
    32
  0
VERTEX
  5
1F2B
  8
241
  6
CONTINUOUS
 10
-11.480399999999999
 20
-80.0
 30
0.0
 70
    32
  0
VERTEX
  5
1F2C
  8
241
  6
CONTINUOUS
 10
-11.491199999999999
 20
-80.0
 30
0.0
 70
    32
  0
VERTEX
  5
1F2D
  8
241
  6
CONTINUOUS
 10
-11.502000000000001
 20
-80.0
 30
0.0
 70
    32
  0
VERTEX
  5
1F2E
  8
241
  6
CONTINUOUS
 10
-11.5129
 20
-80.0
 30
0.0
 70
    32
  0
VERTEX
  5
1F2F
  8
241
  6
CONTINUOUS
 10
-11.5237
 20
-80.0
 30
0.0
 70
    32
  0
VERTEX
  5
1F30
  8
241
  6
CONTINUOUS
 10
-11.5345
 20
-80.0
 30
0.0
 70
    32
  0
VERTEX
  5
1F31
  8
241
  6
CONTINUOUS
 10
-11.545400000000001
 20
-80.0
 30
0.0
 70
    32
  0
VERTEX
  5
1F32
  8
241
  6
CONTINUOUS
 10
-11.5562
 20
-80.0
 30
0.0
 70
    32
  0
VERTEX
  5
1F33
  8
241
  6
CONTINUOUS
 10
-11.567
 20
-80.0
 30
0.0
 70
    32
  0
VERTEX
  5
1F34
  8
241
  6
CONTINUOUS
 10
-11.5779
 20
-80.0
 30
0.0
 70
    32
  0
VERTEX
  5
1F35
  8
241
  6
CONTINUOUS
 10
-11.588800000000001
 20
-80.0
 30
0.0
 70
    32
  0
VERTEX
  5
1F36
  8
241
  6
CONTINUOUS
 10
-11.599600000000001
 20
-80.0
 30
0.0
 70
    32
  0
VERTEX
  5
1F37
  8
241
  6
CONTINUOUS
 10
-11.6105
 20
-80.0
 30
0.0
 70
    32
  0
VERTEX
  5
1F38
  8
241
  6
CONTINUOUS
 10
-11.6214
 20
-80.0
 30
0.0
 70
    32
  0
VERTEX
  5
1F39
  8
241
  6
CONTINUOUS
 10
-11.632300000000001
 20
-80.0
 30
0.0
 70
    32
  0
VERTEX
  5
1F3A
  8
241
  6
CONTINUOUS
 10
-11.6432
 20
-80.0
 30
0.0
 70
    32
  0
VERTEX
  5
1F3B
  8
241
  6
CONTINUOUS
 10
-11.6541
 20
-80.0
 30
0.0
 70
    32
  0
VERTEX
  5
1F3C
  8
241
  6
CONTINUOUS
 10
-11.664999999999999
 20
-80.0
 30
0.0
 70
    32
  0
VERTEX
  5
1F3D
  8
241
  6
CONTINUOUS
 10
-11.6759
 20
-80.0
 30
0.0
 70
    32
  0
VERTEX
  5
1F3E
  8
241
  6
CONTINUOUS
 10
-11.6868
 20
-80.0
 30
0.0
 70
    32
  0
VERTEX
  5
1F3F
  8
241
  6
CONTINUOUS
 10
-11.697800000000001
 20
-80.0
 30
0.0
 70
    32
  0
VERTEX
  5
1F40
  8
241
  6
CONTINUOUS
 10
-11.7087
 20
-80.0
 30
0.0
 70
    32
  0
VERTEX
  5
1F41
  8
241
  6
CONTINUOUS
 10
-11.7197
 20
-80.0
 30
0.0
 70
    32
  0
VERTEX
  5
1F42
  8
241
  6
CONTINUOUS
 10
-11.730600000000001
 20
-80.0
 30
0.0
 70
    32
  0
VERTEX
  5
1F43
  8
241
  6
CONTINUOUS
 10
-11.7416
 20
-80.0
 30
0.0
 70
    32
  0
VERTEX
  5
1F44
  8
241
  6
CONTINUOUS
 10
-11.752599999999999
 20
-80.0
 30
0.0
 70
    32
  0
VERTEX
  5
1F45
  8
241
  6
CONTINUOUS
 10
-11.7636
 20
-80.0
 30
0.0
 70
    32
  0
VERTEX
  5
1F46
  8
241
  6
CONTINUOUS
 10
-11.7746
 20
-80.0
 30
0.0
 70
    32
  0
VERTEX
  5
1F47
  8
241
  6
CONTINUOUS
 10
-11.785600000000001
 20
-80.0
 30
0.0
 70
    32
  0
VERTEX
  5
1F48
  8
241
  6
CONTINUOUS
 10
-11.7967
 20
-80.0
 30
0.0
 70
    32
  0
VERTEX
  5
1F49
  8
241
  6
CONTINUOUS
 10
-11.807700000000001
 20
-80.0
 30
0.0
 70
    32
  0
VERTEX
  5
1F4A
  8
241
  6
CONTINUOUS
 10
-11.8188
 20
-80.0
 30
0.0
 70
    32
  0
VERTEX
  5
1F4B
  8
241
  6
CONTINUOUS
 10
-11.8299
 20
-80.0
 30
0.0
 70
    32
  0
VERTEX
  5
1F4C
  8
241
  6
CONTINUOUS
 10
-11.840999999999999
 20
-80.0
 30
0.0
 70
    32
  0
VERTEX
  5
1F4D
  8
241
  6
CONTINUOUS
 10
-11.852
 20
-80.0
 30
0.0
 70
    32
  0
VERTEX
  5
1F4E
  8
241
  6
CONTINUOUS
 10
-11.863200000000001
 20
-80.0
 30
0.0
 70
    32
  0
VERTEX
  5
1F4F
  8
241
  6
CONTINUOUS
 10
-11.8743
 20
-80.0
 30
0.0
 70
    32
  0
VERTEX
  5
1F50
  8
241
  6
CONTINUOUS
 10
-11.885400000000001
 20
-80.0
 30
0.0
 70
    32
  0
VERTEX
  5
1F51
  8
241
  6
CONTINUOUS
 10
-11.8965
 20
-80.0
 30
0.0
 70
    32
  0
VERTEX
  5
1F52
  8
241
  6
CONTINUOUS
 10
-11.9077
 20
-80.0
 30
0.0
 70
    32
  0
VERTEX
  5
1F53
  8
241
  6
CONTINUOUS
 10
-11.918900000000001
 20
-80.0
 30
0.0
 70
    32
  0
VERTEX
  5
1F54
  8
241
  6
CONTINUOUS
 10
-11.93
 20
-80.0
 30
0.0
 70
    32
  0
VERTEX
  5
1F55
  8
241
  6
CONTINUOUS
 10
-11.9412
 20
-80.0
 30
0.0
 70
    32
  0
VERTEX
  5
1F56
  8
241
  6
CONTINUOUS
 10
-11.952400000000001
 20
-80.0
 30
0.0
 70
    32
  0
VERTEX
  5
1F57
  8
241
  6
CONTINUOUS
 10
-11.9636
 20
-80.0
 30
0.0
 70
    32
  0
VERTEX
  5
1F58
  8
241
  6
CONTINUOUS
 10
-11.9748
 20
-80.0
 30
0.0
 70
    32
  0
VERTEX
  5
1F59
  8
241
  6
CONTINUOUS
 10
-11.986000000000001
 20
-80.0
 30
0.0
 70
    32
  0
VERTEX
  5
1F5A
  8
241
  6
CONTINUOUS
 10
-11.997199999999999
 20
-80.0
 30
0.0
 70
    32
  0
VERTEX
  5
1F5B
  8
241
  6
CONTINUOUS
 10
-12.0084
 20
-80.0
 30
0.0
 70
    32
  0
VERTEX
  5
1F5C
  8
241
  6
CONTINUOUS
 10
-12.0197
 20
-80.0
 30
0.0
 70
    32
  0
VERTEX
  5
1F5D
  8
241
  6
CONTINUOUS
 10
-12.030900000000001
 20
-80.0
 30
0.0
 70
    32
  0
VERTEX
  5
1F5E
  8
241
  6
CONTINUOUS
 10
-12.042199999999999
 20
-80.0
 30
0.0
 70
    32
  0
VERTEX
  5
1F5F
  8
241
  6
CONTINUOUS
 10
-12.0534
 20
-80.0
 30
0.0
 70
    32
  0
VERTEX
  5
1F60
  8
241
  6
CONTINUOUS
 10
-12.0647
 20
-80.0
 30
0.0
 70
    32
  0
VERTEX
  5
1F61
  8
241
  6
CONTINUOUS
 10
-12.075900000000001
 20
-80.0
 30
0.0
 70
    32
  0
VERTEX
  5
1F62
  8
241
  6
CONTINUOUS
 10
-12.087199999999999
 20
-80.0
 30
0.0
 70
    32
  0
VERTEX
  5
1F63
  8
241
  6
CONTINUOUS
 10
-12.0985
 20
-80.0
 30
0.0
 70
    32
  0
VERTEX
  5
1F64
  8
241
  6
CONTINUOUS
 10
-12.1098
 20
-80.0
 30
0.0
 70
    32
  0
VERTEX
  5
1F65
  8
241
  6
CONTINUOUS
 10
-12.1211
 20
-80.0
 30
0.0
 70
    32
  0
VERTEX
  5
1F66
  8
241
  6
CONTINUOUS
 10
-12.132400000000001
 20
-80.0
 30
0.0
 70
    32
  0
VERTEX
  5
1F67
  8
241
  6
CONTINUOUS
 10
-12.143700000000001
 20
-80.0
 30
0.0
 70
    32
  0
VERTEX
  5
1F68
  8
241
  6
CONTINUOUS
 10
-12.154999999999999
 20
-80.0
 30
0.0
 70
    32
  0
VERTEX
  5
1F69
  8
241
  6
CONTINUOUS
 10
-12.1663
 20
-80.0
 30
0.0
 70
    32
  0
VERTEX
  5
1F6A
  8
241
  6
CONTINUOUS
 10
-12.1776
 20
-80.0
 30
0.0
 70
    32
  0
VERTEX
  5
1F6B
  8
241
  6
CONTINUOUS
 10
-12.1889
 20
-80.0
 30
0.0
 70
    32
  0
VERTEX
  5
1F6C
  8
241
  6
CONTINUOUS
 10
-12.200200000000001
 20
-80.0
 30
0.0
 70
    32
  0
VERTEX
  5
1F6D
  8
241
  6
CONTINUOUS
 10
-12.211499999999999
 20
-80.0
 30
0.0
 70
    32
  0
VERTEX
  5
1F6E
  8
241
  6
CONTINUOUS
 10
-12.222799999999999
 20
-80.0
 30
0.0
 70
    32
  0
VERTEX
  5
1F6F
  8
241
  6
CONTINUOUS
 10
-12.2342
 20
-80.0
 30
0.0
 70
    32
  0
VERTEX
  5
1F70
  8
241
  6
CONTINUOUS
 10
-12.2455
 20
-80.0
 30
0.0
 70
    32
  0
VERTEX
  5
1F71
  8
241
  6
CONTINUOUS
 10
-12.2568
 20
-80.0
 30
0.0
 70
    32
  0
VERTEX
  5
1F72
  8
241
  6
CONTINUOUS
 10
-12.2682
 20
-80.0
 30
0.0
 70
    32
  0
VERTEX
  5
1F73
  8
241
  6
CONTINUOUS
 10
-12.279500000000001
 20
-80.0
 30
0.0
 70
    32
  0
VERTEX
  5
1F74
  8
241
  6
CONTINUOUS
 10
-12.290800000000001
 20
-80.0
 30
0.0
 70
    32
  0
VERTEX
  5
1F75
  8
241
  6
CONTINUOUS
 10
-12.302099999999999
 20
-80.0
 30
0.0
 70
    32
  0
VERTEX
  5
1F76
  8
241
  6
CONTINUOUS
 10
-12.313499999999999
 20
-80.0
 30
0.0
 70
    32
  0
VERTEX
  5
1F77
  8
241
  6
CONTINUOUS
 10
-12.3248
 20
-80.0
 30
0.0
 70
    32
  0
VERTEX
  5
1F78
  8
241
  6
CONTINUOUS
 10
-12.3361
 20
-80.0
 30
0.0
 70
    32
  0
VERTEX
  5
1F79
  8
241
  6
CONTINUOUS
 10
-12.3475
 20
-80.0
 30
0.0
 70
    32
  0
VERTEX
  5
1F7A
  8
241
  6
CONTINUOUS
 10
-12.3588
 20
-80.0
 30
0.0
 70
    32
  0
VERTEX
  5
1F7B
  8
241
  6
CONTINUOUS
 10
-12.370100000000001
 20
-80.0
 30
0.0
 70
    32
  0
VERTEX
  5
1F7C
  8
241
  6
CONTINUOUS
 10
-12.381500000000001
 20
-80.0
 30
0.0
 70
    32
  0
VERTEX
  5
1F7D
  8
241
  6
CONTINUOUS
 10
-12.392799999999999
 20
-80.0
 30
0.0
 70
    32
  0
VERTEX
  5
1F7E
  8
241
  6
CONTINUOUS
 10
-12.4041
 20
-80.0
 30
0.0
 70
    32
  0
VERTEX
  5
1F7F
  8
241
  6
CONTINUOUS
 10
-12.4155
 20
-80.0
 30
0.0
 70
    32
  0
VERTEX
  5
1F80
  8
241
  6
CONTINUOUS
 10
-12.4268
 20
-80.0
 30
0.0
 70
    32
  0
VERTEX
  5
1F81
  8
241
  6
CONTINUOUS
 10
-12.4381
 20
-80.0
 30
0.0
 70
    32
  0
VERTEX
  5
1F82
  8
241
  6
CONTINUOUS
 10
-12.449400000000001
 20
-80.0
 30
0.0
 70
    32
  0
VERTEX
  5
1F83
  8
241
  6
CONTINUOUS
 10
-12.460699999999999
 20
-80.0
 30
0.0
 70
    32
  0
VERTEX
  5
1F84
  8
241
  6
CONTINUOUS
 10
-12.472
 20
-80.0
 30
0.0
 70
    32
  0
VERTEX
  5
1F85
  8
241
  6
CONTINUOUS
 10
-12.4834
 20
-80.0
 30
0.0
 70
    32
  0
VERTEX
  5
1F86
  8
241
  6
CONTINUOUS
 10
-12.4947
 20
-80.0
 30
0.0
 70
    32
  0
VERTEX
  5
1F87
  8
241
  6
CONTINUOUS
 10
-12.506
 20
-80.0
 30
0.0
 70
    32
  0
VERTEX
  5
1F88
  8
241
  6
CONTINUOUS
 10
-12.517300000000001
 20
-80.0
 30
0.0
 70
    32
  0
VERTEX
  5
1F89
  8
241
  6
CONTINUOUS
 10
-12.528600000000001
 20
-80.0
 30
0.0
 70
    32
  0
VERTEX
  5
1F8A
  8
241
  6
CONTINUOUS
 10
-12.5398
 20
-80.0
 30
0.0
 70
    32
  0
VERTEX
  5
1F8B
  8
241
  6
CONTINUOUS
 10
-12.5511
 20
-80.0
 30
0.0
 70
    32
  0
VERTEX
  5
1F8C
  8
241
  6
CONTINUOUS
 10
-12.5624
 20
-80.0
 30
0.0
 70
    32
  0
VERTEX
  5
1F8D
  8
241
  6
CONTINUOUS
 10
-12.573700000000001
 20
-80.0
 30
0.0
 70
    32
  0
VERTEX
  5
1F8E
  8
241
  6
CONTINUOUS
 10
-12.584899999999999
 20
-80.0
 30
0.0
 70
    32
  0
VERTEX
  5
1F8F
  8
241
  6
CONTINUOUS
 10
-12.5962
 20
-80.0
 30
0.0
 70
    32
  0
VERTEX
  5
1F90
  8
241
  6
CONTINUOUS
 10
-12.6074
 20
-80.0
 30
0.0
 70
    32
  0
VERTEX
  5
1F91
  8
241
  6
CONTINUOUS
 10
-12.618600000000001
 20
-80.0
 30
0.0
 70
    32
  0
VERTEX
  5
1F92
  8
241
  6
CONTINUOUS
 10
-12.629799999999999
 20
-80.0
 30
0.0
 70
    32
  0
VERTEX
  5
1F93
  8
241
  6
CONTINUOUS
 10
-12.641
 20
-80.0
 30
0.0
 70
    32
  0
VERTEX
  5
1F94
  8
241
  6
CONTINUOUS
 10
-12.652200000000001
 20
-80.0
 30
0.0
 70
    32
  0
VERTEX
  5
1F95
  8
241
  6
CONTINUOUS
 10
-12.663399999999999
 20
-80.0
 30
0.0
 70
    32
  0
VERTEX
  5
1F96
  8
241
  6
CONTINUOUS
 10
-12.6746
 20
-80.0
 30
0.0
 70
    32
  0
VERTEX
  5
1F97
  8
241
  6
CONTINUOUS
 10
-12.685700000000001
 20
-80.0
 30
0.0
 70
    32
  0
VERTEX
  5
1F98
  8
241
  6
CONTINUOUS
 10
-12.6968
 20
-80.0
 30
0.0
 70
    32
  0
VERTEX
  5
1F99
  8
241
  6
CONTINUOUS
 10
-12.7079
 20
-80.0
 30
0.0
 70
    32
  0
VERTEX
  5
1F9A
  8
241
  6
CONTINUOUS
 10
-12.718999999999999
 20
-80.0
 30
0.0
 70
    32
  0
VERTEX
  5
1F9B
  8
241
  6
CONTINUOUS
 10
-12.7301
 20
-80.0
 30
0.0
 70
    32
  0
VERTEX
  5
1F9C
  8
241
  6
CONTINUOUS
 10
-12.741199999999999
 20
-80.0
 30
0.0
 70
    32
  0
VERTEX
  5
1F9D
  8
241
  6
CONTINUOUS
 10
-12.7522
 20
-80.0
 30
0.0
 70
    32
  0
VERTEX
  5
1F9E
  8
241
  6
CONTINUOUS
 10
-12.763199999999999
 20
-80.0
 30
0.0
 70
    32
  0
VERTEX
  5
1F9F
  8
241
  6
CONTINUOUS
 10
-12.7742
 20
-80.0
 30
0.0
 70
    32
  0
VERTEX
  5
1FA0
  8
241
  6
CONTINUOUS
 10
-12.7852
 20
-80.0
 30
0.0
 70
    32
  0
VERTEX
  5
1FA1
  8
241
  6
CONTINUOUS
 10
-12.796099999999999
 20
-80.0
 30
0.0
 70
    32
  0
VERTEX
  5
1FA2
  8
241
  6
CONTINUOUS
 10
-12.807
 20
-80.0
 30
0.0
 70
    32
  0
VERTEX
  5
1FA3
  8
241
  6
CONTINUOUS
 10
-12.8179
 20
-80.0
 30
0.0
 70
    32
  0
VERTEX
  5
1FA4
  8
241
  6
CONTINUOUS
 10
-12.828799999999999
 20
-80.0
 30
0.0
 70
    32
  0
VERTEX
  5
1FA5
  8
241
  6
CONTINUOUS
 10
-12.839700000000001
 20
-80.0
 30
0.0
 70
    32
  0
VERTEX
  5
1FA6
  8
241
  6
CONTINUOUS
 10
-12.8505
 20
-80.0
 30
0.0
 70
    32
  0
VERTEX
  5
1FA7
  8
241
  6
CONTINUOUS
 10
-12.8613
 20
-80.0
 30
0.0
 70
    32
  0
VERTEX
  5
1FA8
  8
241
  6
CONTINUOUS
 10
-12.872
 20
-80.0
 30
0.0
 70
    32
  0
VERTEX
  5
1FA9
  8
241
  6
CONTINUOUS
 10
-12.8828
 20
-80.0
 30
0.0
 70
    32
  0
VERTEX
  5
1FAA
  8
241
  6
CONTINUOUS
 10
-12.8935
 20
-80.0
 30
0.0
 70
    32
  0
VERTEX
  5
1FAB
  8
241
  6
CONTINUOUS
 10
-12.9041
 20
-80.0
 30
0.0
 70
    32
  0
VERTEX
  5
1FAC
  8
241
  6
CONTINUOUS
 10
-12.9148
 20
-80.0
 30
0.0
 70
    32
  0
VERTEX
  5
1FAD
  8
241
  6
CONTINUOUS
 10
-12.9254
 20
-80.0
 30
0.0
 70
    32
  0
VERTEX
  5
1FAE
  8
241
  6
CONTINUOUS
 10
-12.9359
 20
-80.0
 30
0.0
 70
    32
  0
VERTEX
  5
1FAF
  8
241
  6
CONTINUOUS
 10
-12.9465
 20
-80.0
 30
0.0
 70
    32
  0
VERTEX
  5
1FB0
  8
241
  6
CONTINUOUS
 10
-12.957000000000001
 20
-80.0
 30
0.0
 70
    32
  0
VERTEX
  5
1FB1
  8
241
  6
CONTINUOUS
 10
-12.9674
 20
-80.0
 30
0.0
 70
    32
  0
VERTEX
  5
1FB2
  8
241
  6
CONTINUOUS
 10
-12.9779
 20
-80.0
 30
0.0
 70
    32
  0
VERTEX
  5
1FB3
  8
241
  6
CONTINUOUS
 10
-12.988300000000001
 20
-80.0
 30
0.0
 70
    32
  0
VERTEX
  5
1FB4
  8
241
  6
CONTINUOUS
 10
-12.9986
 20
-80.0
 30
0.0
 70
    32
  0
VERTEX
  5
1FB5
  8
241
  6
CONTINUOUS
 10
-13.008900000000001
 20
-80.0
 30
0.0
 70
    32
  0
VERTEX
  5
1FB6
  8
241
  6
CONTINUOUS
 10
-13.0192
 20
-80.0
 30
0.0
 70
    32
  0
VERTEX
  5
1FB7
  8
241
  6
CONTINUOUS
 10
-13.029500000000001
 20
-80.0
 30
0.0
 70
    32
  0
VERTEX
  5
1FB8
  8
241
  6
CONTINUOUS
 10
-13.0397
 20
-80.0
 30
0.0
 70
    32
  0
VERTEX
  5
1FB9
  8
241
  6
CONTINUOUS
 10
-13.049799999999999
 20
-80.0
 30
0.0
 70
    32
  0
VERTEX
  5
1FBA
  8
241
  6
CONTINUOUS
 10
-13.059900000000001
 20
-80.0
 30
0.0
 70
    32
  0
VERTEX
  5
1FBB
  8
241
  6
CONTINUOUS
 10
-13.07
 20
-80.0
 30
0.0
 70
    32
  0
VERTEX
  5
1FBC
  8
241
  6
CONTINUOUS
 10
-13.0801
 20
-80.0
 30
0.0
 70
    32
  0
VERTEX
  5
1FBD
  8
241
  6
CONTINUOUS
 10
-13.0901
 20
-80.0
 30
0.0
 70
    32
  0
VERTEX
  5
1FBE
  8
241
  6
CONTINUOUS
 10
-13.1
 20
-80.0
 30
0.0
 70
    32
  0
VERTEX
  5
1FBF
  8
241
  6
CONTINUOUS
 10
-13.1099
 20
-80.0
 30
0.0
 70
    32
  0
VERTEX
  5
1FC0
  8
241
  6
CONTINUOUS
 10
-13.1198
 20
-80.0
 30
0.0
 70
    32
  0
VERTEX
  5
1FC1
  8
241
  6
CONTINUOUS
 10
-13.1296
 20
-80.0
 30
0.0
 70
    32
  0
VERTEX
  5
1FC2
  8
241
  6
CONTINUOUS
 10
-13.1394
 20
-80.0
 30
0.0
 70
    32
  0
VERTEX
  5
1FC3
  8
241
  6
CONTINUOUS
 10
-13.1492
 20
-80.0
 30
0.0
 70
    32
  0
VERTEX
  5
1FC4
  8
241
  6
CONTINUOUS
 10
-13.158899999999999
 20
-80.0
 30
0.0
 70
    32
  0
VERTEX
  5
1FC5
  8
241
  6
CONTINUOUS
 10
-13.1686
 20
-80.0
 30
0.0
 70
    32
  0
VERTEX
  5
1FC6
  8
241
  6
CONTINUOUS
 10
-13.1782
 20
-80.0
 30
0.0
 70
    32
  0
VERTEX
  5
1FC7
  8
241
  6
CONTINUOUS
 10
-13.187799999999999
 20
-80.0
 30
0.0
 70
    32
  0
VERTEX
  5
1FC8
  8
241
  6
CONTINUOUS
 10
-13.1973
 20
-80.0
 30
0.0
 70
    32
  0
VERTEX
  5
1FC9
  8
241
  6
CONTINUOUS
 10
-13.206799999999999
 20
-80.0
 30
0.0
 70
    32
  0
VERTEX
  5
1FCA
  8
241
  6
CONTINUOUS
 10
-13.2163
 20
-80.0
 30
0.0
 70
    32
  0
VERTEX
  5
1FCB
  8
241
  6
CONTINUOUS
 10
-13.2257
 20
-80.0
 30
0.0
 70
    32
  0
VERTEX
  5
1FCC
  8
241
  6
CONTINUOUS
 10
-13.234999999999999
 20
-80.0
 30
0.0
 70
    32
  0
VERTEX
  5
1FCD
  8
241
  6
CONTINUOUS
 10
-13.244400000000001
 20
-80.0
 30
0.0
 70
    32
  0
VERTEX
  5
1FCE
  8
241
  6
CONTINUOUS
 10
-13.2537
 20
-80.0
 30
0.0
 70
    32
  0
VERTEX
  5
1FCF
  8
241
  6
CONTINUOUS
 10
-13.2629
 20
-80.0
 30
0.0
 70
    32
  0
VERTEX
  5
1FD0
  8
241
  6
CONTINUOUS
 10
-13.2721
 20
-80.0
 30
0.0
 70
    32
  0
VERTEX
  5
1FD1
  8
241
  6
CONTINUOUS
 10
-13.2812
 20
-80.0
 30
0.0
 70
    32
  0
VERTEX
  5
1FD2
  8
241
  6
CONTINUOUS
 10
-13.2903
 20
-80.0
 30
0.0
 70
    32
  0
VERTEX
  5
1FD3
  8
241
  6
CONTINUOUS
 10
-13.2994
 20
-80.0
 30
0.0
 70
    32
  0
VERTEX
  5
1FD4
  8
241
  6
CONTINUOUS
 10
-13.308400000000001
 20
-80.0
 30
0.0
 70
    32
  0
VERTEX
  5
1FD5
  8
241
  6
CONTINUOUS
 10
-13.317399999999999
 20
-80.0
 30
0.0
 70
    32
  0
VERTEX
  5
1FD6
  8
241
  6
CONTINUOUS
 10
-13.3263
 20
-80.0
 30
0.0
 70
    32
  0
VERTEX
  5
1FD7
  8
241
  6
CONTINUOUS
 10
-13.3352
 20
-80.0
 30
0.0
 70
    32
  0
VERTEX
  5
1FD8
  8
241
  6
CONTINUOUS
 10
-13.343999999999999
 20
-80.0
 30
0.0
 70
    32
  0
VERTEX
  5
1FD9
  8
241
  6
CONTINUOUS
 10
-13.3528
 20
-80.0
 30
0.0
 70
    32
  0
VERTEX
  5
1FDA
  8
241
  6
CONTINUOUS
 10
-13.361599999999999
 20
-80.0
 30
0.0
 70
    32
  0
VERTEX
  5
1FDB
  8
241
  6
CONTINUOUS
 10
-13.3703
 20
-80.0
 30
0.0
 70
    32
  0
VERTEX
  5
1FDC
  8
241
  6
CONTINUOUS
 10
-13.3789
 20
-80.0
 30
0.0
 70
    32
  0
VERTEX
  5
1FDD
  8
241
  6
CONTINUOUS
 10
-13.387499999999999
 20
-80.0
 30
0.0
 70
    32
  0
VERTEX
  5
1FDE
  8
241
  6
CONTINUOUS
 10
-13.396100000000001
 20
-80.0
 30
0.0
 70
    32
  0
VERTEX
  5
1FDF
  8
241
  6
CONTINUOUS
 10
-13.4046
 20
-80.0
 30
0.0
 70
    32
  0
VERTEX
  5
1FE0
  8
241
  6
CONTINUOUS
 10
-13.413
 20
-80.0
 30
0.0
 70
    32
  0
VERTEX
  5
1FE1
  8
241
  6
CONTINUOUS
 10
-13.4215
 20
-80.0
 30
0.0
 70
    32
  0
VERTEX
  5
1FE2
  8
241
  6
CONTINUOUS
 10
-13.4298
 20
-80.0
 30
0.0
 70
    32
  0
VERTEX
  5
1FE3
  8
241
  6
CONTINUOUS
 10
-13.4382
 20
-80.0
 30
0.0
 70
    32
  0
VERTEX
  5
1FE4
  8
241
  6
CONTINUOUS
 10
-13.446400000000001
 20
-80.0
 30
0.0
 70
    32
  0
VERTEX
  5
1FE5
  8
241
  6
CONTINUOUS
 10
-13.454700000000001
 20
-80.0
 30
0.0
 70
    32
  0
VERTEX
  5
1FE6
  8
241
  6
CONTINUOUS
 10
-13.4628
 20
-80.0
 30
0.0
 70
    32
  0
VERTEX
  5
1FE7
  8
241
  6
CONTINUOUS
 10
-13.471
 20
-80.0
 30
0.0
 70
    32
  0
VERTEX
  5
1FE8
  8
241
  6
CONTINUOUS
 10
-13.479100000000001
 20
-80.0
 30
0.0
 70
    32
  0
VERTEX
  5
1FE9
  8
241
  6
CONTINUOUS
 10
-13.4871
 20
-80.0
 30
0.0
 70
    32
  0
VERTEX
  5
1FEA
  8
241
  6
CONTINUOUS
 10
-13.495100000000001
 20
-80.0
 30
0.0
 70
    32
  0
VERTEX
  5
1FEB
  8
241
  6
CONTINUOUS
 10
-13.5031
 20
-80.0
 30
0.0
 70
    32
  0
VERTEX
  5
1FEC
  8
241
  6
CONTINUOUS
 10
-13.510999999999999
 20
-80.0
 30
0.0
 70
    32
  0
VERTEX
  5
1FED
  8
241
  6
CONTINUOUS
 10
-13.518800000000001
 20
-80.0
 30
0.0
 70
    32
  0
VERTEX
  5
1FEE
  8
241
  6
CONTINUOUS
 10
-13.5266
 20
-80.0
 30
0.0
 70
    32
  0
VERTEX
  5
1FEF
  8
241
  6
CONTINUOUS
 10
-13.5344
 20
-80.0
 30
0.0
 70
    32
  0
VERTEX
  5
1FF0
  8
241
  6
CONTINUOUS
 10
-13.5421
 20
-80.0
 30
0.0
 70
    32
  0
VERTEX
  5
1FF1
  8
241
  6
CONTINUOUS
 10
-13.549799999999999
 20
-80.0
 30
0.0
 70
    32
  0
VERTEX
  5
1FF2
  8
241
  6
CONTINUOUS
 10
-13.557499999999999
 20
-80.0
 30
0.0
 70
    32
  0
VERTEX
  5
1FF3
  8
241
  6
CONTINUOUS
 10
-13.565
 20
-80.0
 30
0.0
 70
    32
  0
VERTEX
  5
1FF4
  8
241
  6
CONTINUOUS
 10
-13.5726
 20
-80.0
 30
0.0
 70
    32
  0
VERTEX
  5
1FF5
  8
241
  6
CONTINUOUS
 10
-13.5801
 20
-80.0
 30
0.0
 70
    32
  0
VERTEX
  5
1FF6
  8
241
  6
CONTINUOUS
 10
-13.5876
 20
-80.0
 30
0.0
 70
    32
  0
VERTEX
  5
1FF7
  8
241
  6
CONTINUOUS
 10
-13.595000000000001
 20
-80.0
 30
0.0
 70
    32
  0
VERTEX
  5
1FF8
  8
241
  6
CONTINUOUS
 10
-13.602399999999999
 20
-80.0
 30
0.0
 70
    32
  0
VERTEX
  5
1FF9
  8
241
  6
CONTINUOUS
 10
-13.6097
 20
-80.0
 30
0.0
 70
    32
  0
VERTEX
  5
1FFA
  8
241
  6
CONTINUOUS
 10
-13.617000000000001
 20
-80.0
 30
0.0
 70
    32
  0
VERTEX
  5
1FFB
  8
241
  6
CONTINUOUS
 10
-13.6243
 20
-80.0
 30
0.0
 70
    32
  0
VERTEX
  5
1FFC
  8
241
  6
CONTINUOUS
 10
-13.631500000000001
 20
-80.0
 30
0.0
 70
    32
  0
VERTEX
  5
1FFD
  8
241
  6
CONTINUOUS
 10
-13.6386
 20
-80.0
 30
0.0
 70
    32
  0
VERTEX
  5
1FFE
  8
241
  6
CONTINUOUS
 10
-13.645799999999999
 20
-80.0
 30
0.0
 70
    32
  0
VERTEX
  5
1FFF
  8
241
  6
CONTINUOUS
 10
-13.652900000000001
 20
-80.0
 30
0.0
 70
    32
  0
VERTEX
  5
2000
  8
241
  6
CONTINUOUS
 10
-13.6599
 20
-80.0
 30
0.0
 70
    32
  0
VERTEX
  5
2001
  8
241
  6
CONTINUOUS
 10
-13.6669
 20
-80.0
 30
0.0
 70
    32
  0
VERTEX
  5
2002
  8
241
  6
CONTINUOUS
 10
-13.6739
 20
-80.0
 30
0.0
 70
    32
  0
VERTEX
  5
2003
  8
241
  6
CONTINUOUS
 10
-13.6808
 20
-80.0
 30
0.0
 70
    32
  0
VERTEX
  5
2004
  8
241
  6
CONTINUOUS
 10
-13.6877
 20
-80.0
 30
0.0
 70
    32
  0
VERTEX
  5
2005
  8
241
  6
CONTINUOUS
 10
-13.6945
 20
-80.0
 30
0.0
 70
    32
  0
VERTEX
  5
2006
  8
241
  6
CONTINUOUS
 10
-13.7014
 20
-80.0
 30
0.0
 70
    32
  0
VERTEX
  5
2007
  8
241
  6
CONTINUOUS
 10
-13.7081
 20
-80.0
 30
0.0
 70
    32
  0
VERTEX
  5
2008
  8
241
  6
CONTINUOUS
 10
-13.7149
 20
-80.0
 30
0.0
 70
    32
  0
VERTEX
  5
2009
  8
241
  6
CONTINUOUS
 10
-13.721500000000001
 20
-80.0
 30
0.0
 70
    32
  0
VERTEX
  5
200A
  8
241
  6
CONTINUOUS
 10
-13.728199999999999
 20
-80.0
 30
0.0
 70
    32
  0
VERTEX
  5
200B
  8
241
  6
CONTINUOUS
 10
-13.7348
 20
-80.0
 30
0.0
 70
    32
  0
VERTEX
  5
200C
  8
241
  6
CONTINUOUS
 10
-13.741400000000001
 20
-80.0
 30
0.0
 70
    32
  0
VERTEX
  5
200D
  8
241
  6
CONTINUOUS
 10
-13.7479
 20
-80.0
 30
0.0
 70
    32
  0
VERTEX
  5
200E
  8
241
  6
CONTINUOUS
 10
-13.7544
 20
-80.0
 30
0.0
 70
    32
  0
VERTEX
  5
200F
  8
241
  6
CONTINUOUS
 10
-13.760899999999999
 20
-80.0
 30
0.0
 70
    32
  0
VERTEX
  5
2010
  8
241
  6
CONTINUOUS
 10
-13.767300000000001
 20
-80.0
 30
0.0
 70
    32
  0
VERTEX
  5
2011
  8
241
  6
CONTINUOUS
 10
-13.7737
 20
-80.0
 30
0.0
 70
    32
  0
VERTEX
  5
2012
  8
241
  6
CONTINUOUS
 10
-13.780099999999999
 20
-80.0
 30
0.0
 70
    32
  0
VERTEX
  5
2013
  8
241
  6
CONTINUOUS
 10
-13.7864
 20
-80.0
 30
0.0
 70
    32
  0
VERTEX
  5
2014
  8
241
  6
CONTINUOUS
 10
-13.7927
 20
-80.0
 30
0.0
 70
    32
  0
VERTEX
  5
2015
  8
241
  6
CONTINUOUS
 10
-13.7989
 20
-80.0
 30
0.0
 70
    32
  0
VERTEX
  5
2016
  8
241
  6
CONTINUOUS
 10
-13.805099999999999
 20
-80.0
 30
0.0
 70
    32
  0
VERTEX
  5
2017
  8
241
  6
CONTINUOUS
 10
-13.811299999999999
 20
-80.0
 30
0.0
 70
    32
  0
VERTEX
  5
2018
  8
241
  6
CONTINUOUS
 10
-13.817399999999999
 20
-80.0
 30
0.0
 70
    32
  0
VERTEX
  5
2019
  8
241
  6
CONTINUOUS
 10
-13.823499999999999
 20
-80.0
 30
0.0
 70
    32
  0
VERTEX
  5
201A
  8
241
  6
CONTINUOUS
 10
-13.829599999999999
 20
-80.0
 30
0.0
 70
    32
  0
VERTEX
  5
201B
  8
241
  6
CONTINUOUS
 10
-13.835699999999999
 20
-80.0
 30
0.0
 70
    32
  0
VERTEX
  5
201C
  8
241
  6
CONTINUOUS
 10
-13.841699999999999
 20
-80.0
 30
0.0
 70
    32
  0
VERTEX
  5
201D
  8
241
  6
CONTINUOUS
 10
-13.8476
 20
-80.0
 30
0.0
 70
    32
  0
VERTEX
  5
201E
  8
241
  6
CONTINUOUS
 10
-13.8536
 20
-80.0
 30
0.0
 70
    32
  0
VERTEX
  5
201F
  8
241
  6
CONTINUOUS
 10
-13.859500000000001
 20
-80.0
 30
0.0
 70
    32
  0
VERTEX
  5
2020
  8
241
  6
CONTINUOUS
 10
-13.8653
 20
-80.0
 30
0.0
 70
    32
  0
VERTEX
  5
2021
  8
241
  6
CONTINUOUS
 10
-13.8712
 20
-80.0
 30
0.0
 70
    32
  0
VERTEX
  5
2022
  8
241
  6
CONTINUOUS
 10
-13.877000000000001
 20
-80.0
 30
0.0
 70
    32
  0
VERTEX
  5
2023
  8
241
  6
CONTINUOUS
 10
-13.8827
 20
-80.0
 30
0.0
 70
    32
  0
VERTEX
  5
2024
  8
241
  6
CONTINUOUS
 10
-13.888500000000001
 20
-80.0
 30
0.0
 70
    32
  0
VERTEX
  5
2025
  8
241
  6
CONTINUOUS
 10
-13.8942
 20
-80.0
 30
0.0
 70
    32
  0
VERTEX
  5
2026
  8
241
  6
CONTINUOUS
 10
-13.899800000000001
 20
-80.0
 30
0.0
 70
    32
  0
VERTEX
  5
2027
  8
241
  6
CONTINUOUS
 10
-13.9055
 20
-80.0
 30
0.0
 70
    32
  0
VERTEX
  5
2028
  8
241
  6
CONTINUOUS
 10
-13.911099999999999
 20
-80.0
 30
0.0
 70
    32
  0
VERTEX
  5
2029
  8
241
  6
CONTINUOUS
 10
-13.916700000000001
 20
-80.0
 30
0.0
 70
    32
  0
VERTEX
  5
202A
  8
241
  6
CONTINUOUS
 10
-13.9222
 20
-80.0
 30
0.0
 70
    32
  0
VERTEX
  5
202B
  8
241
  6
CONTINUOUS
 10
-13.9277
 20
-80.0
 30
0.0
 70
    32
  0
VERTEX
  5
202C
  8
241
  6
CONTINUOUS
 10
-13.933199999999999
 20
-80.0
 30
0.0
 70
    32
  0
VERTEX
  5
202D
  8
241
  6
CONTINUOUS
 10
-13.938700000000001
 20
-80.0
 30
0.0
 70
    32
  0
VERTEX
  5
202E
  8
241
  6
CONTINUOUS
 10
-13.944100000000001
 20
-80.0
 30
0.0
 70
    32
  0
VERTEX
  5
202F
  8
241
  6
CONTINUOUS
 10
-13.9496
 20
-80.0
 30
0.0
 70
    32
  0
VERTEX
  5
2030
  8
241
  6
CONTINUOUS
 10
-13.9549
 20
-80.0
 30
0.0
 70
    32
  0
VERTEX
  5
2031
  8
241
  6
CONTINUOUS
 10
-13.9603
 20
-80.0
 30
0.0
 70
    32
  0
VERTEX
  5
2032
  8
241
  6
CONTINUOUS
 10
-13.9657
 20
-80.0
 30
0.0
 70
    32
  0
VERTEX
  5
2033
  8
241
  6
CONTINUOUS
 10
-13.971
 20
-80.0
 30
0.0
 70
    32
  0
VERTEX
  5
2034
  8
241
  6
CONTINUOUS
 10
-13.9763
 20
-80.0
 30
0.0
 70
    32
  0
VERTEX
  5
2035
  8
241
  6
CONTINUOUS
 10
-13.9817
 20
-80.0
 30
0.0
 70
    32
  0
VERTEX
  5
2036
  8
241
  6
CONTINUOUS
 10
-13.987
 20
-80.0
 30
0.0
 70
    32
  0
VERTEX
  5
2037
  8
241
  6
CONTINUOUS
 10
-13.9922
 20
-80.0
 30
0.0
 70
    32
  0
VERTEX
  5
2038
  8
241
  6
CONTINUOUS
 10
-13.9975
 20
-80.0
 30
0.0
 70
    32
  0
VERTEX
  5
2039
  8
241
  6
CONTINUOUS
 10
-14.002800000000001
 20
-80.0
 30
0.0
 70
    32
  0
VERTEX
  5
203A
  8
241
  6
CONTINUOUS
 10
-14.007999999999999
 20
-80.0
 30
0.0
 70
    32
  0
VERTEX
  5
203B
  8
241
  6
CONTINUOUS
 10
-14.013299999999999
 20
-80.0
 30
0.0
 70
    32
  0
VERTEX
  5
203C
  8
241
  6
CONTINUOUS
 10
-14.0185
 20
-80.0
 30
0.0
 70
    32
  0
VERTEX
  5
203D
  8
241
  6
CONTINUOUS
 10
-14.0237
 20
-80.0
 30
0.0
 70
    32
  0
VERTEX
  5
203E
  8
241
  6
CONTINUOUS
 10
-14.029
 20
-80.0
 30
0.0
 70
    32
  0
VERTEX
  5
203F
  8
241
  6
CONTINUOUS
 10
-14.0342
 20
-80.0
 30
0.0
 70
    32
  0
VERTEX
  5
2040
  8
241
  6
CONTINUOUS
 10
-14.039400000000001
 20
-80.0
 30
0.0
 70
    32
  0
SEQEND
  5
2041
  8
241
  6
CONTINUOUS
  0
POLYLINE
  5
2042
  8
241
  6
CONTINUOUS
 66
     1
 10
0.0
 20
0.0
 30
0.0
 70
     8
  0
VERTEX
  5
2043
  8
241
  6
CONTINUOUS
 10
-14.039400000000001
 20
-75.0
 30
0.0
 70
    32
  0
VERTEX
  5
2044
  8
241
  6
CONTINUOUS
 10
-14.0342
 20
-75.0
 30
0.0
 70
    32
  0
VERTEX
  5
2045
  8
241
  6
CONTINUOUS
 10
-14.029
 20
-75.0
 30
0.0
 70
    32
  0
VERTEX
  5
2046
  8
241
  6
CONTINUOUS
 10
-14.0237
 20
-75.0
 30
0.0
 70
    32
  0
VERTEX
  5
2047
  8
241
  6
CONTINUOUS
 10
-14.0185
 20
-75.0
 30
0.0
 70
    32
  0
VERTEX
  5
2048
  8
241
  6
CONTINUOUS
 10
-14.013299999999999
 20
-75.0
 30
0.0
 70
    32
  0
VERTEX
  5
2049
  8
241
  6
CONTINUOUS
 10
-14.007999999999999
 20
-75.0
 30
0.0
 70
    32
  0
VERTEX
  5
204A
  8
241
  6
CONTINUOUS
 10
-14.002800000000001
 20
-75.0
 30
0.0
 70
    32
  0
VERTEX
  5
204B
  8
241
  6
CONTINUOUS
 10
-13.9975
 20
-75.0
 30
0.0
 70
    32
  0
VERTEX
  5
204C
  8
241
  6
CONTINUOUS
 10
-13.9922
 20
-75.0
 30
0.0
 70
    32
  0
VERTEX
  5
204D
  8
241
  6
CONTINUOUS
 10
-13.987
 20
-75.0
 30
0.0
 70
    32
  0
VERTEX
  5
204E
  8
241
  6
CONTINUOUS
 10
-13.9817
 20
-75.0
 30
0.0
 70
    32
  0
VERTEX
  5
204F
  8
241
  6
CONTINUOUS
 10
-13.9763
 20
-75.0
 30
0.0
 70
    32
  0
VERTEX
  5
2050
  8
241
  6
CONTINUOUS
 10
-13.971
 20
-75.0
 30
0.0
 70
    32
  0
VERTEX
  5
2051
  8
241
  6
CONTINUOUS
 10
-13.9657
 20
-75.0
 30
0.0
 70
    32
  0
VERTEX
  5
2052
  8
241
  6
CONTINUOUS
 10
-13.9603
 20
-75.0
 30
0.0
 70
    32
  0
VERTEX
  5
2053
  8
241
  6
CONTINUOUS
 10
-13.9549
 20
-75.0
 30
0.0
 70
    32
  0
VERTEX
  5
2054
  8
241
  6
CONTINUOUS
 10
-13.9496
 20
-75.0
 30
0.0
 70
    32
  0
VERTEX
  5
2055
  8
241
  6
CONTINUOUS
 10
-13.944100000000001
 20
-75.0
 30
0.0
 70
    32
  0
VERTEX
  5
2056
  8
241
  6
CONTINUOUS
 10
-13.938700000000001
 20
-75.0
 30
0.0
 70
    32
  0
VERTEX
  5
2057
  8
241
  6
CONTINUOUS
 10
-13.933199999999999
 20
-75.0
 30
0.0
 70
    32
  0
VERTEX
  5
2058
  8
241
  6
CONTINUOUS
 10
-13.9277
 20
-75.0
 30
0.0
 70
    32
  0
VERTEX
  5
2059
  8
241
  6
CONTINUOUS
 10
-13.9222
 20
-75.0
 30
0.0
 70
    32
  0
VERTEX
  5
205A
  8
241
  6
CONTINUOUS
 10
-13.916700000000001
 20
-75.0
 30
0.0
 70
    32
  0
VERTEX
  5
205B
  8
241
  6
CONTINUOUS
 10
-13.911099999999999
 20
-75.0
 30
0.0
 70
    32
  0
VERTEX
  5
205C
  8
241
  6
CONTINUOUS
 10
-13.9055
 20
-75.0
 30
0.0
 70
    32
  0
VERTEX
  5
205D
  8
241
  6
CONTINUOUS
 10
-13.899800000000001
 20
-75.0
 30
0.0
 70
    32
  0
VERTEX
  5
205E
  8
241
  6
CONTINUOUS
 10
-13.8942
 20
-75.0
 30
0.0
 70
    32
  0
VERTEX
  5
205F
  8
241
  6
CONTINUOUS
 10
-13.888500000000001
 20
-75.0
 30
0.0
 70
    32
  0
VERTEX
  5
2060
  8
241
  6
CONTINUOUS
 10
-13.8827
 20
-75.0
 30
0.0
 70
    32
  0
VERTEX
  5
2061
  8
241
  6
CONTINUOUS
 10
-13.877000000000001
 20
-75.0
 30
0.0
 70
    32
  0
VERTEX
  5
2062
  8
241
  6
CONTINUOUS
 10
-13.8712
 20
-75.0
 30
0.0
 70
    32
  0
VERTEX
  5
2063
  8
241
  6
CONTINUOUS
 10
-13.8653
 20
-75.0
 30
0.0
 70
    32
  0
VERTEX
  5
2064
  8
241
  6
CONTINUOUS
 10
-13.859500000000001
 20
-75.0
 30
0.0
 70
    32
  0
VERTEX
  5
2065
  8
241
  6
CONTINUOUS
 10
-13.8536
 20
-75.0
 30
0.0
 70
    32
  0
VERTEX
  5
2066
  8
241
  6
CONTINUOUS
 10
-13.8476
 20
-75.0
 30
0.0
 70
    32
  0
VERTEX
  5
2067
  8
241
  6
CONTINUOUS
 10
-13.841699999999999
 20
-75.0
 30
0.0
 70
    32
  0
VERTEX
  5
2068
  8
241
  6
CONTINUOUS
 10
-13.835699999999999
 20
-75.0
 30
0.0
 70
    32
  0
VERTEX
  5
2069
  8
241
  6
CONTINUOUS
 10
-13.829599999999999
 20
-75.0
 30
0.0
 70
    32
  0
VERTEX
  5
206A
  8
241
  6
CONTINUOUS
 10
-13.823499999999999
 20
-75.0
 30
0.0
 70
    32
  0
VERTEX
  5
206B
  8
241
  6
CONTINUOUS
 10
-13.817399999999999
 20
-75.0
 30
0.0
 70
    32
  0
VERTEX
  5
206C
  8
241
  6
CONTINUOUS
 10
-13.811299999999999
 20
-75.0
 30
0.0
 70
    32
  0
VERTEX
  5
206D
  8
241
  6
CONTINUOUS
 10
-13.805099999999999
 20
-75.0
 30
0.0
 70
    32
  0
VERTEX
  5
206E
  8
241
  6
CONTINUOUS
 10
-13.7989
 20
-75.0
 30
0.0
 70
    32
  0
VERTEX
  5
206F
  8
241
  6
CONTINUOUS
 10
-13.7927
 20
-75.0
 30
0.0
 70
    32
  0
VERTEX
  5
2070
  8
241
  6
CONTINUOUS
 10
-13.7864
 20
-75.0
 30
0.0
 70
    32
  0
VERTEX
  5
2071
  8
241
  6
CONTINUOUS
 10
-13.780099999999999
 20
-75.0
 30
0.0
 70
    32
  0
VERTEX
  5
2072
  8
241
  6
CONTINUOUS
 10
-13.7737
 20
-75.0
 30
0.0
 70
    32
  0
VERTEX
  5
2073
  8
241
  6
CONTINUOUS
 10
-13.767300000000001
 20
-75.0
 30
0.0
 70
    32
  0
VERTEX
  5
2074
  8
241
  6
CONTINUOUS
 10
-13.760899999999999
 20
-75.0
 30
0.0
 70
    32
  0
VERTEX
  5
2075
  8
241
  6
CONTINUOUS
 10
-13.7544
 20
-75.0
 30
0.0
 70
    32
  0
VERTEX
  5
2076
  8
241
  6
CONTINUOUS
 10
-13.7479
 20
-75.0
 30
0.0
 70
    32
  0
VERTEX
  5
2077
  8
241
  6
CONTINUOUS
 10
-13.741400000000001
 20
-75.0
 30
0.0
 70
    32
  0
VERTEX
  5
2078
  8
241
  6
CONTINUOUS
 10
-13.7348
 20
-75.0
 30
0.0
 70
    32
  0
VERTEX
  5
2079
  8
241
  6
CONTINUOUS
 10
-13.728199999999999
 20
-75.0
 30
0.0
 70
    32
  0
VERTEX
  5
207A
  8
241
  6
CONTINUOUS
 10
-13.721500000000001
 20
-75.0
 30
0.0
 70
    32
  0
VERTEX
  5
207B
  8
241
  6
CONTINUOUS
 10
-13.7149
 20
-75.0
 30
0.0
 70
    32
  0
VERTEX
  5
207C
  8
241
  6
CONTINUOUS
 10
-13.7081
 20
-75.0
 30
0.0
 70
    32
  0
VERTEX
  5
207D
  8
241
  6
CONTINUOUS
 10
-13.7014
 20
-75.0
 30
0.0
 70
    32
  0
VERTEX
  5
207E
  8
241
  6
CONTINUOUS
 10
-13.6945
 20
-75.0
 30
0.0
 70
    32
  0
VERTEX
  5
207F
  8
241
  6
CONTINUOUS
 10
-13.6877
 20
-75.0
 30
0.0
 70
    32
  0
VERTEX
  5
2080
  8
241
  6
CONTINUOUS
 10
-13.6808
 20
-75.0
 30
0.0
 70
    32
  0
VERTEX
  5
2081
  8
241
  6
CONTINUOUS
 10
-13.6739
 20
-75.0
 30
0.0
 70
    32
  0
VERTEX
  5
2082
  8
241
  6
CONTINUOUS
 10
-13.6669
 20
-75.0
 30
0.0
 70
    32
  0
VERTEX
  5
2083
  8
241
  6
CONTINUOUS
 10
-13.6599
 20
-75.0
 30
0.0
 70
    32
  0
VERTEX
  5
2084
  8
241
  6
CONTINUOUS
 10
-13.652900000000001
 20
-75.0
 30
0.0
 70
    32
  0
VERTEX
  5
2085
  8
241
  6
CONTINUOUS
 10
-13.645799999999999
 20
-75.0
 30
0.0
 70
    32
  0
VERTEX
  5
2086
  8
241
  6
CONTINUOUS
 10
-13.6386
 20
-75.0
 30
0.0
 70
    32
  0
VERTEX
  5
2087
  8
241
  6
CONTINUOUS
 10
-13.631500000000001
 20
-75.0
 30
0.0
 70
    32
  0
VERTEX
  5
2088
  8
241
  6
CONTINUOUS
 10
-13.6243
 20
-75.0
 30
0.0
 70
    32
  0
VERTEX
  5
2089
  8
241
  6
CONTINUOUS
 10
-13.617000000000001
 20
-75.0
 30
0.0
 70
    32
  0
VERTEX
  5
208A
  8
241
  6
CONTINUOUS
 10
-13.6097
 20
-75.0
 30
0.0
 70
    32
  0
VERTEX
  5
208B
  8
241
  6
CONTINUOUS
 10
-13.602399999999999
 20
-75.0
 30
0.0
 70
    32
  0
VERTEX
  5
208C
  8
241
  6
CONTINUOUS
 10
-13.595000000000001
 20
-75.0
 30
0.0
 70
    32
  0
VERTEX
  5
208D
  8
241
  6
CONTINUOUS
 10
-13.5876
 20
-75.0
 30
0.0
 70
    32
  0
VERTEX
  5
208E
  8
241
  6
CONTINUOUS
 10
-13.5801
 20
-75.0
 30
0.0
 70
    32
  0
VERTEX
  5
208F
  8
241
  6
CONTINUOUS
 10
-13.5726
 20
-75.0
 30
0.0
 70
    32
  0
VERTEX
  5
2090
  8
241
  6
CONTINUOUS
 10
-13.565
 20
-75.0
 30
0.0
 70
    32
  0
VERTEX
  5
2091
  8
241
  6
CONTINUOUS
 10
-13.557499999999999
 20
-75.0
 30
0.0
 70
    32
  0
VERTEX
  5
2092
  8
241
  6
CONTINUOUS
 10
-13.549799999999999
 20
-75.0
 30
0.0
 70
    32
  0
VERTEX
  5
2093
  8
241
  6
CONTINUOUS
 10
-13.5421
 20
-75.0
 30
0.0
 70
    32
  0
VERTEX
  5
2094
  8
241
  6
CONTINUOUS
 10
-13.5344
 20
-75.0
 30
0.0
 70
    32
  0
VERTEX
  5
2095
  8
241
  6
CONTINUOUS
 10
-13.5266
 20
-75.0
 30
0.0
 70
    32
  0
VERTEX
  5
2096
  8
241
  6
CONTINUOUS
 10
-13.518800000000001
 20
-75.0
 30
0.0
 70
    32
  0
VERTEX
  5
2097
  8
241
  6
CONTINUOUS
 10
-13.510999999999999
 20
-75.0
 30
0.0
 70
    32
  0
VERTEX
  5
2098
  8
241
  6
CONTINUOUS
 10
-13.5031
 20
-75.0
 30
0.0
 70
    32
  0
VERTEX
  5
2099
  8
241
  6
CONTINUOUS
 10
-13.495100000000001
 20
-75.0
 30
0.0
 70
    32
  0
VERTEX
  5
209A
  8
241
  6
CONTINUOUS
 10
-13.4871
 20
-75.0
 30
0.0
 70
    32
  0
VERTEX
  5
209B
  8
241
  6
CONTINUOUS
 10
-13.479100000000001
 20
-75.0
 30
0.0
 70
    32
  0
VERTEX
  5
209C
  8
241
  6
CONTINUOUS
 10
-13.471
 20
-75.0
 30
0.0
 70
    32
  0
VERTEX
  5
209D
  8
241
  6
CONTINUOUS
 10
-13.4628
 20
-75.0
 30
0.0
 70
    32
  0
VERTEX
  5
209E
  8
241
  6
CONTINUOUS
 10
-13.454700000000001
 20
-75.0
 30
0.0
 70
    32
  0
VERTEX
  5
209F
  8
241
  6
CONTINUOUS
 10
-13.446400000000001
 20
-75.0
 30
0.0
 70
    32
  0
VERTEX
  5
20A0
  8
241
  6
CONTINUOUS
 10
-13.4382
 20
-75.0
 30
0.0
 70
    32
  0
VERTEX
  5
20A1
  8
241
  6
CONTINUOUS
 10
-13.4298
 20
-75.0
 30
0.0
 70
    32
  0
VERTEX
  5
20A2
  8
241
  6
CONTINUOUS
 10
-13.4215
 20
-75.0
 30
0.0
 70
    32
  0
VERTEX
  5
20A3
  8
241
  6
CONTINUOUS
 10
-13.413
 20
-75.0
 30
0.0
 70
    32
  0
VERTEX
  5
20A4
  8
241
  6
CONTINUOUS
 10
-13.4046
 20
-75.0
 30
0.0
 70
    32
  0
VERTEX
  5
20A5
  8
241
  6
CONTINUOUS
 10
-13.396100000000001
 20
-75.0
 30
0.0
 70
    32
  0
VERTEX
  5
20A6
  8
241
  6
CONTINUOUS
 10
-13.387499999999999
 20
-75.0
 30
0.0
 70
    32
  0
VERTEX
  5
20A7
  8
241
  6
CONTINUOUS
 10
-13.3789
 20
-75.0
 30
0.0
 70
    32
  0
VERTEX
  5
20A8
  8
241
  6
CONTINUOUS
 10
-13.3703
 20
-75.0
 30
0.0
 70
    32
  0
VERTEX
  5
20A9
  8
241
  6
CONTINUOUS
 10
-13.361599999999999
 20
-75.0
 30
0.0
 70
    32
  0
VERTEX
  5
20AA
  8
241
  6
CONTINUOUS
 10
-13.3528
 20
-75.0
 30
0.0
 70
    32
  0
VERTEX
  5
20AB
  8
241
  6
CONTINUOUS
 10
-13.343999999999999
 20
-75.0
 30
0.0
 70
    32
  0
VERTEX
  5
20AC
  8
241
  6
CONTINUOUS
 10
-13.3352
 20
-75.0
 30
0.0
 70
    32
  0
VERTEX
  5
20AD
  8
241
  6
CONTINUOUS
 10
-13.3263
 20
-75.0
 30
0.0
 70
    32
  0
VERTEX
  5
20AE
  8
241
  6
CONTINUOUS
 10
-13.317399999999999
 20
-75.0
 30
0.0
 70
    32
  0
VERTEX
  5
20AF
  8
241
  6
CONTINUOUS
 10
-13.308400000000001
 20
-75.0
 30
0.0
 70
    32
  0
VERTEX
  5
20B0
  8
241
  6
CONTINUOUS
 10
-13.2994
 20
-75.0
 30
0.0
 70
    32
  0
VERTEX
  5
20B1
  8
241
  6
CONTINUOUS
 10
-13.2903
 20
-75.0
 30
0.0
 70
    32
  0
VERTEX
  5
20B2
  8
241
  6
CONTINUOUS
 10
-13.2812
 20
-75.0
 30
0.0
 70
    32
  0
VERTEX
  5
20B3
  8
241
  6
CONTINUOUS
 10
-13.2721
 20
-75.0
 30
0.0
 70
    32
  0
VERTEX
  5
20B4
  8
241
  6
CONTINUOUS
 10
-13.2629
 20
-75.0
 30
0.0
 70
    32
  0
VERTEX
  5
20B5
  8
241
  6
CONTINUOUS
 10
-13.2537
 20
-75.0
 30
0.0
 70
    32
  0
VERTEX
  5
20B6
  8
241
  6
CONTINUOUS
 10
-13.244400000000001
 20
-75.0
 30
0.0
 70
    32
  0
VERTEX
  5
20B7
  8
241
  6
CONTINUOUS
 10
-13.234999999999999
 20
-75.0
 30
0.0
 70
    32
  0
VERTEX
  5
20B8
  8
241
  6
CONTINUOUS
 10
-13.2257
 20
-75.0
 30
0.0
 70
    32
  0
VERTEX
  5
20B9
  8
241
  6
CONTINUOUS
 10
-13.2163
 20
-75.0
 30
0.0
 70
    32
  0
VERTEX
  5
20BA
  8
241
  6
CONTINUOUS
 10
-13.206799999999999
 20
-75.0
 30
0.0
 70
    32
  0
VERTEX
  5
20BB
  8
241
  6
CONTINUOUS
 10
-13.1973
 20
-75.0
 30
0.0
 70
    32
  0
VERTEX
  5
20BC
  8
241
  6
CONTINUOUS
 10
-13.187799999999999
 20
-75.0
 30
0.0
 70
    32
  0
VERTEX
  5
20BD
  8
241
  6
CONTINUOUS
 10
-13.1782
 20
-75.0
 30
0.0
 70
    32
  0
VERTEX
  5
20BE
  8
241
  6
CONTINUOUS
 10
-13.1686
 20
-75.0
 30
0.0
 70
    32
  0
VERTEX
  5
20BF
  8
241
  6
CONTINUOUS
 10
-13.158899999999999
 20
-75.0
 30
0.0
 70
    32
  0
VERTEX
  5
20C0
  8
241
  6
CONTINUOUS
 10
-13.1492
 20
-75.0
 30
0.0
 70
    32
  0
VERTEX
  5
20C1
  8
241
  6
CONTINUOUS
 10
-13.1394
 20
-75.0
 30
0.0
 70
    32
  0
VERTEX
  5
20C2
  8
241
  6
CONTINUOUS
 10
-13.1296
 20
-75.0
 30
0.0
 70
    32
  0
VERTEX
  5
20C3
  8
241
  6
CONTINUOUS
 10
-13.1198
 20
-75.0
 30
0.0
 70
    32
  0
VERTEX
  5
20C4
  8
241
  6
CONTINUOUS
 10
-13.1099
 20
-75.0
 30
0.0
 70
    32
  0
VERTEX
  5
20C5
  8
241
  6
CONTINUOUS
 10
-13.1
 20
-75.0
 30
0.0
 70
    32
  0
VERTEX
  5
20C6
  8
241
  6
CONTINUOUS
 10
-13.0901
 20
-75.0
 30
0.0
 70
    32
  0
VERTEX
  5
20C7
  8
241
  6
CONTINUOUS
 10
-13.0801
 20
-75.0
 30
0.0
 70
    32
  0
VERTEX
  5
20C8
  8
241
  6
CONTINUOUS
 10
-13.07
 20
-75.0
 30
0.0
 70
    32
  0
VERTEX
  5
20C9
  8
241
  6
CONTINUOUS
 10
-13.059900000000001
 20
-75.0
 30
0.0
 70
    32
  0
VERTEX
  5
20CA
  8
241
  6
CONTINUOUS
 10
-13.049799999999999
 20
-75.0
 30
0.0
 70
    32
  0
VERTEX
  5
20CB
  8
241
  6
CONTINUOUS
 10
-13.0397
 20
-75.0
 30
0.0
 70
    32
  0
VERTEX
  5
20CC
  8
241
  6
CONTINUOUS
 10
-13.029500000000001
 20
-75.0
 30
0.0
 70
    32
  0
VERTEX
  5
20CD
  8
241
  6
CONTINUOUS
 10
-13.0192
 20
-75.0
 30
0.0
 70
    32
  0
VERTEX
  5
20CE
  8
241
  6
CONTINUOUS
 10
-13.008900000000001
 20
-75.0
 30
0.0
 70
    32
  0
VERTEX
  5
20CF
  8
241
  6
CONTINUOUS
 10
-12.9986
 20
-75.0
 30
0.0
 70
    32
  0
VERTEX
  5
20D0
  8
241
  6
CONTINUOUS
 10
-12.988300000000001
 20
-75.0
 30
0.0
 70
    32
  0
VERTEX
  5
20D1
  8
241
  6
CONTINUOUS
 10
-12.9779
 20
-75.0
 30
0.0
 70
    32
  0
VERTEX
  5
20D2
  8
241
  6
CONTINUOUS
 10
-12.9674
 20
-75.0
 30
0.0
 70
    32
  0
VERTEX
  5
20D3
  8
241
  6
CONTINUOUS
 10
-12.957000000000001
 20
-75.0
 30
0.0
 70
    32
  0
VERTEX
  5
20D4
  8
241
  6
CONTINUOUS
 10
-12.9465
 20
-75.0
 30
0.0
 70
    32
  0
VERTEX
  5
20D5
  8
241
  6
CONTINUOUS
 10
-12.9359
 20
-75.0
 30
0.0
 70
    32
  0
VERTEX
  5
20D6
  8
241
  6
CONTINUOUS
 10
-12.9254
 20
-75.0
 30
0.0
 70
    32
  0
VERTEX
  5
20D7
  8
241
  6
CONTINUOUS
 10
-12.9148
 20
-75.0
 30
0.0
 70
    32
  0
VERTEX
  5
20D8
  8
241
  6
CONTINUOUS
 10
-12.9041
 20
-75.0
 30
0.0
 70
    32
  0
VERTEX
  5
20D9
  8
241
  6
CONTINUOUS
 10
-12.8935
 20
-75.0
 30
0.0
 70
    32
  0
VERTEX
  5
20DA
  8
241
  6
CONTINUOUS
 10
-12.8828
 20
-75.0
 30
0.0
 70
    32
  0
VERTEX
  5
20DB
  8
241
  6
CONTINUOUS
 10
-12.872
 20
-75.0
 30
0.0
 70
    32
  0
VERTEX
  5
20DC
  8
241
  6
CONTINUOUS
 10
-12.8613
 20
-75.0
 30
0.0
 70
    32
  0
VERTEX
  5
20DD
  8
241
  6
CONTINUOUS
 10
-12.8505
 20
-75.0
 30
0.0
 70
    32
  0
VERTEX
  5
20DE
  8
241
  6
CONTINUOUS
 10
-12.839700000000001
 20
-75.0
 30
0.0
 70
    32
  0
VERTEX
  5
20DF
  8
241
  6
CONTINUOUS
 10
-12.828799999999999
 20
-75.0
 30
0.0
 70
    32
  0
VERTEX
  5
20E0
  8
241
  6
CONTINUOUS
 10
-12.8179
 20
-75.0
 30
0.0
 70
    32
  0
VERTEX
  5
20E1
  8
241
  6
CONTINUOUS
 10
-12.807
 20
-75.0
 30
0.0
 70
    32
  0
VERTEX
  5
20E2
  8
241
  6
CONTINUOUS
 10
-12.796099999999999
 20
-75.0
 30
0.0
 70
    32
  0
VERTEX
  5
20E3
  8
241
  6
CONTINUOUS
 10
-12.7852
 20
-75.0
 30
0.0
 70
    32
  0
VERTEX
  5
20E4
  8
241
  6
CONTINUOUS
 10
-12.7742
 20
-75.0
 30
0.0
 70
    32
  0
VERTEX
  5
20E5
  8
241
  6
CONTINUOUS
 10
-12.763199999999999
 20
-75.0
 30
0.0
 70
    32
  0
VERTEX
  5
20E6
  8
241
  6
CONTINUOUS
 10
-12.7522
 20
-75.0
 30
0.0
 70
    32
  0
VERTEX
  5
20E7
  8
241
  6
CONTINUOUS
 10
-12.741199999999999
 20
-75.0
 30
0.0
 70
    32
  0
VERTEX
  5
20E8
  8
241
  6
CONTINUOUS
 10
-12.7301
 20
-75.0
 30
0.0
 70
    32
  0
VERTEX
  5
20E9
  8
241
  6
CONTINUOUS
 10
-12.718999999999999
 20
-75.0
 30
0.0
 70
    32
  0
VERTEX
  5
20EA
  8
241
  6
CONTINUOUS
 10
-12.7079
 20
-75.0
 30
0.0
 70
    32
  0
VERTEX
  5
20EB
  8
241
  6
CONTINUOUS
 10
-12.6968
 20
-75.0
 30
0.0
 70
    32
  0
VERTEX
  5
20EC
  8
241
  6
CONTINUOUS
 10
-12.685700000000001
 20
-75.0
 30
0.0
 70
    32
  0
VERTEX
  5
20ED
  8
241
  6
CONTINUOUS
 10
-12.6746
 20
-75.0
 30
0.0
 70
    32
  0
VERTEX
  5
20EE
  8
241
  6
CONTINUOUS
 10
-12.663399999999999
 20
-75.0
 30
0.0
 70
    32
  0
VERTEX
  5
20EF
  8
241
  6
CONTINUOUS
 10
-12.652200000000001
 20
-75.0
 30
0.0
 70
    32
  0
VERTEX
  5
20F0
  8
241
  6
CONTINUOUS
 10
-12.641
 20
-75.0
 30
0.0
 70
    32
  0
VERTEX
  5
20F1
  8
241
  6
CONTINUOUS
 10
-12.629799999999999
 20
-75.0
 30
0.0
 70
    32
  0
VERTEX
  5
20F2
  8
241
  6
CONTINUOUS
 10
-12.618600000000001
 20
-75.0
 30
0.0
 70
    32
  0
VERTEX
  5
20F3
  8
241
  6
CONTINUOUS
 10
-12.6074
 20
-75.0
 30
0.0
 70
    32
  0
VERTEX
  5
20F4
  8
241
  6
CONTINUOUS
 10
-12.5962
 20
-75.0
 30
0.0
 70
    32
  0
VERTEX
  5
20F5
  8
241
  6
CONTINUOUS
 10
-12.584899999999999
 20
-75.0
 30
0.0
 70
    32
  0
VERTEX
  5
20F6
  8
241
  6
CONTINUOUS
 10
-12.573700000000001
 20
-75.0
 30
0.0
 70
    32
  0
VERTEX
  5
20F7
  8
241
  6
CONTINUOUS
 10
-12.5624
 20
-75.0
 30
0.0
 70
    32
  0
VERTEX
  5
20F8
  8
241
  6
CONTINUOUS
 10
-12.5511
 20
-75.0
 30
0.0
 70
    32
  0
VERTEX
  5
20F9
  8
241
  6
CONTINUOUS
 10
-12.5398
 20
-75.0
 30
0.0
 70
    32
  0
VERTEX
  5
20FA
  8
241
  6
CONTINUOUS
 10
-12.528600000000001
 20
-75.0
 30
0.0
 70
    32
  0
VERTEX
  5
20FB
  8
241
  6
CONTINUOUS
 10
-12.517300000000001
 20
-75.0
 30
0.0
 70
    32
  0
VERTEX
  5
20FC
  8
241
  6
CONTINUOUS
 10
-12.506
 20
-75.0
 30
0.0
 70
    32
  0
VERTEX
  5
20FD
  8
241
  6
CONTINUOUS
 10
-12.4947
 20
-75.0
 30
0.0
 70
    32
  0
VERTEX
  5
20FE
  8
241
  6
CONTINUOUS
 10
-12.4834
 20
-75.0
 30
0.0
 70
    32
  0
VERTEX
  5
20FF
  8
241
  6
CONTINUOUS
 10
-12.472
 20
-75.0
 30
0.0
 70
    32
  0
VERTEX
  5
2100
  8
241
  6
CONTINUOUS
 10
-12.460699999999999
 20
-75.0
 30
0.0
 70
    32
  0
VERTEX
  5
2101
  8
241
  6
CONTINUOUS
 10
-12.449400000000001
 20
-75.0
 30
0.0
 70
    32
  0
VERTEX
  5
2102
  8
241
  6
CONTINUOUS
 10
-12.4381
 20
-75.0
 30
0.0
 70
    32
  0
VERTEX
  5
2103
  8
241
  6
CONTINUOUS
 10
-12.4268
 20
-75.0
 30
0.0
 70
    32
  0
VERTEX
  5
2104
  8
241
  6
CONTINUOUS
 10
-12.4155
 20
-75.0
 30
0.0
 70
    32
  0
VERTEX
  5
2105
  8
241
  6
CONTINUOUS
 10
-12.4041
 20
-75.0
 30
0.0
 70
    32
  0
VERTEX
  5
2106
  8
241
  6
CONTINUOUS
 10
-12.392799999999999
 20
-75.0
 30
0.0
 70
    32
  0
VERTEX
  5
2107
  8
241
  6
CONTINUOUS
 10
-12.381500000000001
 20
-75.0
 30
0.0
 70
    32
  0
VERTEX
  5
2108
  8
241
  6
CONTINUOUS
 10
-12.370100000000001
 20
-75.0
 30
0.0
 70
    32
  0
VERTEX
  5
2109
  8
241
  6
CONTINUOUS
 10
-12.3588
 20
-75.0
 30
0.0
 70
    32
  0
VERTEX
  5
210A
  8
241
  6
CONTINUOUS
 10
-12.3475
 20
-75.0
 30
0.0
 70
    32
  0
VERTEX
  5
210B
  8
241
  6
CONTINUOUS
 10
-12.3361
 20
-75.0
 30
0.0
 70
    32
  0
VERTEX
  5
210C
  8
241
  6
CONTINUOUS
 10
-12.3248
 20
-75.0
 30
0.0
 70
    32
  0
VERTEX
  5
210D
  8
241
  6
CONTINUOUS
 10
-12.313499999999999
 20
-75.0
 30
0.0
 70
    32
  0
VERTEX
  5
210E
  8
241
  6
CONTINUOUS
 10
-12.302099999999999
 20
-75.0
 30
0.0
 70
    32
  0
VERTEX
  5
210F
  8
241
  6
CONTINUOUS
 10
-12.290800000000001
 20
-75.0
 30
0.0
 70
    32
  0
VERTEX
  5
2110
  8
241
  6
CONTINUOUS
 10
-12.279500000000001
 20
-75.0
 30
0.0
 70
    32
  0
VERTEX
  5
2111
  8
241
  6
CONTINUOUS
 10
-12.2682
 20
-75.0
 30
0.0
 70
    32
  0
VERTEX
  5
2112
  8
241
  6
CONTINUOUS
 10
-12.2568
 20
-75.0
 30
0.0
 70
    32
  0
VERTEX
  5
2113
  8
241
  6
CONTINUOUS
 10
-12.2455
 20
-75.0
 30
0.0
 70
    32
  0
VERTEX
  5
2114
  8
241
  6
CONTINUOUS
 10
-12.2342
 20
-75.0
 30
0.0
 70
    32
  0
VERTEX
  5
2115
  8
241
  6
CONTINUOUS
 10
-12.222799999999999
 20
-75.0
 30
0.0
 70
    32
  0
VERTEX
  5
2116
  8
241
  6
CONTINUOUS
 10
-12.211499999999999
 20
-75.0
 30
0.0
 70
    32
  0
VERTEX
  5
2117
  8
241
  6
CONTINUOUS
 10
-12.200200000000001
 20
-75.0
 30
0.0
 70
    32
  0
VERTEX
  5
2118
  8
241
  6
CONTINUOUS
 10
-12.1889
 20
-75.0
 30
0.0
 70
    32
  0
VERTEX
  5
2119
  8
241
  6
CONTINUOUS
 10
-12.1776
 20
-75.0
 30
0.0
 70
    32
  0
VERTEX
  5
211A
  8
241
  6
CONTINUOUS
 10
-12.1663
 20
-75.0
 30
0.0
 70
    32
  0
VERTEX
  5
211B
  8
241
  6
CONTINUOUS
 10
-12.154999999999999
 20
-75.0
 30
0.0
 70
    32
  0
VERTEX
  5
211C
  8
241
  6
CONTINUOUS
 10
-12.143700000000001
 20
-75.0
 30
0.0
 70
    32
  0
VERTEX
  5
211D
  8
241
  6
CONTINUOUS
 10
-12.132400000000001
 20
-75.0
 30
0.0
 70
    32
  0
VERTEX
  5
211E
  8
241
  6
CONTINUOUS
 10
-12.1211
 20
-75.0
 30
0.0
 70
    32
  0
VERTEX
  5
211F
  8
241
  6
CONTINUOUS
 10
-12.1098
 20
-75.0
 30
0.0
 70
    32
  0
VERTEX
  5
2120
  8
241
  6
CONTINUOUS
 10
-12.0985
 20
-75.0
 30
0.0
 70
    32
  0
VERTEX
  5
2121
  8
241
  6
CONTINUOUS
 10
-12.087199999999999
 20
-75.0
 30
0.0
 70
    32
  0
VERTEX
  5
2122
  8
241
  6
CONTINUOUS
 10
-12.075900000000001
 20
-75.0
 30
0.0
 70
    32
  0
VERTEX
  5
2123
  8
241
  6
CONTINUOUS
 10
-12.0647
 20
-75.0
 30
0.0
 70
    32
  0
VERTEX
  5
2124
  8
241
  6
CONTINUOUS
 10
-12.0534
 20
-75.0
 30
0.0
 70
    32
  0
VERTEX
  5
2125
  8
241
  6
CONTINUOUS
 10
-12.042199999999999
 20
-75.0
 30
0.0
 70
    32
  0
VERTEX
  5
2126
  8
241
  6
CONTINUOUS
 10
-12.030900000000001
 20
-75.0
 30
0.0
 70
    32
  0
VERTEX
  5
2127
  8
241
  6
CONTINUOUS
 10
-12.0197
 20
-75.0
 30
0.0
 70
    32
  0
VERTEX
  5
2128
  8
241
  6
CONTINUOUS
 10
-12.0084
 20
-75.0
 30
0.0
 70
    32
  0
VERTEX
  5
2129
  8
241
  6
CONTINUOUS
 10
-11.997199999999999
 20
-75.0
 30
0.0
 70
    32
  0
VERTEX
  5
212A
  8
241
  6
CONTINUOUS
 10
-11.986000000000001
 20
-75.0
 30
0.0
 70
    32
  0
VERTEX
  5
212B
  8
241
  6
CONTINUOUS
 10
-11.9748
 20
-75.0
 30
0.0
 70
    32
  0
VERTEX
  5
212C
  8
241
  6
CONTINUOUS
 10
-11.9636
 20
-75.0
 30
0.0
 70
    32
  0
VERTEX
  5
212D
  8
241
  6
CONTINUOUS
 10
-11.952400000000001
 20
-75.0
 30
0.0
 70
    32
  0
VERTEX
  5
212E
  8
241
  6
CONTINUOUS
 10
-11.9412
 20
-75.0
 30
0.0
 70
    32
  0
VERTEX
  5
212F
  8
241
  6
CONTINUOUS
 10
-11.93
 20
-75.0
 30
0.0
 70
    32
  0
VERTEX
  5
2130
  8
241
  6
CONTINUOUS
 10
-11.918900000000001
 20
-75.0
 30
0.0
 70
    32
  0
VERTEX
  5
2131
  8
241
  6
CONTINUOUS
 10
-11.9077
 20
-75.0
 30
0.0
 70
    32
  0
VERTEX
  5
2132
  8
241
  6
CONTINUOUS
 10
-11.8965
 20
-75.0
 30
0.0
 70
    32
  0
VERTEX
  5
2133
  8
241
  6
CONTINUOUS
 10
-11.885400000000001
 20
-75.0
 30
0.0
 70
    32
  0
VERTEX
  5
2134
  8
241
  6
CONTINUOUS
 10
-11.8743
 20
-75.0
 30
0.0
 70
    32
  0
VERTEX
  5
2135
  8
241
  6
CONTINUOUS
 10
-11.863200000000001
 20
-75.0
 30
0.0
 70
    32
  0
VERTEX
  5
2136
  8
241
  6
CONTINUOUS
 10
-11.852
 20
-75.0
 30
0.0
 70
    32
  0
VERTEX
  5
2137
  8
241
  6
CONTINUOUS
 10
-11.840999999999999
 20
-75.0
 30
0.0
 70
    32
  0
VERTEX
  5
2138
  8
241
  6
CONTINUOUS
 10
-11.8299
 20
-75.0
 30
0.0
 70
    32
  0
VERTEX
  5
2139
  8
241
  6
CONTINUOUS
 10
-11.8188
 20
-75.0
 30
0.0
 70
    32
  0
VERTEX
  5
213A
  8
241
  6
CONTINUOUS
 10
-11.807700000000001
 20
-75.0
 30
0.0
 70
    32
  0
VERTEX
  5
213B
  8
241
  6
CONTINUOUS
 10
-11.7967
 20
-75.0
 30
0.0
 70
    32
  0
VERTEX
  5
213C
  8
241
  6
CONTINUOUS
 10
-11.785600000000001
 20
-75.0
 30
0.0
 70
    32
  0
VERTEX
  5
213D
  8
241
  6
CONTINUOUS
 10
-11.7746
 20
-75.0
 30
0.0
 70
    32
  0
VERTEX
  5
213E
  8
241
  6
CONTINUOUS
 10
-11.7636
 20
-75.0
 30
0.0
 70
    32
  0
VERTEX
  5
213F
  8
241
  6
CONTINUOUS
 10
-11.752599999999999
 20
-75.0
 30
0.0
 70
    32
  0
VERTEX
  5
2140
  8
241
  6
CONTINUOUS
 10
-11.7416
 20
-75.0
 30
0.0
 70
    32
  0
VERTEX
  5
2141
  8
241
  6
CONTINUOUS
 10
-11.730600000000001
 20
-75.0
 30
0.0
 70
    32
  0
VERTEX
  5
2142
  8
241
  6
CONTINUOUS
 10
-11.7197
 20
-75.0
 30
0.0
 70
    32
  0
VERTEX
  5
2143
  8
241
  6
CONTINUOUS
 10
-11.7087
 20
-75.0
 30
0.0
 70
    32
  0
VERTEX
  5
2144
  8
241
  6
CONTINUOUS
 10
-11.697800000000001
 20
-75.0
 30
0.0
 70
    32
  0
VERTEX
  5
2145
  8
241
  6
CONTINUOUS
 10
-11.6868
 20
-75.0
 30
0.0
 70
    32
  0
VERTEX
  5
2146
  8
241
  6
CONTINUOUS
 10
-11.6759
 20
-75.0
 30
0.0
 70
    32
  0
VERTEX
  5
2147
  8
241
  6
CONTINUOUS
 10
-11.664999999999999
 20
-75.0
 30
0.0
 70
    32
  0
VERTEX
  5
2148
  8
241
  6
CONTINUOUS
 10
-11.6541
 20
-75.0
 30
0.0
 70
    32
  0
VERTEX
  5
2149
  8
241
  6
CONTINUOUS
 10
-11.6432
 20
-75.0
 30
0.0
 70
    32
  0
VERTEX
  5
214A
  8
241
  6
CONTINUOUS
 10
-11.632300000000001
 20
-75.0
 30
0.0
 70
    32
  0
VERTEX
  5
214B
  8
241
  6
CONTINUOUS
 10
-11.6214
 20
-75.0
 30
0.0
 70
    32
  0
VERTEX
  5
214C
  8
241
  6
CONTINUOUS
 10
-11.6105
 20
-75.0
 30
0.0
 70
    32
  0
VERTEX
  5
214D
  8
241
  6
CONTINUOUS
 10
-11.599600000000001
 20
-75.0
 30
0.0
 70
    32
  0
VERTEX
  5
214E
  8
241
  6
CONTINUOUS
 10
-11.588800000000001
 20
-75.0
 30
0.0
 70
    32
  0
VERTEX
  5
214F
  8
241
  6
CONTINUOUS
 10
-11.5779
 20
-75.0
 30
0.0
 70
    32
  0
VERTEX
  5
2150
  8
241
  6
CONTINUOUS
 10
-11.567
 20
-75.0
 30
0.0
 70
    32
  0
VERTEX
  5
2151
  8
241
  6
CONTINUOUS
 10
-11.5562
 20
-75.0
 30
0.0
 70
    32
  0
VERTEX
  5
2152
  8
241
  6
CONTINUOUS
 10
-11.545400000000001
 20
-75.0
 30
0.0
 70
    32
  0
VERTEX
  5
2153
  8
241
  6
CONTINUOUS
 10
-11.5345
 20
-75.0
 30
0.0
 70
    32
  0
VERTEX
  5
2154
  8
241
  6
CONTINUOUS
 10
-11.5237
 20
-75.0
 30
0.0
 70
    32
  0
VERTEX
  5
2155
  8
241
  6
CONTINUOUS
 10
-11.5129
 20
-75.0
 30
0.0
 70
    32
  0
VERTEX
  5
2156
  8
241
  6
CONTINUOUS
 10
-11.502000000000001
 20
-75.0
 30
0.0
 70
    32
  0
VERTEX
  5
2157
  8
241
  6
CONTINUOUS
 10
-11.491199999999999
 20
-75.0
 30
0.0
 70
    32
  0
VERTEX
  5
2158
  8
241
  6
CONTINUOUS
 10
-11.480399999999999
 20
-75.0
 30
0.0
 70
    32
  0
VERTEX
  5
2159
  8
241
  6
CONTINUOUS
 10
-11.4696
 20
-75.0
 30
0.0
 70
    32
  0
VERTEX
  5
215A
  8
241
  6
CONTINUOUS
 10
-11.4588
 20
-75.0
 30
0.0
 70
    32
  0
VERTEX
  5
215B
  8
241
  6
CONTINUOUS
 10
-11.448
 20
-75.0
 30
0.0
 70
    32
  0
VERTEX
  5
215C
  8
241
  6
CONTINUOUS
 10
-11.437200000000001
 20
-75.0
 30
0.0
 70
    32
  0
VERTEX
  5
215D
  8
241
  6
CONTINUOUS
 10
-11.426399999999999
 20
-75.0
 30
0.0
 70
    32
  0
VERTEX
  5
215E
  8
241
  6
CONTINUOUS
 10
-11.4156
 20
-75.0
 30
0.0
 70
    32
  0
VERTEX
  5
215F
  8
241
  6
CONTINUOUS
 10
-11.4048
 20
-75.0
 30
0.0
 70
    32
  0
VERTEX
  5
2160
  8
241
  6
CONTINUOUS
 10
-11.394
 20
-75.0
 30
0.0
 70
    32
  0
VERTEX
  5
2161
  8
241
  6
CONTINUOUS
 10
-11.3832
 20
-75.0
 30
0.0
 70
    32
  0
VERTEX
  5
2162
  8
241
  6
CONTINUOUS
 10
-11.372400000000001
 20
-75.0
 30
0.0
 70
    32
  0
SEQEND
  5
2163
  8
241
  6
CONTINUOUS
  0
LINE
  5
147B
  8
241
  6
CONTINUOUS
 10
-13.01940277219067
 20
-80.000000670552296
 30
0.0
 11
-12.352650314571839
 21
-78.750000000000071
 31
0.0
  0
LINE
  5
147C
  8
241
  6
CONTINUOUS
 10
-12.352650314571839
 20
-78.750000000000071
 30
0.0
 11
-11.68589785695324
 21
-77.500001192092924
 31
0.0
  0
LINE
  5
147D
  8
241
  6
CONTINUOUS
 10
-11.68589785695324
 20
-77.500001192092924
 30
0.0
 11
-10.03888741135823
 21
-77.500001192092924
 31
0.0
  0
LINE
  5
147E
  8
241
  6
CONTINUOUS
 10
-11.68589785695324
 20
-77.500001192092924
 30
0.0
 11
-12.352650314571839
 21
-76.249998658895791
 31
0.0
  0
LINE
  5
147F
  8
241
  6
CONTINUOUS
 10
-12.352650314571839
 20
-76.249998658895791
 30
0.0
 11
-13.01940277219067
 21
-74.999999850988189
 31
0.0
  0
LINE
  5
1480
  8
240
  6
CONTINUOUS
 10
-15.203886926176761
 20
-93.190000057220757
 30
0.0
 11
-29.999998658897869
 21
-93.190000057220757
 31
0.0
  0
LINE
  5
1482
  8
240
  6
CONTINUOUS
 10
-49.999998211874647
 20
-102.7500002086047
 30
0.0
 11
-49.999998211862057
 21
-18.500000834469851
 31
0.0
  0
LINE
  5
1483
  8
241
  6
CONTINUOUS
 10
-48.999998164365302
 20
-17.499998807907168
 30
0.0
 11
-48.999998164365302
 21
-22.97669708728797
 31
0.0
  0
LINE
  5
1484
  8
241
  6
CONTINUOUS
 10
-8.9999970793748911
 20
-19.075580537319141
 30
0.0
 11
-8.9999970793748911
 21
-17.520413398742971
 31
0.0
  0
LINE
  5
1486
  8
241
  6
CONTINUOUS
 10
-41.402366820008169
 20
-19.075580537319141
 30
0.0
 11
-8.9999970793748911
 21
-19.075580537319141
 31
0.0
  0
LINE
  5
1487
  8
241
  6
CONTINUOUS
 10
-29.999998658897869
 20
-52.000001668930352
 30
0.0
 11
-12.878676205875861
 21
-52.000001668930352
 31
0.0
  0
LINE
  5
1488
  8
241
  6
CONTINUOUS
 10
-29.999998658897869
 20
-36.631800830364071
 30
0.0
 11
-15.408878475429891
 21
-36.631800830364071
 31
0.0
  0
LINE
  5
1489
  8
241
  6
CONTINUOUS
 10
-3.9999981224595111
 20
-67.133382867259755
 30
0.0
 11
-17.822989523412829
 21
-69.217354655265851
 31
0.0
  0
LINE
  5
148A
  8
241
  6
CONTINUOUS
 10
-3.999998122460636
 20
-82.534129510269693
 30
0.0
 11
-10.586199479346741
 21
-88.499999269843173
 31
0.0
  0
LINE
  5
148F
  8
241
  6
CONTINUOUS
 10
-25.980432778599251
 20
-29.816069304943149
 30
0.0
 11
-29.43531729281186
 21
-32.71506786346432
 31
0.0
  0
LINE
  5
1490
  8
241
  6
CONTINUOUS
 10
-29.999998658897869
 20
-88.499999269843144
 30
0.0
 11
-5.5557724833511131
 21
-88.499999269843173
 31
0.0
  0
LINE
  5
1493
  8
241
  6
CONTINUOUS
 10
-3.999998122456061
 20
-84.244894459843451
 30
0.0
 11
-9.2114147543928624
 21
-88.499999269843173
 31
0.0
  0
LINE
  5
1494
  8
240
  6
CONTINUOUS
 10
-4.4999991357351341
 20
-88.499999269843173
 30
0.0
 11
-3.999998122461065
 21
-88.000000119215045
 31
0.0
  0
LINE
  5
1495
  8
241
  6
CONTINUOUS
 10
-10.03888741138482
 20
-77.500001192092924
 30
0.0
 11
-11.372392326595881
 21
-74.999999850988189
 31
0.0
  0
LINE
  5
1496
  8
241
  6
CONTINUOUS
 10
-10.03888741138482
 20
-77.500001192092924
 30
0.0
 11
-11.372392326595881
 21
-80.000000670552296
 31
0.0
  0
ARC
  5
1497
  8
241
  6
CONTINUOUS
 10
-36.431791115575933
 20
-28.79524814296072
 30
0.0
 40
5.0000000000000062
 50
82.821770973595548
 51
100.79078806622449
  0
ARC
  5
1498
  8
241
  6
CONTINUOUS
 10
-36.431791115575933
 20
-28.79524814296072
 30
0.0
 40
5.0000000000000471
 50
339.20921193377518
 51
16.28774731795253
  0
LINE
  5
1499
  8
240
  6
CONTINUOUS
 10
-15.203886926176761
 20
-93.190000057220757
 30
0.0
 11
-6.9933731853986814
 21
-90.990000069141203
 31
0.0
  0
LINE
  5
149A
  8
240
  6
CONTINUOUS
 10
-6.9933731853986814
 20
-90.990000069141203
 30
0.0
 11
-5.5557724833511051
 21
-88.499999269843173
 31
0.0
  0
LINE
  5
149B
  8
240
  6
CONTINUOUS
 10
-48.999998164365302
 20
-17.499998807907168
 30
0.0
 11
-49.99999821186303
 21
-18.500000834464871
 31
0.0
  0
LINE
  5
149C
  8
240
  6
CONTINUOUS
 10
-48.999998164365302
 20
-17.499998807907168
 30
0.0
 11
-35.499998211861403
 21
-17.499998807906739
 31
0.0
  0
ARC
  5
149D
  8
241
  6
CONTINUOUS
 10
-48.934905050659019
 20
-43.462884475861941
 30
0.0
 40
23.613927012673781
 50
42.884938552800278
 51
56.224608104019531
  0
CIRCLE
  5
149E
  8
241
  6
CONTINUOUS
 10
-22.99999821186303
 20
-44.50000000000005
 30
0.0
 40
4.0000000000000062
  0
LINE
  5
149F
  8
241
  6
CONTINUOUS
 10
-21.556622609498248
 20
-46.999998986720882
 30
0.0
 11
-20.113247707488188
 21
-44.500001370906887
 31
0.0
  0
LINE
  5
14A0
  8
241
  6
CONTINUOUS
 10
-20.113247707488188
 20
-44.500001370906887
 30
0.0
 11
-21.556622609498248
 21
-41.999996304512088
 31
0.0
  0
LINE
  5
14A1
  8
241
  6
CONTINUOUS
 10
-21.556622609498248
 20
-41.999996304512088
 30
0.0
 11
-24.44337427616323
 21
-41.999996304512088
 31
0.0
  0
LINE
  5
14A2
  8
241
  6
CONTINUOUS
 10
-24.44337427616323
 20
-41.999996304512088
 30
0.0
 11
-25.886749178173311
 21
-44.500001370906887
 31
0.0
  0
LINE
  5
14A3
  8
241
  6
CONTINUOUS
 10
-25.886749178173311
 20
-44.500001370906887
 30
0.0
 11
-24.44337427616323
 21
-46.999998986720882
 31
0.0
  0
LINE
  5
14A4
  8
241
  6
CONTINUOUS
 10
-24.44337427616323
 20
-46.999998986720882
 30
0.0
 11
-21.556622609498248
 21
-46.999998986720882
 31
0.0
  0
POLYLINE
  5
266E
  8
241
  6
CONTINUOUS
 66
     1
 10
0.0
 20
0.0
 30
0.0
 70
     8
  0
VERTEX
  5
266F
  8
241
  6
CONTINUOUS
 10
-11.372400000000001
 20
-80.0
 30
0.0
 70
    32
  0
VERTEX
  5
2670
  8
241
  6
CONTINUOUS
 10
-11.3832
 20
-80.0
 30
0.0
 70
    32
  0
VERTEX
  5
2671
  8
241
  6
CONTINUOUS
 10
-11.394
 20
-80.0
 30
0.0
 70
    32
  0
VERTEX
  5
2672
  8
241
  6
CONTINUOUS
 10
-11.4048
 20
-80.0
 30
0.0
 70
    32
  0
VERTEX
  5
2673
  8
241
  6
CONTINUOUS
 10
-11.4156
 20
-80.0
 30
0.0
 70
    32
  0
VERTEX
  5
2674
  8
241
  6
CONTINUOUS
 10
-11.426399999999999
 20
-80.0
 30
0.0
 70
    32
  0
VERTEX
  5
2675
  8
241
  6
CONTINUOUS
 10
-11.437200000000001
 20
-80.0
 30
0.0
 70
    32
  0
VERTEX
  5
2676
  8
241
  6
CONTINUOUS
 10
-11.448
 20
-80.0
 30
0.0
 70
    32
  0
VERTEX
  5
2677
  8
241
  6
CONTINUOUS
 10
-11.4588
 20
-80.0
 30
0.0
 70
    32
  0
VERTEX
  5
2678
  8
241
  6
CONTINUOUS
 10
-11.4696
 20
-80.0
 30
0.0
 70
    32
  0
VERTEX
  5
2679
  8
241
  6
CONTINUOUS
 10
-11.480399999999999
 20
-80.0
 30
0.0
 70
    32
  0
VERTEX
  5
267A
  8
241
  6
CONTINUOUS
 10
-11.491199999999999
 20
-80.0
 30
0.0
 70
    32
  0
VERTEX
  5
267B
  8
241
  6
CONTINUOUS
 10
-11.502000000000001
 20
-80.0
 30
0.0
 70
    32
  0
VERTEX
  5
267C
  8
241
  6
CONTINUOUS
 10
-11.5129
 20
-80.0
 30
0.0
 70
    32
  0
VERTEX
  5
267D
  8
241
  6
CONTINUOUS
 10
-11.5237
 20
-80.0
 30
0.0
 70
    32
  0
VERTEX
  5
267E
  8
241
  6
CONTINUOUS
 10
-11.5345
 20
-80.0
 30
0.0
 70
    32
  0
VERTEX
  5
267F
  8
241
  6
CONTINUOUS
 10
-11.545400000000001
 20
-80.0
 30
0.0
 70
    32
  0
VERTEX
  5
2680
  8
241
  6
CONTINUOUS
 10
-11.5562
 20
-80.0
 30
0.0
 70
    32
  0
VERTEX
  5
2681
  8
241
  6
CONTINUOUS
 10
-11.567
 20
-80.0
 30
0.0
 70
    32
  0
VERTEX
  5
2682
  8
241
  6
CONTINUOUS
 10
-11.5779
 20
-80.0
 30
0.0
 70
    32
  0
VERTEX
  5
2683
  8
241
  6
CONTINUOUS
 10
-11.588800000000001
 20
-80.0
 30
0.0
 70
    32
  0
VERTEX
  5
2684
  8
241
  6
CONTINUOUS
 10
-11.599600000000001
 20
-80.0
 30
0.0
 70
    32
  0
VERTEX
  5
2685
  8
241
  6
CONTINUOUS
 10
-11.6105
 20
-80.0
 30
0.0
 70
    32
  0
VERTEX
  5
2686
  8
241
  6
CONTINUOUS
 10
-11.6214
 20
-80.0
 30
0.0
 70
    32
  0
VERTEX
  5
2687
  8
241
  6
CONTINUOUS
 10
-11.632300000000001
 20
-80.0
 30
0.0
 70
    32
  0
VERTEX
  5
2688
  8
241
  6
CONTINUOUS
 10
-11.6432
 20
-80.0
 30
0.0
 70
    32
  0
VERTEX
  5
2689
  8
241
  6
CONTINUOUS
 10
-11.6541
 20
-80.0
 30
0.0
 70
    32
  0
VERTEX
  5
268A
  8
241
  6
CONTINUOUS
 10
-11.664999999999999
 20
-80.0
 30
0.0
 70
    32
  0
VERTEX
  5
268B
  8
241
  6
CONTINUOUS
 10
-11.6759
 20
-80.0
 30
0.0
 70
    32
  0
VERTEX
  5
268C
  8
241
  6
CONTINUOUS
 10
-11.6868
 20
-80.0
 30
0.0
 70
    32
  0
VERTEX
  5
268D
  8
241
  6
CONTINUOUS
 10
-11.697800000000001
 20
-80.0
 30
0.0
 70
    32
  0
VERTEX
  5
268E
  8
241
  6
CONTINUOUS
 10
-11.7087
 20
-80.0
 30
0.0
 70
    32
  0
VERTEX
  5
268F
  8
241
  6
CONTINUOUS
 10
-11.7197
 20
-80.0
 30
0.0
 70
    32
  0
VERTEX
  5
2690
  8
241
  6
CONTINUOUS
 10
-11.730600000000001
 20
-80.0
 30
0.0
 70
    32
  0
VERTEX
  5
2691
  8
241
  6
CONTINUOUS
 10
-11.7416
 20
-80.0
 30
0.0
 70
    32
  0
VERTEX
  5
2692
  8
241
  6
CONTINUOUS
 10
-11.752599999999999
 20
-80.0
 30
0.0
 70
    32
  0
VERTEX
  5
2693
  8
241
  6
CONTINUOUS
 10
-11.7636
 20
-80.0
 30
0.0
 70
    32
  0
VERTEX
  5
2694
  8
241
  6
CONTINUOUS
 10
-11.7746
 20
-80.0
 30
0.0
 70
    32
  0
VERTEX
  5
2695
  8
241
  6
CONTINUOUS
 10
-11.785600000000001
 20
-80.0
 30
0.0
 70
    32
  0
VERTEX
  5
2696
  8
241
  6
CONTINUOUS
 10
-11.7967
 20
-80.0
 30
0.0
 70
    32
  0
VERTEX
  5
2697
  8
241
  6
CONTINUOUS
 10
-11.807700000000001
 20
-80.0
 30
0.0
 70
    32
  0
VERTEX
  5
2698
  8
241
  6
CONTINUOUS
 10
-11.8188
 20
-80.0
 30
0.0
 70
    32
  0
VERTEX
  5
2699
  8
241
  6
CONTINUOUS
 10
-11.8299
 20
-80.0
 30
0.0
 70
    32
  0
VERTEX
  5
269A
  8
241
  6
CONTINUOUS
 10
-11.840999999999999
 20
-80.0
 30
0.0
 70
    32
  0
VERTEX
  5
269B
  8
241
  6
CONTINUOUS
 10
-11.852
 20
-80.0
 30
0.0
 70
    32
  0
VERTEX
  5
269C
  8
241
  6
CONTINUOUS
 10
-11.863200000000001
 20
-80.0
 30
0.0
 70
    32
  0
VERTEX
  5
269D
  8
241
  6
CONTINUOUS
 10
-11.8743
 20
-80.0
 30
0.0
 70
    32
  0
VERTEX
  5
269E
  8
241
  6
CONTINUOUS
 10
-11.885400000000001
 20
-80.0
 30
0.0
 70
    32
  0
VERTEX
  5
269F
  8
241
  6
CONTINUOUS
 10
-11.8965
 20
-80.0
 30
0.0
 70
    32
  0
VERTEX
  5
26A0
  8
241
  6
CONTINUOUS
 10
-11.9077
 20
-80.0
 30
0.0
 70
    32
  0
VERTEX
  5
26A1
  8
241
  6
CONTINUOUS
 10
-11.918900000000001
 20
-80.0
 30
0.0
 70
    32
  0
VERTEX
  5
26A2
  8
241
  6
CONTINUOUS
 10
-11.93
 20
-80.0
 30
0.0
 70
    32
  0
VERTEX
  5
26A3
  8
241
  6
CONTINUOUS
 10
-11.9412
 20
-80.0
 30
0.0
 70
    32
  0
VERTEX
  5
26A4
  8
241
  6
CONTINUOUS
 10
-11.952400000000001
 20
-80.0
 30
0.0
 70
    32
  0
VERTEX
  5
26A5
  8
241
  6
CONTINUOUS
 10
-11.9636
 20
-80.0
 30
0.0
 70
    32
  0
VERTEX
  5
26A6
  8
241
  6
CONTINUOUS
 10
-11.9748
 20
-80.0
 30
0.0
 70
    32
  0
VERTEX
  5
26A7
  8
241
  6
CONTINUOUS
 10
-11.986000000000001
 20
-80.0
 30
0.0
 70
    32
  0
VERTEX
  5
26A8
  8
241
  6
CONTINUOUS
 10
-11.997199999999999
 20
-80.0
 30
0.0
 70
    32
  0
VERTEX
  5
26A9
  8
241
  6
CONTINUOUS
 10
-12.0084
 20
-80.0
 30
0.0
 70
    32
  0
VERTEX
  5
26AA
  8
241
  6
CONTINUOUS
 10
-12.0197
 20
-80.0
 30
0.0
 70
    32
  0
VERTEX
  5
26AB
  8
241
  6
CONTINUOUS
 10
-12.030900000000001
 20
-80.0
 30
0.0
 70
    32
  0
VERTEX
  5
26AC
  8
241
  6
CONTINUOUS
 10
-12.042199999999999
 20
-80.0
 30
0.0
 70
    32
  0
VERTEX
  5
26AD
  8
241
  6
CONTINUOUS
 10
-12.0534
 20
-80.0
 30
0.0
 70
    32
  0
VERTEX
  5
26AE
  8
241
  6
CONTINUOUS
 10
-12.0647
 20
-80.0
 30
0.0
 70
    32
  0
VERTEX
  5
26AF
  8
241
  6
CONTINUOUS
 10
-12.075900000000001
 20
-80.0
 30
0.0
 70
    32
  0
VERTEX
  5
26B0
  8
241
  6
CONTINUOUS
 10
-12.087199999999999
 20
-80.0
 30
0.0
 70
    32
  0
VERTEX
  5
26B1
  8
241
  6
CONTINUOUS
 10
-12.0985
 20
-80.0
 30
0.0
 70
    32
  0
VERTEX
  5
26B2
  8
241
  6
CONTINUOUS
 10
-12.1098
 20
-80.0
 30
0.0
 70
    32
  0
VERTEX
  5
26B3
  8
241
  6
CONTINUOUS
 10
-12.1211
 20
-80.0
 30
0.0
 70
    32
  0
VERTEX
  5
26B4
  8
241
  6
CONTINUOUS
 10
-12.132400000000001
 20
-80.0
 30
0.0
 70
    32
  0
VERTEX
  5
26B5
  8
241
  6
CONTINUOUS
 10
-12.143700000000001
 20
-80.0
 30
0.0
 70
    32
  0
VERTEX
  5
26B6
  8
241
  6
CONTINUOUS
 10
-12.154999999999999
 20
-80.0
 30
0.0
 70
    32
  0
VERTEX
  5
26B7
  8
241
  6
CONTINUOUS
 10
-12.1663
 20
-80.0
 30
0.0
 70
    32
  0
VERTEX
  5
26B8
  8
241
  6
CONTINUOUS
 10
-12.1776
 20
-80.0
 30
0.0
 70
    32
  0
VERTEX
  5
26B9
  8
241
  6
CONTINUOUS
 10
-12.1889
 20
-80.0
 30
0.0
 70
    32
  0
VERTEX
  5
26BA
  8
241
  6
CONTINUOUS
 10
-12.200200000000001
 20
-80.0
 30
0.0
 70
    32
  0
VERTEX
  5
26BB
  8
241
  6
CONTINUOUS
 10
-12.211499999999999
 20
-80.0
 30
0.0
 70
    32
  0
VERTEX
  5
26BC
  8
241
  6
CONTINUOUS
 10
-12.222799999999999
 20
-80.0
 30
0.0
 70
    32
  0
VERTEX
  5
26BD
  8
241
  6
CONTINUOUS
 10
-12.2342
 20
-80.0
 30
0.0
 70
    32
  0
VERTEX
  5
26BE
  8
241
  6
CONTINUOUS
 10
-12.2455
 20
-80.0
 30
0.0
 70
    32
  0
VERTEX
  5
26BF
  8
241
  6
CONTINUOUS
 10
-12.2568
 20
-80.0
 30
0.0
 70
    32
  0
VERTEX
  5
26C0
  8
241
  6
CONTINUOUS
 10
-12.2682
 20
-80.0
 30
0.0
 70
    32
  0
VERTEX
  5
26C1
  8
241
  6
CONTINUOUS
 10
-12.279500000000001
 20
-80.0
 30
0.0
 70
    32
  0
VERTEX
  5
26C2
  8
241
  6
CONTINUOUS
 10
-12.290800000000001
 20
-80.0
 30
0.0
 70
    32
  0
VERTEX
  5
26C3
  8
241
  6
CONTINUOUS
 10
-12.302099999999999
 20
-80.0
 30
0.0
 70
    32
  0
VERTEX
  5
26C4
  8
241
  6
CONTINUOUS
 10
-12.313499999999999
 20
-80.0
 30
0.0
 70
    32
  0
VERTEX
  5
26C5
  8
241
  6
CONTINUOUS
 10
-12.3248
 20
-80.0
 30
0.0
 70
    32
  0
VERTEX
  5
26C6
  8
241
  6
CONTINUOUS
 10
-12.3361
 20
-80.0
 30
0.0
 70
    32
  0
VERTEX
  5
26C7
  8
241
  6
CONTINUOUS
 10
-12.3475
 20
-80.0
 30
0.0
 70
    32
  0
VERTEX
  5
26C8
  8
241
  6
CONTINUOUS
 10
-12.3588
 20
-80.0
 30
0.0
 70
    32
  0
VERTEX
  5
26C9
  8
241
  6
CONTINUOUS
 10
-12.370100000000001
 20
-80.0
 30
0.0
 70
    32
  0
VERTEX
  5
26CA
  8
241
  6
CONTINUOUS
 10
-12.381500000000001
 20
-80.0
 30
0.0
 70
    32
  0
VERTEX
  5
26CB
  8
241
  6
CONTINUOUS
 10
-12.392799999999999
 20
-80.0
 30
0.0
 70
    32
  0
VERTEX
  5
26CC
  8
241
  6
CONTINUOUS
 10
-12.4041
 20
-80.0
 30
0.0
 70
    32
  0
VERTEX
  5
26CD
  8
241
  6
CONTINUOUS
 10
-12.4155
 20
-80.0
 30
0.0
 70
    32
  0
VERTEX
  5
26CE
  8
241
  6
CONTINUOUS
 10
-12.4268
 20
-80.0
 30
0.0
 70
    32
  0
VERTEX
  5
26CF
  8
241
  6
CONTINUOUS
 10
-12.4381
 20
-80.0
 30
0.0
 70
    32
  0
VERTEX
  5
26D0
  8
241
  6
CONTINUOUS
 10
-12.449400000000001
 20
-80.0
 30
0.0
 70
    32
  0
VERTEX
  5
26D1
  8
241
  6
CONTINUOUS
 10
-12.460699999999999
 20
-80.0
 30
0.0
 70
    32
  0
VERTEX
  5
26D2
  8
241
  6
CONTINUOUS
 10
-12.472
 20
-80.0
 30
0.0
 70
    32
  0
VERTEX
  5
26D3
  8
241
  6
CONTINUOUS
 10
-12.4834
 20
-80.0
 30
0.0
 70
    32
  0
VERTEX
  5
26D4
  8
241
  6
CONTINUOUS
 10
-12.4947
 20
-80.0
 30
0.0
 70
    32
  0
VERTEX
  5
26D5
  8
241
  6
CONTINUOUS
 10
-12.506
 20
-80.0
 30
0.0
 70
    32
  0
VERTEX
  5
26D6
  8
241
  6
CONTINUOUS
 10
-12.517300000000001
 20
-80.0
 30
0.0
 70
    32
  0
VERTEX
  5
26D7
  8
241
  6
CONTINUOUS
 10
-12.528600000000001
 20
-80.0
 30
0.0
 70
    32
  0
VERTEX
  5
26D8
  8
241
  6
CONTINUOUS
 10
-12.5398
 20
-80.0
 30
0.0
 70
    32
  0
VERTEX
  5
26D9
  8
241
  6
CONTINUOUS
 10
-12.5511
 20
-80.0
 30
0.0
 70
    32
  0
VERTEX
  5
26DA
  8
241
  6
CONTINUOUS
 10
-12.5624
 20
-80.0
 30
0.0
 70
    32
  0
VERTEX
  5
26DB
  8
241
  6
CONTINUOUS
 10
-12.573700000000001
 20
-80.0
 30
0.0
 70
    32
  0
VERTEX
  5
26DC
  8
241
  6
CONTINUOUS
 10
-12.584899999999999
 20
-80.0
 30
0.0
 70
    32
  0
VERTEX
  5
26DD
  8
241
  6
CONTINUOUS
 10
-12.5962
 20
-80.0
 30
0.0
 70
    32
  0
VERTEX
  5
26DE
  8
241
  6
CONTINUOUS
 10
-12.6074
 20
-80.0
 30
0.0
 70
    32
  0
VERTEX
  5
26DF
  8
241
  6
CONTINUOUS
 10
-12.618600000000001
 20
-80.0
 30
0.0
 70
    32
  0
VERTEX
  5
26E0
  8
241
  6
CONTINUOUS
 10
-12.629799999999999
 20
-80.0
 30
0.0
 70
    32
  0
VERTEX
  5
26E1
  8
241
  6
CONTINUOUS
 10
-12.641
 20
-80.0
 30
0.0
 70
    32
  0
VERTEX
  5
26E2
  8
241
  6
CONTINUOUS
 10
-12.652200000000001
 20
-80.0
 30
0.0
 70
    32
  0
VERTEX
  5
26E3
  8
241
  6
CONTINUOUS
 10
-12.663399999999999
 20
-80.0
 30
0.0
 70
    32
  0
VERTEX
  5
26E4
  8
241
  6
CONTINUOUS
 10
-12.6746
 20
-80.0
 30
0.0
 70
    32
  0
VERTEX
  5
26E5
  8
241
  6
CONTINUOUS
 10
-12.685700000000001
 20
-80.0
 30
0.0
 70
    32
  0
VERTEX
  5
26E6
  8
241
  6
CONTINUOUS
 10
-12.6968
 20
-80.0
 30
0.0
 70
    32
  0
VERTEX
  5
26E7
  8
241
  6
CONTINUOUS
 10
-12.7079
 20
-80.0
 30
0.0
 70
    32
  0
VERTEX
  5
26E8
  8
241
  6
CONTINUOUS
 10
-12.718999999999999
 20
-80.0
 30
0.0
 70
    32
  0
VERTEX
  5
26E9
  8
241
  6
CONTINUOUS
 10
-12.7301
 20
-80.0
 30
0.0
 70
    32
  0
VERTEX
  5
26EA
  8
241
  6
CONTINUOUS
 10
-12.741199999999999
 20
-80.0
 30
0.0
 70
    32
  0
VERTEX
  5
26EB
  8
241
  6
CONTINUOUS
 10
-12.7522
 20
-80.0
 30
0.0
 70
    32
  0
VERTEX
  5
26EC
  8
241
  6
CONTINUOUS
 10
-12.763199999999999
 20
-80.0
 30
0.0
 70
    32
  0
VERTEX
  5
26ED
  8
241
  6
CONTINUOUS
 10
-12.7742
 20
-80.0
 30
0.0
 70
    32
  0
VERTEX
  5
26EE
  8
241
  6
CONTINUOUS
 10
-12.7852
 20
-80.0
 30
0.0
 70
    32
  0
VERTEX
  5
26EF
  8
241
  6
CONTINUOUS
 10
-12.796099999999999
 20
-80.0
 30
0.0
 70
    32
  0
VERTEX
  5
26F0
  8
241
  6
CONTINUOUS
 10
-12.807
 20
-80.0
 30
0.0
 70
    32
  0
VERTEX
  5
26F1
  8
241
  6
CONTINUOUS
 10
-12.8179
 20
-80.0
 30
0.0
 70
    32
  0
VERTEX
  5
26F2
  8
241
  6
CONTINUOUS
 10
-12.828799999999999
 20
-80.0
 30
0.0
 70
    32
  0
VERTEX
  5
26F3
  8
241
  6
CONTINUOUS
 10
-12.839700000000001
 20
-80.0
 30
0.0
 70
    32
  0
VERTEX
  5
26F4
  8
241
  6
CONTINUOUS
 10
-12.8505
 20
-80.0
 30
0.0
 70
    32
  0
VERTEX
  5
26F5
  8
241
  6
CONTINUOUS
 10
-12.8613
 20
-80.0
 30
0.0
 70
    32
  0
VERTEX
  5
26F6
  8
241
  6
CONTINUOUS
 10
-12.872
 20
-80.0
 30
0.0
 70
    32
  0
VERTEX
  5
26F7
  8
241
  6
CONTINUOUS
 10
-12.8828
 20
-80.0
 30
0.0
 70
    32
  0
VERTEX
  5
26F8
  8
241
  6
CONTINUOUS
 10
-12.8935
 20
-80.0
 30
0.0
 70
    32
  0
VERTEX
  5
26F9
  8
241
  6
CONTINUOUS
 10
-12.9041
 20
-80.0
 30
0.0
 70
    32
  0
VERTEX
  5
26FA
  8
241
  6
CONTINUOUS
 10
-12.9148
 20
-80.0
 30
0.0
 70
    32
  0
VERTEX
  5
26FB
  8
241
  6
CONTINUOUS
 10
-12.9254
 20
-80.0
 30
0.0
 70
    32
  0
VERTEX
  5
26FC
  8
241
  6
CONTINUOUS
 10
-12.9359
 20
-80.0
 30
0.0
 70
    32
  0
VERTEX
  5
26FD
  8
241
  6
CONTINUOUS
 10
-12.9465
 20
-80.0
 30
0.0
 70
    32
  0
VERTEX
  5
26FE
  8
241
  6
CONTINUOUS
 10
-12.957000000000001
 20
-80.0
 30
0.0
 70
    32
  0
VERTEX
  5
26FF
  8
241
  6
CONTINUOUS
 10
-12.9674
 20
-80.0
 30
0.0
 70
    32
  0
VERTEX
  5
2700
  8
241
  6
CONTINUOUS
 10
-12.9779
 20
-80.0
 30
0.0
 70
    32
  0
VERTEX
  5
2701
  8
241
  6
CONTINUOUS
 10
-12.988300000000001
 20
-80.0
 30
0.0
 70
    32
  0
VERTEX
  5
2702
  8
241
  6
CONTINUOUS
 10
-12.9986
 20
-80.0
 30
0.0
 70
    32
  0
VERTEX
  5
2703
  8
241
  6
CONTINUOUS
 10
-13.008900000000001
 20
-80.0
 30
0.0
 70
    32
  0
VERTEX
  5
2704
  8
241
  6
CONTINUOUS
 10
-13.0192
 20
-80.0
 30
0.0
 70
    32
  0
VERTEX
  5
2705
  8
241
  6
CONTINUOUS
 10
-13.029500000000001
 20
-80.0
 30
0.0
 70
    32
  0
VERTEX
  5
2706
  8
241
  6
CONTINUOUS
 10
-13.0397
 20
-80.0
 30
0.0
 70
    32
  0
VERTEX
  5
2707
  8
241
  6
CONTINUOUS
 10
-13.049799999999999
 20
-80.0
 30
0.0
 70
    32
  0
VERTEX
  5
2708
  8
241
  6
CONTINUOUS
 10
-13.059900000000001
 20
-80.0
 30
0.0
 70
    32
  0
VERTEX
  5
2709
  8
241
  6
CONTINUOUS
 10
-13.07
 20
-80.0
 30
0.0
 70
    32
  0
VERTEX
  5
270A
  8
241
  6
CONTINUOUS
 10
-13.0801
 20
-80.0
 30
0.0
 70
    32
  0
VERTEX
  5
270B
  8
241
  6
CONTINUOUS
 10
-13.0901
 20
-80.0
 30
0.0
 70
    32
  0
VERTEX
  5
270C
  8
241
  6
CONTINUOUS
 10
-13.1
 20
-80.0
 30
0.0
 70
    32
  0
VERTEX
  5
270D
  8
241
  6
CONTINUOUS
 10
-13.1099
 20
-80.0
 30
0.0
 70
    32
  0
VERTEX
  5
270E
  8
241
  6
CONTINUOUS
 10
-13.1198
 20
-80.0
 30
0.0
 70
    32
  0
VERTEX
  5
270F
  8
241
  6
CONTINUOUS
 10
-13.1296
 20
-80.0
 30
0.0
 70
    32
  0
VERTEX
  5
2710
  8
241
  6
CONTINUOUS
 10
-13.1394
 20
-80.0
 30
0.0
 70
    32
  0
VERTEX
  5
2711
  8
241
  6
CONTINUOUS
 10
-13.1492
 20
-80.0
 30
0.0
 70
    32
  0
VERTEX
  5
2712
  8
241
  6
CONTINUOUS
 10
-13.158899999999999
 20
-80.0
 30
0.0
 70
    32
  0
VERTEX
  5
2713
  8
241
  6
CONTINUOUS
 10
-13.1686
 20
-80.0
 30
0.0
 70
    32
  0
VERTEX
  5
2714
  8
241
  6
CONTINUOUS
 10
-13.1782
 20
-80.0
 30
0.0
 70
    32
  0
VERTEX
  5
2715
  8
241
  6
CONTINUOUS
 10
-13.187799999999999
 20
-80.0
 30
0.0
 70
    32
  0
VERTEX
  5
2716
  8
241
  6
CONTINUOUS
 10
-13.1973
 20
-80.0
 30
0.0
 70
    32
  0
VERTEX
  5
2717
  8
241
  6
CONTINUOUS
 10
-13.206799999999999
 20
-80.0
 30
0.0
 70
    32
  0
VERTEX
  5
2718
  8
241
  6
CONTINUOUS
 10
-13.2163
 20
-80.0
 30
0.0
 70
    32
  0
VERTEX
  5
2719
  8
241
  6
CONTINUOUS
 10
-13.2257
 20
-80.0
 30
0.0
 70
    32
  0
VERTEX
  5
271A
  8
241
  6
CONTINUOUS
 10
-13.234999999999999
 20
-80.0
 30
0.0
 70
    32
  0
VERTEX
  5
271B
  8
241
  6
CONTINUOUS
 10
-13.244400000000001
 20
-80.0
 30
0.0
 70
    32
  0
VERTEX
  5
271C
  8
241
  6
CONTINUOUS
 10
-13.2537
 20
-80.0
 30
0.0
 70
    32
  0
VERTEX
  5
271D
  8
241
  6
CONTINUOUS
 10
-13.2629
 20
-80.0
 30
0.0
 70
    32
  0
VERTEX
  5
271E
  8
241
  6
CONTINUOUS
 10
-13.2721
 20
-80.0
 30
0.0
 70
    32
  0
VERTEX
  5
271F
  8
241
  6
CONTINUOUS
 10
-13.2812
 20
-80.0
 30
0.0
 70
    32
  0
VERTEX
  5
2720
  8
241
  6
CONTINUOUS
 10
-13.2903
 20
-80.0
 30
0.0
 70
    32
  0
VERTEX
  5
2721
  8
241
  6
CONTINUOUS
 10
-13.2994
 20
-80.0
 30
0.0
 70
    32
  0
VERTEX
  5
2722
  8
241
  6
CONTINUOUS
 10
-13.308400000000001
 20
-80.0
 30
0.0
 70
    32
  0
VERTEX
  5
2723
  8
241
  6
CONTINUOUS
 10
-13.317399999999999
 20
-80.0
 30
0.0
 70
    32
  0
VERTEX
  5
2724
  8
241
  6
CONTINUOUS
 10
-13.3263
 20
-80.0
 30
0.0
 70
    32
  0
VERTEX
  5
2725
  8
241
  6
CONTINUOUS
 10
-13.3352
 20
-80.0
 30
0.0
 70
    32
  0
VERTEX
  5
2726
  8
241
  6
CONTINUOUS
 10
-13.343999999999999
 20
-80.0
 30
0.0
 70
    32
  0
VERTEX
  5
2727
  8
241
  6
CONTINUOUS
 10
-13.3528
 20
-80.0
 30
0.0
 70
    32
  0
VERTEX
  5
2728
  8
241
  6
CONTINUOUS
 10
-13.361599999999999
 20
-80.0
 30
0.0
 70
    32
  0
VERTEX
  5
2729
  8
241
  6
CONTINUOUS
 10
-13.3703
 20
-80.0
 30
0.0
 70
    32
  0
VERTEX
  5
272A
  8
241
  6
CONTINUOUS
 10
-13.3789
 20
-80.0
 30
0.0
 70
    32
  0
VERTEX
  5
272B
  8
241
  6
CONTINUOUS
 10
-13.387499999999999
 20
-80.0
 30
0.0
 70
    32
  0
VERTEX
  5
272C
  8
241
  6
CONTINUOUS
 10
-13.396100000000001
 20
-80.0
 30
0.0
 70
    32
  0
VERTEX
  5
272D
  8
241
  6
CONTINUOUS
 10
-13.4046
 20
-80.0
 30
0.0
 70
    32
  0
VERTEX
  5
272E
  8
241
  6
CONTINUOUS
 10
-13.413
 20
-80.0
 30
0.0
 70
    32
  0
VERTEX
  5
272F
  8
241
  6
CONTINUOUS
 10
-13.4215
 20
-80.0
 30
0.0
 70
    32
  0
VERTEX
  5
2730
  8
241
  6
CONTINUOUS
 10
-13.4298
 20
-80.0
 30
0.0
 70
    32
  0
VERTEX
  5
2731
  8
241
  6
CONTINUOUS
 10
-13.4382
 20
-80.0
 30
0.0
 70
    32
  0
VERTEX
  5
2732
  8
241
  6
CONTINUOUS
 10
-13.446400000000001
 20
-80.0
 30
0.0
 70
    32
  0
VERTEX
  5
2733
  8
241
  6
CONTINUOUS
 10
-13.454700000000001
 20
-80.0
 30
0.0
 70
    32
  0
VERTEX
  5
2734
  8
241
  6
CONTINUOUS
 10
-13.4628
 20
-80.0
 30
0.0
 70
    32
  0
VERTEX
  5
2735
  8
241
  6
CONTINUOUS
 10
-13.471
 20
-80.0
 30
0.0
 70
    32
  0
VERTEX
  5
2736
  8
241
  6
CONTINUOUS
 10
-13.479100000000001
 20
-80.0
 30
0.0
 70
    32
  0
VERTEX
  5
2737
  8
241
  6
CONTINUOUS
 10
-13.4871
 20
-80.0
 30
0.0
 70
    32
  0
VERTEX
  5
2738
  8
241
  6
CONTINUOUS
 10
-13.495100000000001
 20
-80.0
 30
0.0
 70
    32
  0
VERTEX
  5
2739
  8
241
  6
CONTINUOUS
 10
-13.5031
 20
-80.0
 30
0.0
 70
    32
  0
VERTEX
  5
273A
  8
241
  6
CONTINUOUS
 10
-13.510999999999999
 20
-80.0
 30
0.0
 70
    32
  0
VERTEX
  5
273B
  8
241
  6
CONTINUOUS
 10
-13.518800000000001
 20
-80.0
 30
0.0
 70
    32
  0
VERTEX
  5
273C
  8
241
  6
CONTINUOUS
 10
-13.5266
 20
-80.0
 30
0.0
 70
    32
  0
VERTEX
  5
273D
  8
241
  6
CONTINUOUS
 10
-13.5344
 20
-80.0
 30
0.0
 70
    32
  0
VERTEX
  5
273E
  8
241
  6
CONTINUOUS
 10
-13.5421
 20
-80.0
 30
0.0
 70
    32
  0
VERTEX
  5
273F
  8
241
  6
CONTINUOUS
 10
-13.549799999999999
 20
-80.0
 30
0.0
 70
    32
  0
VERTEX
  5
2740
  8
241
  6
CONTINUOUS
 10
-13.557499999999999
 20
-80.0
 30
0.0
 70
    32
  0
VERTEX
  5
2741
  8
241
  6
CONTINUOUS
 10
-13.565
 20
-80.0
 30
0.0
 70
    32
  0
VERTEX
  5
2742
  8
241
  6
CONTINUOUS
 10
-13.5726
 20
-80.0
 30
0.0
 70
    32
  0
VERTEX
  5
2743
  8
241
  6
CONTINUOUS
 10
-13.5801
 20
-80.0
 30
0.0
 70
    32
  0
VERTEX
  5
2744
  8
241
  6
CONTINUOUS
 10
-13.5876
 20
-80.0
 30
0.0
 70
    32
  0
VERTEX
  5
2745
  8
241
  6
CONTINUOUS
 10
-13.595000000000001
 20
-80.0
 30
0.0
 70
    32
  0
VERTEX
  5
2746
  8
241
  6
CONTINUOUS
 10
-13.602399999999999
 20
-80.0
 30
0.0
 70
    32
  0
VERTEX
  5
2747
  8
241
  6
CONTINUOUS
 10
-13.6097
 20
-80.0
 30
0.0
 70
    32
  0
VERTEX
  5
2748
  8
241
  6
CONTINUOUS
 10
-13.617000000000001
 20
-80.0
 30
0.0
 70
    32
  0
VERTEX
  5
2749
  8
241
  6
CONTINUOUS
 10
-13.6243
 20
-80.0
 30
0.0
 70
    32
  0
VERTEX
  5
274A
  8
241
  6
CONTINUOUS
 10
-13.631500000000001
 20
-80.0
 30
0.0
 70
    32
  0
VERTEX
  5
274B
  8
241
  6
CONTINUOUS
 10
-13.6386
 20
-80.0
 30
0.0
 70
    32
  0
VERTEX
  5
274C
  8
241
  6
CONTINUOUS
 10
-13.645799999999999
 20
-80.0
 30
0.0
 70
    32
  0
VERTEX
  5
274D
  8
241
  6
CONTINUOUS
 10
-13.652900000000001
 20
-80.0
 30
0.0
 70
    32
  0
VERTEX
  5
274E
  8
241
  6
CONTINUOUS
 10
-13.6599
 20
-80.0
 30
0.0
 70
    32
  0
VERTEX
  5
274F
  8
241
  6
CONTINUOUS
 10
-13.6669
 20
-80.0
 30
0.0
 70
    32
  0
VERTEX
  5
2750
  8
241
  6
CONTINUOUS
 10
-13.6739
 20
-80.0
 30
0.0
 70
    32
  0
VERTEX
  5
2751
  8
241
  6
CONTINUOUS
 10
-13.6808
 20
-80.0
 30
0.0
 70
    32
  0
VERTEX
  5
2752
  8
241
  6
CONTINUOUS
 10
-13.6877
 20
-80.0
 30
0.0
 70
    32
  0
VERTEX
  5
2753
  8
241
  6
CONTINUOUS
 10
-13.6945
 20
-80.0
 30
0.0
 70
    32
  0
VERTEX
  5
2754
  8
241
  6
CONTINUOUS
 10
-13.7014
 20
-80.0
 30
0.0
 70
    32
  0
VERTEX
  5
2755
  8
241
  6
CONTINUOUS
 10
-13.7081
 20
-80.0
 30
0.0
 70
    32
  0
VERTEX
  5
2756
  8
241
  6
CONTINUOUS
 10
-13.7149
 20
-80.0
 30
0.0
 70
    32
  0
VERTEX
  5
2757
  8
241
  6
CONTINUOUS
 10
-13.721500000000001
 20
-80.0
 30
0.0
 70
    32
  0
VERTEX
  5
2758
  8
241
  6
CONTINUOUS
 10
-13.728199999999999
 20
-80.0
 30
0.0
 70
    32
  0
VERTEX
  5
2759
  8
241
  6
CONTINUOUS
 10
-13.7348
 20
-80.0
 30
0.0
 70
    32
  0
VERTEX
  5
275A
  8
241
  6
CONTINUOUS
 10
-13.741400000000001
 20
-80.0
 30
0.0
 70
    32
  0
VERTEX
  5
275B
  8
241
  6
CONTINUOUS
 10
-13.7479
 20
-80.0
 30
0.0
 70
    32
  0
VERTEX
  5
275C
  8
241
  6
CONTINUOUS
 10
-13.7544
 20
-80.0
 30
0.0
 70
    32
  0
VERTEX
  5
275D
  8
241
  6
CONTINUOUS
 10
-13.760899999999999
 20
-80.0
 30
0.0
 70
    32
  0
VERTEX
  5
275E
  8
241
  6
CONTINUOUS
 10
-13.767300000000001
 20
-80.0
 30
0.0
 70
    32
  0
VERTEX
  5
275F
  8
241
  6
CONTINUOUS
 10
-13.7737
 20
-80.0
 30
0.0
 70
    32
  0
VERTEX
  5
2760
  8
241
  6
CONTINUOUS
 10
-13.780099999999999
 20
-80.0
 30
0.0
 70
    32
  0
VERTEX
  5
2761
  8
241
  6
CONTINUOUS
 10
-13.7864
 20
-80.0
 30
0.0
 70
    32
  0
VERTEX
  5
2762
  8
241
  6
CONTINUOUS
 10
-13.7927
 20
-80.0
 30
0.0
 70
    32
  0
VERTEX
  5
2763
  8
241
  6
CONTINUOUS
 10
-13.7989
 20
-80.0
 30
0.0
 70
    32
  0
VERTEX
  5
2764
  8
241
  6
CONTINUOUS
 10
-13.805099999999999
 20
-80.0
 30
0.0
 70
    32
  0
VERTEX
  5
2765
  8
241
  6
CONTINUOUS
 10
-13.811299999999999
 20
-80.0
 30
0.0
 70
    32
  0
VERTEX
  5
2766
  8
241
  6
CONTINUOUS
 10
-13.817399999999999
 20
-80.0
 30
0.0
 70
    32
  0
VERTEX
  5
2767
  8
241
  6
CONTINUOUS
 10
-13.823499999999999
 20
-80.0
 30
0.0
 70
    32
  0
VERTEX
  5
2768
  8
241
  6
CONTINUOUS
 10
-13.829599999999999
 20
-80.0
 30
0.0
 70
    32
  0
VERTEX
  5
2769
  8
241
  6
CONTINUOUS
 10
-13.835699999999999
 20
-80.0
 30
0.0
 70
    32
  0
VERTEX
  5
276A
  8
241
  6
CONTINUOUS
 10
-13.841699999999999
 20
-80.0
 30
0.0
 70
    32
  0
VERTEX
  5
276B
  8
241
  6
CONTINUOUS
 10
-13.8476
 20
-80.0
 30
0.0
 70
    32
  0
VERTEX
  5
276C
  8
241
  6
CONTINUOUS
 10
-13.8536
 20
-80.0
 30
0.0
 70
    32
  0
VERTEX
  5
276D
  8
241
  6
CONTINUOUS
 10
-13.859500000000001
 20
-80.0
 30
0.0
 70
    32
  0
VERTEX
  5
276E
  8
241
  6
CONTINUOUS
 10
-13.8653
 20
-80.0
 30
0.0
 70
    32
  0
VERTEX
  5
276F
  8
241
  6
CONTINUOUS
 10
-13.8712
 20
-80.0
 30
0.0
 70
    32
  0
VERTEX
  5
2770
  8
241
  6
CONTINUOUS
 10
-13.877000000000001
 20
-80.0
 30
0.0
 70
    32
  0
VERTEX
  5
2771
  8
241
  6
CONTINUOUS
 10
-13.8827
 20
-80.0
 30
0.0
 70
    32
  0
VERTEX
  5
2772
  8
241
  6
CONTINUOUS
 10
-13.888500000000001
 20
-80.0
 30
0.0
 70
    32
  0
VERTEX
  5
2773
  8
241
  6
CONTINUOUS
 10
-13.8942
 20
-80.0
 30
0.0
 70
    32
  0
VERTEX
  5
2774
  8
241
  6
CONTINUOUS
 10
-13.899800000000001
 20
-80.0
 30
0.0
 70
    32
  0
VERTEX
  5
2775
  8
241
  6
CONTINUOUS
 10
-13.9055
 20
-80.0
 30
0.0
 70
    32
  0
VERTEX
  5
2776
  8
241
  6
CONTINUOUS
 10
-13.911099999999999
 20
-80.0
 30
0.0
 70
    32
  0
VERTEX
  5
2777
  8
241
  6
CONTINUOUS
 10
-13.916700000000001
 20
-80.0
 30
0.0
 70
    32
  0
VERTEX
  5
2778
  8
241
  6
CONTINUOUS
 10
-13.9222
 20
-80.0
 30
0.0
 70
    32
  0
VERTEX
  5
2779
  8
241
  6
CONTINUOUS
 10
-13.9277
 20
-80.0
 30
0.0
 70
    32
  0
VERTEX
  5
277A
  8
241
  6
CONTINUOUS
 10
-13.933199999999999
 20
-80.0
 30
0.0
 70
    32
  0
VERTEX
  5
277B
  8
241
  6
CONTINUOUS
 10
-13.938700000000001
 20
-80.0
 30
0.0
 70
    32
  0
VERTEX
  5
277C
  8
241
  6
CONTINUOUS
 10
-13.944100000000001
 20
-80.0
 30
0.0
 70
    32
  0
VERTEX
  5
277D
  8
241
  6
CONTINUOUS
 10
-13.9496
 20
-80.0
 30
0.0
 70
    32
  0
VERTEX
  5
277E
  8
241
  6
CONTINUOUS
 10
-13.9549
 20
-80.0
 30
0.0
 70
    32
  0
VERTEX
  5
277F
  8
241
  6
CONTINUOUS
 10
-13.9603
 20
-80.0
 30
0.0
 70
    32
  0
VERTEX
  5
2780
  8
241
  6
CONTINUOUS
 10
-13.9657
 20
-80.0
 30
0.0
 70
    32
  0
VERTEX
  5
2781
  8
241
  6
CONTINUOUS
 10
-13.971
 20
-80.0
 30
0.0
 70
    32
  0
VERTEX
  5
2782
  8
241
  6
CONTINUOUS
 10
-13.9763
 20
-80.0
 30
0.0
 70
    32
  0
VERTEX
  5
2783
  8
241
  6
CONTINUOUS
 10
-13.9817
 20
-80.0
 30
0.0
 70
    32
  0
VERTEX
  5
2784
  8
241
  6
CONTINUOUS
 10
-13.987
 20
-80.0
 30
0.0
 70
    32
  0
VERTEX
  5
2785
  8
241
  6
CONTINUOUS
 10
-13.9922
 20
-80.0
 30
0.0
 70
    32
  0
VERTEX
  5
2786
  8
241
  6
CONTINUOUS
 10
-13.9975
 20
-80.0
 30
0.0
 70
    32
  0
VERTEX
  5
2787
  8
241
  6
CONTINUOUS
 10
-14.002800000000001
 20
-80.0
 30
0.0
 70
    32
  0
VERTEX
  5
2788
  8
241
  6
CONTINUOUS
 10
-14.007999999999999
 20
-80.0
 30
0.0
 70
    32
  0
VERTEX
  5
2789
  8
241
  6
CONTINUOUS
 10
-14.013299999999999
 20
-80.0
 30
0.0
 70
    32
  0
VERTEX
  5
278A
  8
241
  6
CONTINUOUS
 10
-14.0185
 20
-80.0
 30
0.0
 70
    32
  0
VERTEX
  5
278B
  8
241
  6
CONTINUOUS
 10
-14.0237
 20
-80.0
 30
0.0
 70
    32
  0
VERTEX
  5
278C
  8
241
  6
CONTINUOUS
 10
-14.029
 20
-80.0
 30
0.0
 70
    32
  0
VERTEX
  5
278D
  8
241
  6
CONTINUOUS
 10
-14.0342
 20
-80.0
 30
0.0
 70
    32
  0
VERTEX
  5
278E
  8
241
  6
CONTINUOUS
 10
-14.16951736196542
 20
-80.0
 30
0.0
 70
    32
  0
SEQEND
  5
278F
  8
241
  6
CONTINUOUS
  0
POLYLINE
  5
2790
  8
241
  6
CONTINUOUS
 66
     1
 10
0.0
 20
0.0
 30
0.0
 70
     8
  0
VERTEX
  5
2791
  8
241
  6
CONTINUOUS
 10
-14.16042516658802
 20
-75.0
 30
0.0
 70
    32
  0
VERTEX
  5
2792
  8
241
  6
CONTINUOUS
 10
-14.0342
 20
-75.0
 30
0.0
 70
    32
  0
VERTEX
  5
2793
  8
241
  6
CONTINUOUS
 10
-14.029
 20
-75.0
 30
0.0
 70
    32
  0
VERTEX
  5
2794
  8
241
  6
CONTINUOUS
 10
-14.0237
 20
-75.0
 30
0.0
 70
    32
  0
VERTEX
  5
2795
  8
241
  6
CONTINUOUS
 10
-14.0185
 20
-75.0
 30
0.0
 70
    32
  0
VERTEX
  5
2796
  8
241
  6
CONTINUOUS
 10
-14.013299999999999
 20
-75.0
 30
0.0
 70
    32
  0
VERTEX
  5
2797
  8
241
  6
CONTINUOUS
 10
-14.007999999999999
 20
-75.0
 30
0.0
 70
    32
  0
VERTEX
  5
2798
  8
241
  6
CONTINUOUS
 10
-14.002800000000001
 20
-75.0
 30
0.0
 70
    32
  0
VERTEX
  5
2799
  8
241
  6
CONTINUOUS
 10
-13.9975
 20
-75.0
 30
0.0
 70
    32
  0
VERTEX
  5
279A
  8
241
  6
CONTINUOUS
 10
-13.9922
 20
-75.0
 30
0.0
 70
    32
  0
VERTEX
  5
279B
  8
241
  6
CONTINUOUS
 10
-13.987
 20
-75.0
 30
0.0
 70
    32
  0
VERTEX
  5
279C
  8
241
  6
CONTINUOUS
 10
-13.9817
 20
-75.0
 30
0.0
 70
    32
  0
VERTEX
  5
279D
  8
241
  6
CONTINUOUS
 10
-13.9763
 20
-75.0
 30
0.0
 70
    32
  0
VERTEX
  5
279E
  8
241
  6
CONTINUOUS
 10
-13.971
 20
-75.0
 30
0.0
 70
    32
  0
VERTEX
  5
279F
  8
241
  6
CONTINUOUS
 10
-13.9657
 20
-75.0
 30
0.0
 70
    32
  0
VERTEX
  5
27A0
  8
241
  6
CONTINUOUS
 10
-13.9603
 20
-75.0
 30
0.0
 70
    32
  0
VERTEX
  5
27A1
  8
241
  6
CONTINUOUS
 10
-13.9549
 20
-75.0
 30
0.0
 70
    32
  0
VERTEX
  5
27A2
  8
241
  6
CONTINUOUS
 10
-13.9496
 20
-75.0
 30
0.0
 70
    32
  0
VERTEX
  5
27A3
  8
241
  6
CONTINUOUS
 10
-13.944100000000001
 20
-75.0
 30
0.0
 70
    32
  0
VERTEX
  5
27A4
  8
241
  6
CONTINUOUS
 10
-13.938700000000001
 20
-75.0
 30
0.0
 70
    32
  0
VERTEX
  5
27A5
  8
241
  6
CONTINUOUS
 10
-13.933199999999999
 20
-75.0
 30
0.0
 70
    32
  0
VERTEX
  5
27A6
  8
241
  6
CONTINUOUS
 10
-13.9277
 20
-75.0
 30
0.0
 70
    32
  0
VERTEX
  5
27A7
  8
241
  6
CONTINUOUS
 10
-13.9222
 20
-75.0
 30
0.0
 70
    32
  0
VERTEX
  5
27A8
  8
241
  6
CONTINUOUS
 10
-13.916700000000001
 20
-75.0
 30
0.0
 70
    32
  0
VERTEX
  5
27A9
  8
241
  6
CONTINUOUS
 10
-13.911099999999999
 20
-75.0
 30
0.0
 70
    32
  0
VERTEX
  5
27AA
  8
241
  6
CONTINUOUS
 10
-13.9055
 20
-75.0
 30
0.0
 70
    32
  0
VERTEX
  5
27AB
  8
241
  6
CONTINUOUS
 10
-13.899800000000001
 20
-75.0
 30
0.0
 70
    32
  0
VERTEX
  5
27AC
  8
241
  6
CONTINUOUS
 10
-13.8942
 20
-75.0
 30
0.0
 70
    32
  0
VERTEX
  5
27AD
  8
241
  6
CONTINUOUS
 10
-13.888500000000001
 20
-75.0
 30
0.0
 70
    32
  0
VERTEX
  5
27AE
  8
241
  6
CONTINUOUS
 10
-13.8827
 20
-75.0
 30
0.0
 70
    32
  0
VERTEX
  5
27AF
  8
241
  6
CONTINUOUS
 10
-13.877000000000001
 20
-75.0
 30
0.0
 70
    32
  0
VERTEX
  5
27B0
  8
241
  6
CONTINUOUS
 10
-13.8712
 20
-75.0
 30
0.0
 70
    32
  0
VERTEX
  5
27B1
  8
241
  6
CONTINUOUS
 10
-13.8653
 20
-75.0
 30
0.0
 70
    32
  0
VERTEX
  5
27B2
  8
241
  6
CONTINUOUS
 10
-13.859500000000001
 20
-75.0
 30
0.0
 70
    32
  0
VERTEX
  5
27B3
  8
241
  6
CONTINUOUS
 10
-13.8536
 20
-75.0
 30
0.0
 70
    32
  0
VERTEX
  5
27B4
  8
241
  6
CONTINUOUS
 10
-13.8476
 20
-75.0
 30
0.0
 70
    32
  0
VERTEX
  5
27B5
  8
241
  6
CONTINUOUS
 10
-13.841699999999999
 20
-75.0
 30
0.0
 70
    32
  0
VERTEX
  5
27B6
  8
241
  6
CONTINUOUS
 10
-13.835699999999999
 20
-75.0
 30
0.0
 70
    32
  0
VERTEX
  5
27B7
  8
241
  6
CONTINUOUS
 10
-13.829599999999999
 20
-75.0
 30
0.0
 70
    32
  0
VERTEX
  5
27B8
  8
241
  6
CONTINUOUS
 10
-13.823499999999999
 20
-75.0
 30
0.0
 70
    32
  0
VERTEX
  5
27B9
  8
241
  6
CONTINUOUS
 10
-13.817399999999999
 20
-75.0
 30
0.0
 70
    32
  0
VERTEX
  5
27BA
  8
241
  6
CONTINUOUS
 10
-13.811299999999999
 20
-75.0
 30
0.0
 70
    32
  0
VERTEX
  5
27BB
  8
241
  6
CONTINUOUS
 10
-13.805099999999999
 20
-75.0
 30
0.0
 70
    32
  0
VERTEX
  5
27BC
  8
241
  6
CONTINUOUS
 10
-13.7989
 20
-75.0
 30
0.0
 70
    32
  0
VERTEX
  5
27BD
  8
241
  6
CONTINUOUS
 10
-13.7927
 20
-75.0
 30
0.0
 70
    32
  0
VERTEX
  5
27BE
  8
241
  6
CONTINUOUS
 10
-13.7864
 20
-75.0
 30
0.0
 70
    32
  0
VERTEX
  5
27BF
  8
241
  6
CONTINUOUS
 10
-13.780099999999999
 20
-75.0
 30
0.0
 70
    32
  0
VERTEX
  5
27C0
  8
241
  6
CONTINUOUS
 10
-13.7737
 20
-75.0
 30
0.0
 70
    32
  0
VERTEX
  5
27C1
  8
241
  6
CONTINUOUS
 10
-13.767300000000001
 20
-75.0
 30
0.0
 70
    32
  0
VERTEX
  5
27C2
  8
241
  6
CONTINUOUS
 10
-13.760899999999999
 20
-75.0
 30
0.0
 70
    32
  0
VERTEX
  5
27C3
  8
241
  6
CONTINUOUS
 10
-13.7544
 20
-75.0
 30
0.0
 70
    32
  0
VERTEX
  5
27C4
  8
241
  6
CONTINUOUS
 10
-13.7479
 20
-75.0
 30
0.0
 70
    32
  0
VERTEX
  5
27C5
  8
241
  6
CONTINUOUS
 10
-13.741400000000001
 20
-75.0
 30
0.0
 70
    32
  0
VERTEX
  5
27C6
  8
241
  6
CONTINUOUS
 10
-13.7348
 20
-75.0
 30
0.0
 70
    32
  0
VERTEX
  5
27C7
  8
241
  6
CONTINUOUS
 10
-13.728199999999999
 20
-75.0
 30
0.0
 70
    32
  0
VERTEX
  5
27C8
  8
241
  6
CONTINUOUS
 10
-13.721500000000001
 20
-75.0
 30
0.0
 70
    32
  0
VERTEX
  5
27C9
  8
241
  6
CONTINUOUS
 10
-13.7149
 20
-75.0
 30
0.0
 70
    32
  0
VERTEX
  5
27CA
  8
241
  6
CONTINUOUS
 10
-13.7081
 20
-75.0
 30
0.0
 70
    32
  0
VERTEX
  5
27CB
  8
241
  6
CONTINUOUS
 10
-13.7014
 20
-75.0
 30
0.0
 70
    32
  0
VERTEX
  5
27CC
  8
241
  6
CONTINUOUS
 10
-13.6945
 20
-75.0
 30
0.0
 70
    32
  0
VERTEX
  5
27CD
  8
241
  6
CONTINUOUS
 10
-13.6877
 20
-75.0
 30
0.0
 70
    32
  0
VERTEX
  5
27CE
  8
241
  6
CONTINUOUS
 10
-13.6808
 20
-75.0
 30
0.0
 70
    32
  0
VERTEX
  5
27CF
  8
241
  6
CONTINUOUS
 10
-13.6739
 20
-75.0
 30
0.0
 70
    32
  0
VERTEX
  5
27D0
  8
241
  6
CONTINUOUS
 10
-13.6669
 20
-75.0
 30
0.0
 70
    32
  0
VERTEX
  5
27D1
  8
241
  6
CONTINUOUS
 10
-13.6599
 20
-75.0
 30
0.0
 70
    32
  0
VERTEX
  5
27D2
  8
241
  6
CONTINUOUS
 10
-13.652900000000001
 20
-75.0
 30
0.0
 70
    32
  0
VERTEX
  5
27D3
  8
241
  6
CONTINUOUS
 10
-13.645799999999999
 20
-75.0
 30
0.0
 70
    32
  0
VERTEX
  5
27D4
  8
241
  6
CONTINUOUS
 10
-13.6386
 20
-75.0
 30
0.0
 70
    32
  0
VERTEX
  5
27D5
  8
241
  6
CONTINUOUS
 10
-13.631500000000001
 20
-75.0
 30
0.0
 70
    32
  0
VERTEX
  5
27D6
  8
241
  6
CONTINUOUS
 10
-13.6243
 20
-75.0
 30
0.0
 70
    32
  0
VERTEX
  5
27D7
  8
241
  6
CONTINUOUS
 10
-13.617000000000001
 20
-75.0
 30
0.0
 70
    32
  0
VERTEX
  5
27D8
  8
241
  6
CONTINUOUS
 10
-13.6097
 20
-75.0
 30
0.0
 70
    32
  0
VERTEX
  5
27D9
  8
241
  6
CONTINUOUS
 10
-13.602399999999999
 20
-75.0
 30
0.0
 70
    32
  0
VERTEX
  5
27DA
  8
241
  6
CONTINUOUS
 10
-13.595000000000001
 20
-75.0
 30
0.0
 70
    32
  0
VERTEX
  5
27DB
  8
241
  6
CONTINUOUS
 10
-13.5876
 20
-75.0
 30
0.0
 70
    32
  0
VERTEX
  5
27DC
  8
241
  6
CONTINUOUS
 10
-13.5801
 20
-75.0
 30
0.0
 70
    32
  0
VERTEX
  5
27DD
  8
241
  6
CONTINUOUS
 10
-13.5726
 20
-75.0
 30
0.0
 70
    32
  0
VERTEX
  5
27DE
  8
241
  6
CONTINUOUS
 10
-13.565
 20
-75.0
 30
0.0
 70
    32
  0
VERTEX
  5
27DF
  8
241
  6
CONTINUOUS
 10
-13.557499999999999
 20
-75.0
 30
0.0
 70
    32
  0
VERTEX
  5
27E0
  8
241
  6
CONTINUOUS
 10
-13.549799999999999
 20
-75.0
 30
0.0
 70
    32
  0
VERTEX
  5
27E1
  8
241
  6
CONTINUOUS
 10
-13.5421
 20
-75.0
 30
0.0
 70
    32
  0
VERTEX
  5
27E2
  8
241
  6
CONTINUOUS
 10
-13.5344
 20
-75.0
 30
0.0
 70
    32
  0
VERTEX
  5
27E3
  8
241
  6
CONTINUOUS
 10
-13.5266
 20
-75.0
 30
0.0
 70
    32
  0
VERTEX
  5
27E4
  8
241
  6
CONTINUOUS
 10
-13.518800000000001
 20
-75.0
 30
0.0
 70
    32
  0
VERTEX
  5
27E5
  8
241
  6
CONTINUOUS
 10
-13.510999999999999
 20
-75.0
 30
0.0
 70
    32
  0
VERTEX
  5
27E6
  8
241
  6
CONTINUOUS
 10
-13.5031
 20
-75.0
 30
0.0
 70
    32
  0
VERTEX
  5
27E7
  8
241
  6
CONTINUOUS
 10
-13.495100000000001
 20
-75.0
 30
0.0
 70
    32
  0
VERTEX
  5
27E8
  8
241
  6
CONTINUOUS
 10
-13.4871
 20
-75.0
 30
0.0
 70
    32
  0
VERTEX
  5
27E9
  8
241
  6
CONTINUOUS
 10
-13.479100000000001
 20
-75.0
 30
0.0
 70
    32
  0
VERTEX
  5
27EA
  8
241
  6
CONTINUOUS
 10
-13.471
 20
-75.0
 30
0.0
 70
    32
  0
VERTEX
  5
27EB
  8
241
  6
CONTINUOUS
 10
-13.4628
 20
-75.0
 30
0.0
 70
    32
  0
VERTEX
  5
27EC
  8
241
  6
CONTINUOUS
 10
-13.454700000000001
 20
-75.0
 30
0.0
 70
    32
  0
VERTEX
  5
27ED
  8
241
  6
CONTINUOUS
 10
-13.446400000000001
 20
-75.0
 30
0.0
 70
    32
  0
VERTEX
  5
27EE
  8
241
  6
CONTINUOUS
 10
-13.4382
 20
-75.0
 30
0.0
 70
    32
  0
VERTEX
  5
27EF
  8
241
  6
CONTINUOUS
 10
-13.4298
 20
-75.0
 30
0.0
 70
    32
  0
VERTEX
  5
27F0
  8
241
  6
CONTINUOUS
 10
-13.4215
 20
-75.0
 30
0.0
 70
    32
  0
VERTEX
  5
27F1
  8
241
  6
CONTINUOUS
 10
-13.413
 20
-75.0
 30
0.0
 70
    32
  0
VERTEX
  5
27F2
  8
241
  6
CONTINUOUS
 10
-13.4046
 20
-75.0
 30
0.0
 70
    32
  0
VERTEX
  5
27F3
  8
241
  6
CONTINUOUS
 10
-13.396100000000001
 20
-75.0
 30
0.0
 70
    32
  0
VERTEX
  5
27F4
  8
241
  6
CONTINUOUS
 10
-13.387499999999999
 20
-75.0
 30
0.0
 70
    32
  0
VERTEX
  5
27F5
  8
241
  6
CONTINUOUS
 10
-13.3789
 20
-75.0
 30
0.0
 70
    32
  0
VERTEX
  5
27F6
  8
241
  6
CONTINUOUS
 10
-13.3703
 20
-75.0
 30
0.0
 70
    32
  0
VERTEX
  5
27F7
  8
241
  6
CONTINUOUS
 10
-13.361599999999999
 20
-75.0
 30
0.0
 70
    32
  0
VERTEX
  5
27F8
  8
241
  6
CONTINUOUS
 10
-13.3528
 20
-75.0
 30
0.0
 70
    32
  0
VERTEX
  5
27F9
  8
241
  6
CONTINUOUS
 10
-13.343999999999999
 20
-75.0
 30
0.0
 70
    32
  0
VERTEX
  5
27FA
  8
241
  6
CONTINUOUS
 10
-13.3352
 20
-75.0
 30
0.0
 70
    32
  0
VERTEX
  5
27FB
  8
241
  6
CONTINUOUS
 10
-13.3263
 20
-75.0
 30
0.0
 70
    32
  0
VERTEX
  5
27FC
  8
241
  6
CONTINUOUS
 10
-13.317399999999999
 20
-75.0
 30
0.0
 70
    32
  0
VERTEX
  5
27FD
  8
241
  6
CONTINUOUS
 10
-13.308400000000001
 20
-75.0
 30
0.0
 70
    32
  0
VERTEX
  5
27FE
  8
241
  6
CONTINUOUS
 10
-13.2994
 20
-75.0
 30
0.0
 70
    32
  0
VERTEX
  5
27FF
  8
241
  6
CONTINUOUS
 10
-13.2903
 20
-75.0
 30
0.0
 70
    32
  0
VERTEX
  5
2800
  8
241
  6
CONTINUOUS
 10
-13.2812
 20
-75.0
 30
0.0
 70
    32
  0
VERTEX
  5
2801
  8
241
  6
CONTINUOUS
 10
-13.2721
 20
-75.0
 30
0.0
 70
    32
  0
VERTEX
  5
2802
  8
241
  6
CONTINUOUS
 10
-13.2629
 20
-75.0
 30
0.0
 70
    32
  0
VERTEX
  5
2803
  8
241
  6
CONTINUOUS
 10
-13.2537
 20
-75.0
 30
0.0
 70
    32
  0
VERTEX
  5
2804
  8
241
  6
CONTINUOUS
 10
-13.244400000000001
 20
-75.0
 30
0.0
 70
    32
  0
VERTEX
  5
2805
  8
241
  6
CONTINUOUS
 10
-13.234999999999999
 20
-75.0
 30
0.0
 70
    32
  0
VERTEX
  5
2806
  8
241
  6
CONTINUOUS
 10
-13.2257
 20
-75.0
 30
0.0
 70
    32
  0
VERTEX
  5
2807
  8
241
  6
CONTINUOUS
 10
-13.2163
 20
-75.0
 30
0.0
 70
    32
  0
VERTEX
  5
2808
  8
241
  6
CONTINUOUS
 10
-13.206799999999999
 20
-75.0
 30
0.0
 70
    32
  0
VERTEX
  5
2809
  8
241
  6
CONTINUOUS
 10
-13.1973
 20
-75.0
 30
0.0
 70
    32
  0
VERTEX
  5
280A
  8
241
  6
CONTINUOUS
 10
-13.187799999999999
 20
-75.0
 30
0.0
 70
    32
  0
VERTEX
  5
280B
  8
241
  6
CONTINUOUS
 10
-13.1782
 20
-75.0
 30
0.0
 70
    32
  0
VERTEX
  5
280C
  8
241
  6
CONTINUOUS
 10
-13.1686
 20
-75.0
 30
0.0
 70
    32
  0
VERTEX
  5
280D
  8
241
  6
CONTINUOUS
 10
-13.158899999999999
 20
-75.0
 30
0.0
 70
    32
  0
VERTEX
  5
280E
  8
241
  6
CONTINUOUS
 10
-13.1492
 20
-75.0
 30
0.0
 70
    32
  0
VERTEX
  5
280F
  8
241
  6
CONTINUOUS
 10
-13.1394
 20
-75.0
 30
0.0
 70
    32
  0
VERTEX
  5
2810
  8
241
  6
CONTINUOUS
 10
-13.1296
 20
-75.0
 30
0.0
 70
    32
  0
VERTEX
  5
2811
  8
241
  6
CONTINUOUS
 10
-13.1198
 20
-75.0
 30
0.0
 70
    32
  0
VERTEX
  5
2812
  8
241
  6
CONTINUOUS
 10
-13.1099
 20
-75.0
 30
0.0
 70
    32
  0
VERTEX
  5
2813
  8
241
  6
CONTINUOUS
 10
-13.1
 20
-75.0
 30
0.0
 70
    32
  0
VERTEX
  5
2814
  8
241
  6
CONTINUOUS
 10
-13.0901
 20
-75.0
 30
0.0
 70
    32
  0
VERTEX
  5
2815
  8
241
  6
CONTINUOUS
 10
-13.0801
 20
-75.0
 30
0.0
 70
    32
  0
VERTEX
  5
2816
  8
241
  6
CONTINUOUS
 10
-13.07
 20
-75.0
 30
0.0
 70
    32
  0
VERTEX
  5
2817
  8
241
  6
CONTINUOUS
 10
-13.059900000000001
 20
-75.0
 30
0.0
 70
    32
  0
VERTEX
  5
2818
  8
241
  6
CONTINUOUS
 10
-13.049799999999999
 20
-75.0
 30
0.0
 70
    32
  0
VERTEX
  5
2819
  8
241
  6
CONTINUOUS
 10
-13.0397
 20
-75.0
 30
0.0
 70
    32
  0
VERTEX
  5
281A
  8
241
  6
CONTINUOUS
 10
-13.029500000000001
 20
-75.0
 30
0.0
 70
    32
  0
VERTEX
  5
281B
  8
241
  6
CONTINUOUS
 10
-13.0192
 20
-75.0
 30
0.0
 70
    32
  0
VERTEX
  5
281C
  8
241
  6
CONTINUOUS
 10
-13.008900000000001
 20
-75.0
 30
0.0
 70
    32
  0
VERTEX
  5
281D
  8
241
  6
CONTINUOUS
 10
-12.9986
 20
-75.0
 30
0.0
 70
    32
  0
VERTEX
  5
281E
  8
241
  6
CONTINUOUS
 10
-12.988300000000001
 20
-75.0
 30
0.0
 70
    32
  0
VERTEX
  5
281F
  8
241
  6
CONTINUOUS
 10
-12.9779
 20
-75.0
 30
0.0
 70
    32
  0
VERTEX
  5
2820
  8
241
  6
CONTINUOUS
 10
-12.9674
 20
-75.0
 30
0.0
 70
    32
  0
VERTEX
  5
2821
  8
241
  6
CONTINUOUS
 10
-12.957000000000001
 20
-75.0
 30
0.0
 70
    32
  0
VERTEX
  5
2822
  8
241
  6
CONTINUOUS
 10
-12.9465
 20
-75.0
 30
0.0
 70
    32
  0
VERTEX
  5
2823
  8
241
  6
CONTINUOUS
 10
-12.9359
 20
-75.0
 30
0.0
 70
    32
  0
VERTEX
  5
2824
  8
241
  6
CONTINUOUS
 10
-12.9254
 20
-75.0
 30
0.0
 70
    32
  0
VERTEX
  5
2825
  8
241
  6
CONTINUOUS
 10
-12.9148
 20
-75.0
 30
0.0
 70
    32
  0
VERTEX
  5
2826
  8
241
  6
CONTINUOUS
 10
-12.9041
 20
-75.0
 30
0.0
 70
    32
  0
VERTEX
  5
2827
  8
241
  6
CONTINUOUS
 10
-12.8935
 20
-75.0
 30
0.0
 70
    32
  0
VERTEX
  5
2828
  8
241
  6
CONTINUOUS
 10
-12.8828
 20
-75.0
 30
0.0
 70
    32
  0
VERTEX
  5
2829
  8
241
  6
CONTINUOUS
 10
-12.872
 20
-75.0
 30
0.0
 70
    32
  0
VERTEX
  5
282A
  8
241
  6
CONTINUOUS
 10
-12.8613
 20
-75.0
 30
0.0
 70
    32
  0
VERTEX
  5
282B
  8
241
  6
CONTINUOUS
 10
-12.8505
 20
-75.0
 30
0.0
 70
    32
  0
VERTEX
  5
282C
  8
241
  6
CONTINUOUS
 10
-12.839700000000001
 20
-75.0
 30
0.0
 70
    32
  0
VERTEX
  5
282D
  8
241
  6
CONTINUOUS
 10
-12.828799999999999
 20
-75.0
 30
0.0
 70
    32
  0
VERTEX
  5
282E
  8
241
  6
CONTINUOUS
 10
-12.8179
 20
-75.0
 30
0.0
 70
    32
  0
VERTEX
  5
282F
  8
241
  6
CONTINUOUS
 10
-12.807
 20
-75.0
 30
0.0
 70
    32
  0
VERTEX
  5
2830
  8
241
  6
CONTINUOUS
 10
-12.796099999999999
 20
-75.0
 30
0.0
 70
    32
  0
VERTEX
  5
2831
  8
241
  6
CONTINUOUS
 10
-12.7852
 20
-75.0
 30
0.0
 70
    32
  0
VERTEX
  5
2832
  8
241
  6
CONTINUOUS
 10
-12.7742
 20
-75.0
 30
0.0
 70
    32
  0
VERTEX
  5
2833
  8
241
  6
CONTINUOUS
 10
-12.763199999999999
 20
-75.0
 30
0.0
 70
    32
  0
VERTEX
  5
2834
  8
241
  6
CONTINUOUS
 10
-12.7522
 20
-75.0
 30
0.0
 70
    32
  0
VERTEX
  5
2835
  8
241
  6
CONTINUOUS
 10
-12.741199999999999
 20
-75.0
 30
0.0
 70
    32
  0
VERTEX
  5
2836
  8
241
  6
CONTINUOUS
 10
-12.7301
 20
-75.0
 30
0.0
 70
    32
  0
VERTEX
  5
2837
  8
241
  6
CONTINUOUS
 10
-12.718999999999999
 20
-75.0
 30
0.0
 70
    32
  0
VERTEX
  5
2838
  8
241
  6
CONTINUOUS
 10
-12.7079
 20
-75.0
 30
0.0
 70
    32
  0
VERTEX
  5
2839
  8
241
  6
CONTINUOUS
 10
-12.6968
 20
-75.0
 30
0.0
 70
    32
  0
VERTEX
  5
283A
  8
241
  6
CONTINUOUS
 10
-12.685700000000001
 20
-75.0
 30
0.0
 70
    32
  0
VERTEX
  5
283B
  8
241
  6
CONTINUOUS
 10
-12.6746
 20
-75.0
 30
0.0
 70
    32
  0
VERTEX
  5
283C
  8
241
  6
CONTINUOUS
 10
-12.663399999999999
 20
-75.0
 30
0.0
 70
    32
  0
VERTEX
  5
283D
  8
241
  6
CONTINUOUS
 10
-12.652200000000001
 20
-75.0
 30
0.0
 70
    32
  0
VERTEX
  5
283E
  8
241
  6
CONTINUOUS
 10
-12.641
 20
-75.0
 30
0.0
 70
    32
  0
VERTEX
  5
283F
  8
241
  6
CONTINUOUS
 10
-12.629799999999999
 20
-75.0
 30
0.0
 70
    32
  0
VERTEX
  5
2840
  8
241
  6
CONTINUOUS
 10
-12.618600000000001
 20
-75.0
 30
0.0
 70
    32
  0
VERTEX
  5
2841
  8
241
  6
CONTINUOUS
 10
-12.6074
 20
-75.0
 30
0.0
 70
    32
  0
VERTEX
  5
2842
  8
241
  6
CONTINUOUS
 10
-12.5962
 20
-75.0
 30
0.0
 70
    32
  0
VERTEX
  5
2843
  8
241
  6
CONTINUOUS
 10
-12.584899999999999
 20
-75.0
 30
0.0
 70
    32
  0
VERTEX
  5
2844
  8
241
  6
CONTINUOUS
 10
-12.573700000000001
 20
-75.0
 30
0.0
 70
    32
  0
VERTEX
  5
2845
  8
241
  6
CONTINUOUS
 10
-12.5624
 20
-75.0
 30
0.0
 70
    32
  0
VERTEX
  5
2846
  8
241
  6
CONTINUOUS
 10
-12.5511
 20
-75.0
 30
0.0
 70
    32
  0
VERTEX
  5
2847
  8
241
  6
CONTINUOUS
 10
-12.5398
 20
-75.0
 30
0.0
 70
    32
  0
VERTEX
  5
2848
  8
241
  6
CONTINUOUS
 10
-12.528600000000001
 20
-75.0
 30
0.0
 70
    32
  0
VERTEX
  5
2849
  8
241
  6
CONTINUOUS
 10
-12.517300000000001
 20
-75.0
 30
0.0
 70
    32
  0
VERTEX
  5
284A
  8
241
  6
CONTINUOUS
 10
-12.506
 20
-75.0
 30
0.0
 70
    32
  0
VERTEX
  5
284B
  8
241
  6
CONTINUOUS
 10
-12.4947
 20
-75.0
 30
0.0
 70
    32
  0
VERTEX
  5
284C
  8
241
  6
CONTINUOUS
 10
-12.4834
 20
-75.0
 30
0.0
 70
    32
  0
VERTEX
  5
284D
  8
241
  6
CONTINUOUS
 10
-12.472
 20
-75.0
 30
0.0
 70
    32
  0
VERTEX
  5
284E
  8
241
  6
CONTINUOUS
 10
-12.460699999999999
 20
-75.0
 30
0.0
 70
    32
  0
VERTEX
  5
284F
  8
241
  6
CONTINUOUS
 10
-12.449400000000001
 20
-75.0
 30
0.0
 70
    32
  0
VERTEX
  5
2850
  8
241
  6
CONTINUOUS
 10
-12.4381
 20
-75.0
 30
0.0
 70
    32
  0
VERTEX
  5
2851
  8
241
  6
CONTINUOUS
 10
-12.4268
 20
-75.0
 30
0.0
 70
    32
  0
VERTEX
  5
2852
  8
241
  6
CONTINUOUS
 10
-12.4155
 20
-75.0
 30
0.0
 70
    32
  0
VERTEX
  5
2853
  8
241
  6
CONTINUOUS
 10
-12.4041
 20
-75.0
 30
0.0
 70
    32
  0
VERTEX
  5
2854
  8
241
  6
CONTINUOUS
 10
-12.392799999999999
 20
-75.0
 30
0.0
 70
    32
  0
VERTEX
  5
2855
  8
241
  6
CONTINUOUS
 10
-12.381500000000001
 20
-75.0
 30
0.0
 70
    32
  0
VERTEX
  5
2856
  8
241
  6
CONTINUOUS
 10
-12.370100000000001
 20
-75.0
 30
0.0
 70
    32
  0
VERTEX
  5
2857
  8
241
  6
CONTINUOUS
 10
-12.3588
 20
-75.0
 30
0.0
 70
    32
  0
VERTEX
  5
2858
  8
241
  6
CONTINUOUS
 10
-12.3475
 20
-75.0
 30
0.0
 70
    32
  0
VERTEX
  5
2859
  8
241
  6
CONTINUOUS
 10
-12.3361
 20
-75.0
 30
0.0
 70
    32
  0
VERTEX
  5
285A
  8
241
  6
CONTINUOUS
 10
-12.3248
 20
-75.0
 30
0.0
 70
    32
  0
VERTEX
  5
285B
  8
241
  6
CONTINUOUS
 10
-12.313499999999999
 20
-75.0
 30
0.0
 70
    32
  0
VERTEX
  5
285C
  8
241
  6
CONTINUOUS
 10
-12.302099999999999
 20
-75.0
 30
0.0
 70
    32
  0
VERTEX
  5
285D
  8
241
  6
CONTINUOUS
 10
-12.290800000000001
 20
-75.0
 30
0.0
 70
    32
  0
VERTEX
  5
285E
  8
241
  6
CONTINUOUS
 10
-12.279500000000001
 20
-75.0
 30
0.0
 70
    32
  0
VERTEX
  5
285F
  8
241
  6
CONTINUOUS
 10
-12.2682
 20
-75.0
 30
0.0
 70
    32
  0
VERTEX
  5
2860
  8
241
  6
CONTINUOUS
 10
-12.2568
 20
-75.0
 30
0.0
 70
    32
  0
VERTEX
  5
2861
  8
241
  6
CONTINUOUS
 10
-12.2455
 20
-75.0
 30
0.0
 70
    32
  0
VERTEX
  5
2862
  8
241
  6
CONTINUOUS
 10
-12.2342
 20
-75.0
 30
0.0
 70
    32
  0
VERTEX
  5
2863
  8
241
  6
CONTINUOUS
 10
-12.222799999999999
 20
-75.0
 30
0.0
 70
    32
  0
VERTEX
  5
2864
  8
241
  6
CONTINUOUS
 10
-12.211499999999999
 20
-75.0
 30
0.0
 70
    32
  0
VERTEX
  5
2865
  8
241
  6
CONTINUOUS
 10
-12.200200000000001
 20
-75.0
 30
0.0
 70
    32
  0
VERTEX
  5
2866
  8
241
  6
CONTINUOUS
 10
-12.1889
 20
-75.0
 30
0.0
 70
    32
  0
VERTEX
  5
2867
  8
241
  6
CONTINUOUS
 10
-12.1776
 20
-75.0
 30
0.0
 70
    32
  0
VERTEX
  5
2868
  8
241
  6
CONTINUOUS
 10
-12.1663
 20
-75.0
 30
0.0
 70
    32
  0
VERTEX
  5
2869
  8
241
  6
CONTINUOUS
 10
-12.154999999999999
 20
-75.0
 30
0.0
 70
    32
  0
VERTEX
  5
286A
  8
241
  6
CONTINUOUS
 10
-12.143700000000001
 20
-75.0
 30
0.0
 70
    32
  0
VERTEX
  5
286B
  8
241
  6
CONTINUOUS
 10
-12.132400000000001
 20
-75.0
 30
0.0
 70
    32
  0
VERTEX
  5
286C
  8
241
  6
CONTINUOUS
 10
-12.1211
 20
-75.0
 30
0.0
 70
    32
  0
VERTEX
  5
286D
  8
241
  6
CONTINUOUS
 10
-12.1098
 20
-75.0
 30
0.0
 70
    32
  0
VERTEX
  5
286E
  8
241
  6
CONTINUOUS
 10
-12.0985
 20
-75.0
 30
0.0
 70
    32
  0
VERTEX
  5
286F
  8
241
  6
CONTINUOUS
 10
-12.087199999999999
 20
-75.0
 30
0.0
 70
    32
  0
VERTEX
  5
2870
  8
241
  6
CONTINUOUS
 10
-12.075900000000001
 20
-75.0
 30
0.0
 70
    32
  0
VERTEX
  5
2871
  8
241
  6
CONTINUOUS
 10
-12.0647
 20
-75.0
 30
0.0
 70
    32
  0
VERTEX
  5
2872
  8
241
  6
CONTINUOUS
 10
-12.0534
 20
-75.0
 30
0.0
 70
    32
  0
VERTEX
  5
2873
  8
241
  6
CONTINUOUS
 10
-12.042199999999999
 20
-75.0
 30
0.0
 70
    32
  0
VERTEX
  5
2874
  8
241
  6
CONTINUOUS
 10
-12.030900000000001
 20
-75.0
 30
0.0
 70
    32
  0
VERTEX
  5
2875
  8
241
  6
CONTINUOUS
 10
-12.0197
 20
-75.0
 30
0.0
 70
    32
  0
VERTEX
  5
2876
  8
241
  6
CONTINUOUS
 10
-12.0084
 20
-75.0
 30
0.0
 70
    32
  0
VERTEX
  5
2877
  8
241
  6
CONTINUOUS
 10
-11.997199999999999
 20
-75.0
 30
0.0
 70
    32
  0
VERTEX
  5
2878
  8
241
  6
CONTINUOUS
 10
-11.986000000000001
 20
-75.0
 30
0.0
 70
    32
  0
VERTEX
  5
2879
  8
241
  6
CONTINUOUS
 10
-11.9748
 20
-75.0
 30
0.0
 70
    32
  0
VERTEX
  5
287A
  8
241
  6
CONTINUOUS
 10
-11.9636
 20
-75.0
 30
0.0
 70
    32
  0
VERTEX
  5
287B
  8
241
  6
CONTINUOUS
 10
-11.952400000000001
 20
-75.0
 30
0.0
 70
    32
  0
VERTEX
  5
287C
  8
241
  6
CONTINUOUS
 10
-11.9412
 20
-75.0
 30
0.0
 70
    32
  0
VERTEX
  5
287D
  8
241
  6
CONTINUOUS
 10
-11.93
 20
-75.0
 30
0.0
 70
    32
  0
VERTEX
  5
287E
  8
241
  6
CONTINUOUS
 10
-11.918900000000001
 20
-75.0
 30
0.0
 70
    32
  0
VERTEX
  5
287F
  8
241
  6
CONTINUOUS
 10
-11.9077
 20
-75.0
 30
0.0
 70
    32
  0
VERTEX
  5
2880
  8
241
  6
CONTINUOUS
 10
-11.8965
 20
-75.0
 30
0.0
 70
    32
  0
VERTEX
  5
2881
  8
241
  6
CONTINUOUS
 10
-11.885400000000001
 20
-75.0
 30
0.0
 70
    32
  0
VERTEX
  5
2882
  8
241
  6
CONTINUOUS
 10
-11.8743
 20
-75.0
 30
0.0
 70
    32
  0
VERTEX
  5
2883
  8
241
  6
CONTINUOUS
 10
-11.863200000000001
 20
-75.0
 30
0.0
 70
    32
  0
VERTEX
  5
2884
  8
241
  6
CONTINUOUS
 10
-11.852
 20
-75.0
 30
0.0
 70
    32
  0
VERTEX
  5
2885
  8
241
  6
CONTINUOUS
 10
-11.840999999999999
 20
-75.0
 30
0.0
 70
    32
  0
VERTEX
  5
2886
  8
241
  6
CONTINUOUS
 10
-11.8299
 20
-75.0
 30
0.0
 70
    32
  0
VERTEX
  5
2887
  8
241
  6
CONTINUOUS
 10
-11.8188
 20
-75.0
 30
0.0
 70
    32
  0
VERTEX
  5
2888
  8
241
  6
CONTINUOUS
 10
-11.807700000000001
 20
-75.0
 30
0.0
 70
    32
  0
VERTEX
  5
2889
  8
241
  6
CONTINUOUS
 10
-11.7967
 20
-75.0
 30
0.0
 70
    32
  0
VERTEX
  5
288A
  8
241
  6
CONTINUOUS
 10
-11.785600000000001
 20
-75.0
 30
0.0
 70
    32
  0
VERTEX
  5
288B
  8
241
  6
CONTINUOUS
 10
-11.7746
 20
-75.0
 30
0.0
 70
    32
  0
VERTEX
  5
288C
  8
241
  6
CONTINUOUS
 10
-11.7636
 20
-75.0
 30
0.0
 70
    32
  0
VERTEX
  5
288D
  8
241
  6
CONTINUOUS
 10
-11.752599999999999
 20
-75.0
 30
0.0
 70
    32
  0
VERTEX
  5
288E
  8
241
  6
CONTINUOUS
 10
-11.7416
 20
-75.0
 30
0.0
 70
    32
  0
VERTEX
  5
288F
  8
241
  6
CONTINUOUS
 10
-11.730600000000001
 20
-75.0
 30
0.0
 70
    32
  0
VERTEX
  5
2890
  8
241
  6
CONTINUOUS
 10
-11.7197
 20
-75.0
 30
0.0
 70
    32
  0
VERTEX
  5
2891
  8
241
  6
CONTINUOUS
 10
-11.7087
 20
-75.0
 30
0.0
 70
    32
  0
VERTEX
  5
2892
  8
241
  6
CONTINUOUS
 10
-11.697800000000001
 20
-75.0
 30
0.0
 70
    32
  0
VERTEX
  5
2893
  8
241
  6
CONTINUOUS
 10
-11.6868
 20
-75.0
 30
0.0
 70
    32
  0
VERTEX
  5
2894
  8
241
  6
CONTINUOUS
 10
-11.6759
 20
-75.0
 30
0.0
 70
    32
  0
VERTEX
  5
2895
  8
241
  6
CONTINUOUS
 10
-11.664999999999999
 20
-75.0
 30
0.0
 70
    32
  0
VERTEX
  5
2896
  8
241
  6
CONTINUOUS
 10
-11.6541
 20
-75.0
 30
0.0
 70
    32
  0
VERTEX
  5
2897
  8
241
  6
CONTINUOUS
 10
-11.6432
 20
-75.0
 30
0.0
 70
    32
  0
VERTEX
  5
2898
  8
241
  6
CONTINUOUS
 10
-11.632300000000001
 20
-75.0
 30
0.0
 70
    32
  0
VERTEX
  5
2899
  8
241
  6
CONTINUOUS
 10
-11.6214
 20
-75.0
 30
0.0
 70
    32
  0
VERTEX
  5
289A
  8
241
  6
CONTINUOUS
 10
-11.6105
 20
-75.0
 30
0.0
 70
    32
  0
VERTEX
  5
289B
  8
241
  6
CONTINUOUS
 10
-11.599600000000001
 20
-75.0
 30
0.0
 70
    32
  0
VERTEX
  5
289C
  8
241
  6
CONTINUOUS
 10
-11.588800000000001
 20
-75.0
 30
0.0
 70
    32
  0
VERTEX
  5
289D
  8
241
  6
CONTINUOUS
 10
-11.5779
 20
-75.0
 30
0.0
 70
    32
  0
VERTEX
  5
289E
  8
241
  6
CONTINUOUS
 10
-11.567
 20
-75.0
 30
0.0
 70
    32
  0
VERTEX
  5
289F
  8
241
  6
CONTINUOUS
 10
-11.5562
 20
-75.0
 30
0.0
 70
    32
  0
VERTEX
  5
28A0
  8
241
  6
CONTINUOUS
 10
-11.545400000000001
 20
-75.0
 30
0.0
 70
    32
  0
VERTEX
  5
28A1
  8
241
  6
CONTINUOUS
 10
-11.5345
 20
-75.0
 30
0.0
 70
    32
  0
VERTEX
  5
28A2
  8
241
  6
CONTINUOUS
 10
-11.5237
 20
-75.0
 30
0.0
 70
    32
  0
VERTEX
  5
28A3
  8
241
  6
CONTINUOUS
 10
-11.5129
 20
-75.0
 30
0.0
 70
    32
  0
VERTEX
  5
28A4
  8
241
  6
CONTINUOUS
 10
-11.502000000000001
 20
-75.0
 30
0.0
 70
    32
  0
VERTEX
  5
28A5
  8
241
  6
CONTINUOUS
 10
-11.491199999999999
 20
-75.0
 30
0.0
 70
    32
  0
VERTEX
  5
28A6
  8
241
  6
CONTINUOUS
 10
-11.480399999999999
 20
-75.0
 30
0.0
 70
    32
  0
VERTEX
  5
28A7
  8
241
  6
CONTINUOUS
 10
-11.4696
 20
-75.0
 30
0.0
 70
    32
  0
VERTEX
  5
28A8
  8
241
  6
CONTINUOUS
 10
-11.4588
 20
-75.0
 30
0.0
 70
    32
  0
VERTEX
  5
28A9
  8
241
  6
CONTINUOUS
 10
-11.448
 20
-75.0
 30
0.0
 70
    32
  0
VERTEX
  5
28AA
  8
241
  6
CONTINUOUS
 10
-11.437200000000001
 20
-75.0
 30
0.0
 70
    32
  0
VERTEX
  5
28AB
  8
241
  6
CONTINUOUS
 10
-11.426399999999999
 20
-75.0
 30
0.0
 70
    32
  0
VERTEX
  5
28AC
  8
241
  6
CONTINUOUS
 10
-11.4156
 20
-75.0
 30
0.0
 70
    32
  0
VERTEX
  5
28AD
  8
241
  6
CONTINUOUS
 10
-11.4048
 20
-75.0
 30
0.0
 70
    32
  0
VERTEX
  5
28AE
  8
241
  6
CONTINUOUS
 10
-11.394
 20
-75.0
 30
0.0
 70
    32
  0
VERTEX
  5
28AF
  8
241
  6
CONTINUOUS
 10
-11.3832
 20
-75.0
 30
0.0
 70
    32
  0
VERTEX
  5
28B0
  8
241
  6
CONTINUOUS
 10
-11.372400000000001
 20
-75.0
 30
0.0
 70
    32
  0
SEQEND
  5
28B1
  8
241
  6
CONTINUOUS
  0
LINE
  5
14E8
  8
241
  6
CONTINUOUS
 10
-13.01940277219067
 20
-80.000000670552296
 30
0.0
 11
-12.352650314571839
 21
-78.750000000000071
 31
0.0
  0
LINE
  5
14EA
  8
241
  6
CONTINUOUS
 10
-11.68589785695324
 20
-77.500001192092924
 30
0.0
 11
-10.03888741135823
 21
-77.500001192092924
 31
0.0
  0
LINE
  5
14EC
  8
241
  6
CONTINUOUS
 10
-12.352650314571839
 20
-76.249998658895791
 30
0.0
 11
-13.01940277219067
 21
-74.999999850988189
 31
0.0
  0
LINE
  5
14ED
  8
241
  6
CONTINUOUS
 10
-29.999998658897869
 20
-90.990000069142994
 30
0.0
 11
-6.993373185398907
 21
-90.990000069140066
 31
0.0
  0
LINE
  5
14EE
  8
241
  6
CONTINUOUS
 10
-49.99999821186303
 20
-99.749999716877994
 30
0.0
 11
-29.999998658897891
 21
-99.749999716877952
 31
0.0
  0
LINE
  5
14EF
  8
241
  6
CONTINUOUS
 10
-48.999998164365302
 20
-99.749999716877994
 30
0.0
 11
-48.999998164365302
 21
-103.7499999068678
 31
0.0
  0
LINE
  5
14F0
  8
240
  6
CONTINUOUS
 10
-49.999998211874647
 20
-102.7500002086047
 30
0.0
 11
-48.999998164365302
 21
-103.7499999068678
 31
0.0
  0
LINE
  5
14F1
  8
241
  6
CONTINUOUS
 10
-48.999998164365302
 20
-22.97669708728797
 30
0.0
 11
-49.99999821186303
 21
-23.917489349842139
 31
0.0
  0
LINE
  5
14F2
  8
240
  6
CONTINUOUS
 10
-30.49999780953145
 20
-103.7499999068678
 30
0.0
 11
-48.999998164365302
 21
-103.7499999068678
 31
0.0
  0
LINE
  5
14F3
  8
241
  6
CONTINUOUS
 10
-48.999998164365302
 20
-22.97669708728797
 30
0.0
 11
-38.128942511977911
 21
-22.97669708728797
 31
0.0
  0
LINE
  5
14F4
  8
241
  6
CONTINUOUS
 10
-29.999998658897869
 20
-32.664396464824989
 30
0.0
 11
-29.999998658897869
 21
-93.190000057220757
 31
0.0
  0
LINE
  5
14F5
  8
240
  6
CONTINUOUS
 10
-29.999998658897869
 20
-93.190000057220757
 30
0.0
 11
-29.999998658897869
 21
-103.2499998249112
 31
0.0
  0
LINE
  5
14F6
  8
240
  6
CONTINUOUS
 10
-29.999998658897869
 20
-103.2499998249112
 30
0.0
 11
-30.49999780953145
 21
-103.7499999068678
 31
0.0
  0
LINE
  5
14F7
  8
241
  6
CONTINUOUS
 10
-48.999998164365302
 20
-17.499998807907168
 30
0.0
 11
-48.999998164365302
 21
-22.97669708728797
 31
0.0
  0
LINE
  5
14FC
  8
241
  6
CONTINUOUS
 10
-29.999998658897869
 20
-52.000001668930352
 30
0.0
 11
-3.999998122458106
 21
-52.000001668930352
 31
0.0
  0
LINE
  5
14FD
  8
241
  6
CONTINUOUS
 10
-29.999998658897869
 20
-50.499998629093128
 30
0.0
 11
-16.499997377397889
 21
-50.499998629093128
 31
0.0
  0
LINE
  5
14FF
  8
241
  6
CONTINUOUS
 10
-29.999998658897869
 20
-38.478792309760891
 30
0.0
 11
-16.499997377397889
 21
-38.478792309760891
 31
0.0
  0
LINE
  5
1500
  8
241
  6
CONTINUOUS
 10
-29.999998658897869
 20
-36.631800830364071
 30
0.0
 11
-15.408878475429891
 21
-36.631800830364071
 31
0.0
  0
LINE
  5
1502
  8
241
  6
CONTINUOUS
 10
-16.499997377397889
 20
-38.478792309760891
 30
0.0
 11
-16.499997377397889
 21
-50.499998629093128
 31
0.0
  0
CIRCLE
  5
1503
  8
241
  6
CONTINUOUS
 10
-22.99999821186303
 20
-44.50000000000005
 30
0.0
 40
5.75
  0
LINE
  5
1504
  8
241
  6
CONTINUOUS
 10
-29.999998658897869
 20
-85.794231519102894
 30
0.0
 11
-17.822989523412829
 21
-85.794231519102894
 31
0.0
  0
LINE
  5
1505
  8
241
  6
CONTINUOUS
 10
-29.999998658897869
 20
-83.914844915270848
 30
0.0
 11
-20.99999904632806
 21
-83.914844915270848
 31
0.0
  0
LINE
  5
1507
  8
241
  6
CONTINUOUS
 10
-29.999998658897869
 20
-71.096741259098124
 30
0.0
 11
-20.99999904632806
 21
-71.096741259098124
 31
0.0
  0
LINE
  5
1508
  8
241
  6
CONTINUOUS
 10
-20.99999904632806
 20
-71.096741259098124
 30
0.0
 11
-20.99999904632806
 21
-83.914844915270848
 31
0.0
  0
LINE
  5
1509
  8
241
  6
CONTINUOUS
 10
-29.999998658897869
 20
-69.217354655265851
 30
0.0
 11
-17.822989523412829
 21
-69.217354655265851
 31
0.0
  0
LINE
  5
150B
  8
241
  6
CONTINUOUS
 10
-17.822989523412829
 20
-85.794231519102894
 30
0.0
 11
-9.0579216182256772
 21
-87.115664631128354
 31
0.0
  0
LINE
  5
1534
  8
241
  6
CONTINUOUS
 10
-3.9999981224560912
 20
-27.55378660697717
 30
0.0
 11
-15.408878475429891
 21
-36.631800830364071
 31
0.0
  0
LINE
  5
1538
  8
241
  6
CONTINUOUS
 10
-18.027589917185072
 20
-21.19826585054394
 30
0.0
 11
-6.519185308113685
 21
-21.19826585054394
 31
0.0
  0
LINE
  5
153B
  8
241
  6
CONTINUOUS
 10
-25.980432778599251
 20
-29.816069304943149
 30
0.0
 11
-29.43531729281186
 21
-32.71506786346432
 31
0.0
  0
LINE
  5
153D
  8
241
  6
CONTINUOUS
 10
-29.999998658897869
 20
-67.517541944980692
 30
0.0
 11
-6.548126488926286
 21
-67.517541944980692
 31
0.0
  0
LINE
  5
1540
  8
240
  6
CONTINUOUS
 10
-3.999998122456061
 20
-20.748437047004771
 30
0.0
 11
-3.999998122461065
 21
-88.000000119215045
 31
0.0
  0
LINE
  5
1541
  8
241
  6
CONTINUOUS
 10
-3.999998122456061
 20
-84.244894459843451
 30
0.0
 11
-9.2114147543928624
 21
-88.499999269843173
 31
0.0
  0
LINE
  5
1543
  8
240
  6
CONTINUOUS
 10
-4.4999991357351341
 20
-88.499999269843173
 30
0.0
 11
-5.5557724833521291
 21
-88.499999269843173
 31
0.0
  0
LINE
  5
1544
  8
241
  6
CONTINUOUS
 10
-29.999998658897869
 20
-32.664396464824989
 30
0.0
 11
-41.402366820008169
 21
-19.075580537319141
 31
0.0
  0
LINE
  5
1547
  8
240
  6
CONTINUOUS
 10
-3.999998122456061
 20
-20.748437047004771
 30
0.0
 11
-8.9999982118642805
 21
-17.52041689651896
 31
0.0
  0
LINE
  5
1548
  8
240
  6
CONTINUOUS
 10
-8.9999970793754613
 20
-17.52041339874274
 30
0.0
 11
-10.49999821186325
 21
-17.52041339874274
 31
0.0
  0
LINE
  5
154A
  8
241
  6
CONTINUOUS
 10
-20.45141947907095
 20
-10.399996837560691
 30
0.0
 11
-25.548580520929001
 21
-10.399996837560691
 31
0.0
  0
LINE
  5
154B
  8
240
  6
CONTINUOUS
 10
-10.49999999999997
 20
-12.99999683756071
 30
0.0
 11
-10.49999999999997
 21
-17.520413638369931
 31
0.0
  0
LINE
  5
154C
  8
240
  6
CONTINUOUS
 10
-35.499999999999972
 20
-17.499998807906721
 30
0.0
 11
-35.499999999999972
 21
-12.9999968375606
 31
0.0
  0
LINE
  5
154D
  8
240
  6
CONTINUOUS
 10
-34.999999999999957
 20
-12.4999968375606
 30
0.0
 11
-35.499999999999972
 21
-12.9999968375606
 31
0.0
1001
GENIUS_GENFIL_13
1070
     0
1040
0.5
1040
0.5
1040
0.5000000000002274
1040
44.999999999993477
1000
~T
1001
GENIUS_GENOREF_13
1005
1582
  0
LINE
  5
154E
  8
241
  6
CONTINUOUS
 10
-35.00000033527644
 20
-12.499996837560831
 30
0.0
 11
-10.99999919533772
 21
-12.49999683756071
 31
0.0
  0
LINE
  5
1550
  8
240
  6
CONTINUOUS
 10
-28.481387719512409
 20
-3.9959980296534781
 30
0.0
 11
-34.068654477596262
 21
-3.9959980296534781
 31
0.0
  0
LINE
  5
1551
  8
240
  6
CONTINUOUS
 10
-11.8999995291235
 20
-3.9959980296534781
 30
0.0
 11
-17.506691813468901
 21
-3.9959980296534781
 31
0.0
  0
LINE
  5
1552
  8
240
  6
CONTINUOUS
 10
-35.000000335276333
 20
-4.8959980296534784
 30
0.0
 11
-35.000000335276333
 21
-12.4999968375606
 31
0.0
  0
LINE
  5
1553
  8
241
  6
CONTINUOUS
 10
-34.068654477596262
 20
-4.0087683247966011
 30
0.0
 11
-34.064714983105631
 21
-4.0103180455606511
 31
0.0
  0
ARC
  5
1554
  8
241
  6
CONTINUOUS
 10
-11.90000000000029
 20
-4.8959968375606691
 30
0.0
 40
0.9000000000000344
 50
0.0
 51
90.0
  0
LINE
  5
1555
  8
241
  6
CONTINUOUS
 10
-10.99999919533772
 20
-6.562536780778581
 30
0.0
 11
-10.99999919533772
 21
-4.895998363439487
 31
0.0
  0
LINE
  5
1556
  8
240
  6
CONTINUOUS
 10
-10.78105643391652
 20
-2.057930653039858
 30
0.0
 11
-1.2295460054091041
 21
-0.3737460825045531
 31
0.0
  0
LINE
  5
1557
  8
240
  6
CONTINUOUS
 10
-10.78105643391652
 20
-2.057930653039858
 30
0.0
 11
-11.8999995291235
 21
-3.9959980296534781
 31
0.0
  0
LINE
  5
1558
  8
240
  6
CONTINUOUS
 10
-28.481387719512409
 20
-3.9959980296534781
 30
0.0
 11
-34.10000033527632
 21
-3.9959980296534781
 31
0.0
  0
LINE
  5
1559
  8
241
  6
CONTINUOUS
 10
-9.1829969758198047
 20
-5.099622731153417
 30
0.0
 11
-1.120954679887034
 21
-10.33517551893406
 31
0.0
  0
ARC
  5
155A
  8
241
  6
CONTINUOUS
 10
-8.9651405622214213
 20
-4.764157094948799
 30
0.0
 40
0.4000000000000516
 50
116.9999999999872
 51
237.0000000000139
  0
LINE
  5
155B
  8
241
  6
CONTINUOUS
 10
-9.1467350000545764
 20
-4.4077543663424734
 30
0.0
 11
-0.5826207878670573
 21
-0.0441213017455624
 31
0.0
  0
ARC
  5
155C
  8
241
  6
CONTINUOUS
 10
-0.4000000000000627
 20
-0.400000000000077
 30
0.0
 40
0.4000000000000671
 50
357.00000000004007
 51
117.1648352253074
  0
LINE
  5
155D
  8
241
  6
CONTINUOUS
 10
-0.5036160781187107
 20
-10.02003269634905
 30
0.0
 11
-0.0005475455920703
 21
-0.420933787767453
 31
0.0
  0
ARC
  5
155E
  8
241
  6
CONTINUOUS
 10
-0.9030993707787899
 20
-9.9997078613424542
 30
0.0
 40
0.4000000000001302
 50
236.9999999999998
 51
357.08742760626711
  0
LINE
  5
155F
  8
241
  6
CONTINUOUS
 10
-34.068654477596262
 20
-4.0087683247966011
 30
0.0
 11
-34.064714983105631
 21
-4.0103180455606511
 31
0.0
  0
ARC
  5
1560
  8
241
  6
CONTINUOUS
 10
-11.90000000000029
 20
-4.8959968375606691
 30
0.0
 40
0.9000000000000344
 50
0.0
 51
90.0
  0
LINE
  5
1561
  8
241
  6
CONTINUOUS
 10
-10.99999919533772
 20
-12.49999683756071
 30
0.0
 11
-10.99999919533772
 21
-4.895998363439487
 31
0.0
  0
LINE
  5
1562
  8
240
  6
CONTINUOUS
 10
-1.0629893200024001
 20
-12.499996837557189
 30
0.0
 11
-0.9527559025941345
 21
-10.3966136799546
 31
0.0
  0
LINE
  5
1563
  8
240
  6
CONTINUOUS
 10
-10.99999919533772
 20
-12.49999683756071
 30
0.0
 11
-1.0629893200024001
 21
-12.499996837557189
 31
0.0
  0
LINE
  5
1564
  8
241
  6
CONTINUOUS
 10
-20.099999999999991
 20
-12.49999683756071
 30
0.0
 11
-20.45141947907095
 21
-10.399996837560691
 31
0.0
  0
LINE
  5
1565
  8
241
  6
CONTINUOUS
 10
-25.548580520929001
 20
-10.399996837560691
 30
0.0
 11
-25.900000000000048
 21
-12.4999968375606
 31
0.0
  0
LINE
  5
1566
  8
241
  6
CONTINUOUS
 10
-35.500000335276333
 20
-12.9999968375606
 30
0.0
 11
-10.49999999999997
 21
-12.9999968375606
 31
0.0
  0
LINE
  5
1567
  8
240
  6
CONTINUOUS
 10
-10.49999999999997
 20
-12.99999683756071
 30
0.0
 11
-10.99999999999997
 21
-12.49999683756071
 31
0.0
1001
GENIUS_GENFIL_13
1070
     0
1040
0.5
1040
0.5
1040
0.5000000000002274
1040
45.000000000003247
1000
~T
1001
GENIUS_GENOREF_13
1005
1581
  0
CIRCLE
  5
1568
  8
246
  6
PHANTOM2
 10
-3.422745808958751
 20
-5.0546216866723483
 30
0.0
 40
3.174999235361271
  0
LINE
  5
1569
  8
240
  6
CONTINUOUS
 10
-18.752050732625911
 20
-4.2035875220895891
 30
0.0
 11
-19.900000840425449
 21
-3.895996336881447
 31
0.0
  0
LINE
  5
156A
  8
240
  6
CONTINUOUS
 10
-26.099999621510591
 20
-3.895996336881447
 30
0.0
 11
-27.247936524659281
 21
-4.2035891664867071
 31
0.0
  0
LINE
  5
156B
  8
240
  6
CONTINUOUS
 10
-19.900000840425449
 20
-3.895996336881447
 30
0.0
 11
-26.099999621510591
 21
-3.895996336881447
 31
0.0
  0
POLYLINE
  5
3530
  8
241
  6
CONTINUOUS
 66
     1
 10
0.0
 20
0.0
 30
0.0
 70
     8
  0
VERTEX
  5
3531
  8
241
  6
CONTINUOUS
 10
-22.9999
 20
-4.513239999999997
 30
0.0
 70
    32
  0
VERTEX
  5
3532
  8
241
  6
CONTINUOUS
 10
-22.9999
 20
-4.513239999999997
 30
0.0
 70
    32
  0
VERTEX
  5
3533
  8
241
  6
CONTINUOUS
 10
-22.9999
 20
-4.513239999999997
 30
0.0
 70
    32
  0
VERTEX
  5
3534
  8
241
  6
CONTINUOUS
 10
-22.9999
 20
-4.513239999999997
 30
0.0
 70
    32
  0
VERTEX
  5
3535
  8
241
  6
CONTINUOUS
 10
-22.9999
 20
-4.513239999999997
 30
0.0
 70
    32
  0
VERTEX
  5
3536
  8
241
  6
CONTINUOUS
 10
-22.9999
 20
-4.513239999999997
 30
0.0
 70
    32
  0
VERTEX
  5
3537
  8
241
  6
CONTINUOUS
 10
-22.9999
 20
-4.513239999999997
 30
0.0
 70
    32
  0
VERTEX
  5
3538
  8
241
  6
CONTINUOUS
 10
-22.9999
 20
-4.513239999999997
 30
0.0
 70
    32
  0
VERTEX
  5
3539
  8
241
  6
CONTINUOUS
 10
-22.9999
 20
-4.513239999999997
 30
0.0
 70
    32
  0
VERTEX
  5
353A
  8
241
  6
CONTINUOUS
 10
-22.9999
 20
-4.513239999999997
 30
0.0
 70
    32
  0
VERTEX
  5
353B
  8
241
  6
CONTINUOUS
 10
-22.9999
 20
-4.513239999999997
 30
0.0
 70
    32
  0
VERTEX
  5
353C
  8
241
  6
CONTINUOUS
 10
-22.9999
 20
-4.513239999999997
 30
0.0
 70
    32
  0
VERTEX
  5
353D
  8
241
  6
CONTINUOUS
 10
-22.9999
 20
-4.513239999999997
 30
0.0
 70
    32
  0
VERTEX
  5
353E
  8
241
  6
CONTINUOUS
 10
-22.9999
 20
-4.513239999999997
 30
0.0
 70
    32
  0
VERTEX
  5
353F
  8
241
  6
CONTINUOUS
 10
-22.9999
 20
-4.513239999999997
 30
0.0
 70
    32
  0
VERTEX
  5
3540
  8
241
  6
CONTINUOUS
 10
-22.9999
 20
-4.513239999999997
 30
0.0
 70
    32
  0
VERTEX
  5
3541
  8
241
  6
CONTINUOUS
 10
-22.9999
 20
-4.513239999999997
 30
0.0
 70
    32
  0
VERTEX
  5
3542
  8
241
  6
CONTINUOUS
 10
-22.9999
 20
-4.513239999999997
 30
0.0
 70
    32
  0
VERTEX
  5
3543
  8
241
  6
CONTINUOUS
 10
-22.9999
 20
-4.513239999999997
 30
0.0
 70
    32
  0
VERTEX
  5
3544
  8
241
  6
CONTINUOUS
 10
-22.9999
 20
-4.513239999999997
 30
0.0
 70
    32
  0
VERTEX
  5
3545
  8
241
  6
CONTINUOUS
 10
-22.9999
 20
-4.513239999999997
 30
0.0
 70
    32
  0
VERTEX
  5
3546
  8
241
  6
CONTINUOUS
 10
-22.9999
 20
-4.513239999999997
 30
0.0
 70
    32
  0
VERTEX
  5
3547
  8
241
  6
CONTINUOUS
 10
-22.9999
 20
-4.513239999999997
 30
0.0
 70
    32
  0
VERTEX
  5
3548
  8
241
  6
CONTINUOUS
 10
-22.9999
 20
-4.513239999999997
 30
0.0
 70
    32
  0
VERTEX
  5
3549
  8
241
  6
CONTINUOUS
 10
-22.9999
 20
-4.513239999999997
 30
0.0
 70
    32
  0
VERTEX
  5
354A
  8
241
  6
CONTINUOUS
 10
-22.9999
 20
-4.513239999999997
 30
0.0
 70
    32
  0
VERTEX
  5
354B
  8
241
  6
CONTINUOUS
 10
-22.9999
 20
-4.513239999999997
 30
0.0
 70
    32
  0
VERTEX
  5
354C
  8
241
  6
CONTINUOUS
 10
-22.9999
 20
-4.513239999999997
 30
0.0
 70
    32
  0
VERTEX
  5
354D
  8
241
  6
CONTINUOUS
 10
-22.9999
 20
-4.513239999999997
 30
0.0
 70
    32
  0
VERTEX
  5
354E
  8
241
  6
CONTINUOUS
 10
-22.9999
 20
-4.513239999999997
 30
0.0
 70
    32
  0
VERTEX
  5
354F
  8
241
  6
CONTINUOUS
 10
-22.9999
 20
-4.513239999999997
 30
0.0
 70
    32
  0
VERTEX
  5
3550
  8
241
  6
CONTINUOUS
 10
-22.9999
 20
-4.513239999999997
 30
0.0
 70
    32
  0
VERTEX
  5
3551
  8
241
  6
CONTINUOUS
 10
-22.9999
 20
-4.513239999999997
 30
0.0
 70
    32
  0
VERTEX
  5
3552
  8
241
  6
CONTINUOUS
 10
-22.9999
 20
-4.513239999999997
 30
0.0
 70
    32
  0
VERTEX
  5
3553
  8
241
  6
CONTINUOUS
 10
-22.9999
 20
-4.513239999999997
 30
0.0
 70
    32
  0
VERTEX
  5
3554
  8
241
  6
CONTINUOUS
 10
-22.9999
 20
-4.513239999999997
 30
0.0
 70
    32
  0
VERTEX
  5
3555
  8
241
  6
CONTINUOUS
 10
-22.9999
 20
-4.513239999999997
 30
0.0
 70
    32
  0
VERTEX
  5
3556
  8
241
  6
CONTINUOUS
 10
-22.9999
 20
-4.513239999999997
 30
0.0
 70
    32
  0
VERTEX
  5
3557
  8
241
  6
CONTINUOUS
 10
-22.9999
 20
-4.513239999999997
 30
0.0
 70
    32
  0
VERTEX
  5
3558
  8
241
  6
CONTINUOUS
 10
-22.9999
 20
-4.513239999999997
 30
0.0
 70
    32
  0
VERTEX
  5
3559
  8
241
  6
CONTINUOUS
 10
-22.9999
 20
-4.513239999999997
 30
0.0
 70
    32
  0
VERTEX
  5
355A
  8
241
  6
CONTINUOUS
 10
-22.9999
 20
-4.513239999999997
 30
0.0
 70
    32
  0
VERTEX
  5
355B
  8
241
  6
CONTINUOUS
 10
-22.9999
 20
-4.513239999999997
 30
0.0
 70
    32
  0
VERTEX
  5
355C
  8
241
  6
CONTINUOUS
 10
-22.9999
 20
-4.513239999999997
 30
0.0
 70
    32
  0
VERTEX
  5
355D
  8
241
  6
CONTINUOUS
 10
-22.9999
 20
-4.513239999999997
 30
0.0
 70
    32
  0
VERTEX
  5
355E
  8
241
  6
CONTINUOUS
 10
-22.9999
 20
-4.513239999999997
 30
0.0
 70
    32
  0
VERTEX
  5
355F
  8
241
  6
CONTINUOUS
 10
-22.9999
 20
-4.513239999999997
 30
0.0
 70
    32
  0
VERTEX
  5
3560
  8
241
  6
CONTINUOUS
 10
-22.9999
 20
-4.513239999999997
 30
0.0
 70
    32
  0
VERTEX
  5
3561
  8
241
  6
CONTINUOUS
 10
-22.9999
 20
-4.513239999999997
 30
0.0
 70
    32
  0
VERTEX
  5
3562
  8
241
  6
CONTINUOUS
 10
-22.9999
 20
-4.513239999999997
 30
0.0
 70
    32
  0
VERTEX
  5
3563
  8
241
  6
CONTINUOUS
 10
-22.9999
 20
-4.513239999999997
 30
0.0
 70
    32
  0
VERTEX
  5
3564
  8
241
  6
CONTINUOUS
 10
-22.9999
 20
-4.513239999999997
 30
0.0
 70
    32
  0
VERTEX
  5
3565
  8
241
  6
CONTINUOUS
 10
-22.9999
 20
-4.513239999999997
 30
0.0
 70
    32
  0
VERTEX
  5
3566
  8
241
  6
CONTINUOUS
 10
-22.9999
 20
-4.513239999999997
 30
0.0
 70
    32
  0
VERTEX
  5
3567
  8
241
  6
CONTINUOUS
 10
-22.9999
 20
-4.513239999999997
 30
0.0
 70
    32
  0
VERTEX
  5
3568
  8
241
  6
CONTINUOUS
 10
-23.0
 20
-4.513239999999997
 30
0.0
 70
    32
  0
VERTEX
  5
3569
  8
241
  6
CONTINUOUS
 10
-23.0
 20
-4.513239999999997
 30
0.0
 70
    32
  0
VERTEX
  5
356A
  8
241
  6
CONTINUOUS
 10
-23.0
 20
-4.513239999999997
 30
0.0
 70
    32
  0
VERTEX
  5
356B
  8
241
  6
CONTINUOUS
 10
-23.0
 20
-4.513239999999997
 30
0.0
 70
    32
  0
VERTEX
  5
356C
  8
241
  6
CONTINUOUS
 10
-23.0
 20
-4.513239999999997
 30
0.0
 70
    32
  0
VERTEX
  5
356D
  8
241
  6
CONTINUOUS
 10
-23.0
 20
-4.513239999999997
 30
0.0
 70
    32
  0
VERTEX
  5
356E
  8
241
  6
CONTINUOUS
 10
-23.0
 20
-4.513239999999997
 30
0.0
 70
    32
  0
VERTEX
  5
356F
  8
241
  6
CONTINUOUS
 10
-23.0
 20
-4.513239999999997
 30
0.0
 70
    32
  0
VERTEX
  5
3570
  8
241
  6
CONTINUOUS
 10
-23.0
 20
-4.513239999999997
 30
0.0
 70
    32
  0
VERTEX
  5
3571
  8
241
  6
CONTINUOUS
 10
-23.0
 20
-4.513239999999997
 30
0.0
 70
    32
  0
VERTEX
  5
3572
  8
241
  6
CONTINUOUS
 10
-23.0
 20
-4.513239999999997
 30
0.0
 70
    32
  0
VERTEX
  5
3573
  8
241
  6
CONTINUOUS
 10
-23.0
 20
-4.513239999999997
 30
0.0
 70
    32
  0
VERTEX
  5
3574
  8
241
  6
CONTINUOUS
 10
-23.0
 20
-4.513239999999997
 30
0.0
 70
    32
  0
VERTEX
  5
3575
  8
241
  6
CONTINUOUS
 10
-23.0
 20
-4.513239999999997
 30
0.0
 70
    32
  0
VERTEX
  5
3576
  8
241
  6
CONTINUOUS
 10
-23.0
 20
-4.513239999999997
 30
0.0
 70
    32
  0
VERTEX
  5
3577
  8
241
  6
CONTINUOUS
 10
-23.0
 20
-4.513239999999997
 30
0.0
 70
    32
  0
VERTEX
  5
3578
  8
241
  6
CONTINUOUS
 10
-23.0
 20
-4.513239999999997
 30
0.0
 70
    32
  0
VERTEX
  5
3579
  8
241
  6
CONTINUOUS
 10
-23.0
 20
-4.513239999999997
 30
0.0
 70
    32
  0
VERTEX
  5
357A
  8
241
  6
CONTINUOUS
 10
-23.0
 20
-4.513239999999997
 30
0.0
 70
    32
  0
VERTEX
  5
357B
  8
241
  6
CONTINUOUS
 10
-23.0
 20
-4.513239999999997
 30
0.0
 70
    32
  0
VERTEX
  5
357C
  8
241
  6
CONTINUOUS
 10
-23.0
 20
-4.513239999999997
 30
0.0
 70
    32
  0
VERTEX
  5
357D
  8
241
  6
CONTINUOUS
 10
-23.0
 20
-4.513239999999997
 30
0.0
 70
    32
  0
VERTEX
  5
357E
  8
241
  6
CONTINUOUS
 10
-23.0
 20
-4.513239999999997
 30
0.0
 70
    32
  0
VERTEX
  5
357F
  8
241
  6
CONTINUOUS
 10
-23.0
 20
-4.513239999999997
 30
0.0
 70
    32
  0
VERTEX
  5
3580
  8
241
  6
CONTINUOUS
 10
-23.0
 20
-4.513239999999997
 30
0.0
 70
    32
  0
VERTEX
  5
3581
  8
241
  6
CONTINUOUS
 10
-23.0
 20
-4.513239999999997
 30
0.0
 70
    32
  0
VERTEX
  5
3582
  8
241
  6
CONTINUOUS
 10
-23.0
 20
-4.513239999999997
 30
0.0
 70
    32
  0
VERTEX
  5
3583
  8
241
  6
CONTINUOUS
 10
-23.0
 20
-4.513239999999997
 30
0.0
 70
    32
  0
VERTEX
  5
3584
  8
241
  6
CONTINUOUS
 10
-23.0
 20
-4.513239999999997
 30
0.0
 70
    32
  0
VERTEX
  5
3585
  8
241
  6
CONTINUOUS
 10
-23.0
 20
-4.513239999999997
 30
0.0
 70
    32
  0
VERTEX
  5
3586
  8
241
  6
CONTINUOUS
 10
-23.0
 20
-4.513239999999997
 30
0.0
 70
    32
  0
VERTEX
  5
3587
  8
241
  6
CONTINUOUS
 10
-23.0
 20
-4.513239999999997
 30
0.0
 70
    32
  0
VERTEX
  5
3588
  8
241
  6
CONTINUOUS
 10
-23.0
 20
-4.513239999999997
 30
0.0
 70
    32
  0
VERTEX
  5
3589
  8
241
  6
CONTINUOUS
 10
-23.0
 20
-4.513239999999997
 30
0.0
 70
    32
  0
VERTEX
  5
358A
  8
241
  6
CONTINUOUS
 10
-23.0
 20
-4.513239999999997
 30
0.0
 70
    32
  0
VERTEX
  5
358B
  8
241
  6
CONTINUOUS
 10
-23.0
 20
-4.513239999999997
 30
0.0
 70
    32
  0
VERTEX
  5
358C
  8
241
  6
CONTINUOUS
 10
-23.0
 20
-4.513239999999997
 30
0.0
 70
    32
  0
VERTEX
  5
358D
  8
241
  6
CONTINUOUS
 10
-23.0
 20
-4.513239999999997
 30
0.0
 70
    32
  0
VERTEX
  5
358E
  8
241
  6
CONTINUOUS
 10
-23.0
 20
-4.513239999999997
 30
0.0
 70
    32
  0
VERTEX
  5
358F
  8
241
  6
CONTINUOUS
 10
-23.0
 20
-4.513239999999997
 30
0.0
 70
    32
  0
VERTEX
  5
3590
  8
241
  6
CONTINUOUS
 10
-23.0
 20
-4.513239999999997
 30
0.0
 70
    32
  0
VERTEX
  5
3591
  8
241
  6
CONTINUOUS
 10
-23.0
 20
-4.513239999999997
 30
0.0
 70
    32
  0
VERTEX
  5
3592
  8
241
  6
CONTINUOUS
 10
-23.0
 20
-4.513239999999997
 30
0.0
 70
    32
  0
VERTEX
  5
3593
  8
241
  6
CONTINUOUS
 10
-23.0
 20
-4.513239999999997
 30
0.0
 70
    32
  0
VERTEX
  5
3594
  8
241
  6
CONTINUOUS
 10
-23.0
 20
-4.513239999999997
 30
0.0
 70
    32
  0
VERTEX
  5
3595
  8
241
  6
CONTINUOUS
 10
-23.0
 20
-4.513239999999997
 30
0.0
 70
    32
  0
VERTEX
  5
3596
  8
241
  6
CONTINUOUS
 10
-23.0
 20
-4.513239999999997
 30
0.0
 70
    32
  0
VERTEX
  5
3597
  8
241
  6
CONTINUOUS
 10
-23.0
 20
-4.513239999999997
 30
0.0
 70
    32
  0
VERTEX
  5
3598
  8
241
  6
CONTINUOUS
 10
-23.0
 20
-4.513239999999997
 30
0.0
 70
    32
  0
VERTEX
  5
3599
  8
241
  6
CONTINUOUS
 10
-23.0
 20
-4.513239999999997
 30
0.0
 70
    32
  0
VERTEX
  5
359A
  8
241
  6
CONTINUOUS
 10
-23.0
 20
-4.513239999999997
 30
0.0
 70
    32
  0
VERTEX
  5
359B
  8
241
  6
CONTINUOUS
 10
-23.0
 20
-4.513239999999997
 30
0.0
 70
    32
  0
VERTEX
  5
359C
  8
241
  6
CONTINUOUS
 10
-23.0
 20
-4.513239999999997
 30
0.0
 70
    32
  0
VERTEX
  5
359D
  8
241
  6
CONTINUOUS
 10
-23.0
 20
-4.513239999999997
 30
0.0
 70
    32
  0
VERTEX
  5
359E
  8
241
  6
CONTINUOUS
 10
-23.0
 20
-4.513239999999997
 30
0.0
 70
    32
  0
VERTEX
  5
359F
  8
241
  6
CONTINUOUS
 10
-23.0
 20
-4.513239999999997
 30
0.0
 70
    32
  0
VERTEX
  5
35A0
  8
241
  6
CONTINUOUS
 10
-23.0
 20
-4.513239999999997
 30
0.0
 70
    32
  0
VERTEX
  5
35A1
  8
241
  6
CONTINUOUS
 10
-23.0
 20
-4.513239999999997
 30
0.0
 70
    32
  0
VERTEX
  5
35A2
  8
241
  6
CONTINUOUS
 10
-23.0
 20
-4.513239999999997
 30
0.0
 70
    32
  0
VERTEX
  5
35A3
  8
241
  6
CONTINUOUS
 10
-23.0
 20
-4.513239999999997
 30
0.0
 70
    32
  0
VERTEX
  5
35A4
  8
241
  6
CONTINUOUS
 10
-23.0
 20
-4.513239999999997
 30
0.0
 70
    32
  0
VERTEX
  5
35A5
  8
241
  6
CONTINUOUS
 10
-23.0
 20
-4.513239999999997
 30
0.0
 70
    32
  0
VERTEX
  5
35A6
  8
241
  6
CONTINUOUS
 10
-23.0
 20
-4.513239999999997
 30
0.0
 70
    32
  0
VERTEX
  5
35A7
  8
241
  6
CONTINUOUS
 10
-23.0
 20
-4.513239999999997
 30
0.0
 70
    32
  0
VERTEX
  5
35A8
  8
241
  6
CONTINUOUS
 10
-23.0
 20
-4.513239999999997
 30
0.0
 70
    32
  0
VERTEX
  5
35A9
  8
241
  6
CONTINUOUS
 10
-23.0
 20
-4.513239999999997
 30
0.0
 70
    32
  0
VERTEX
  5
35AA
  8
241
  6
CONTINUOUS
 10
-23.0
 20
-4.513239999999997
 30
0.0
 70
    32
  0
VERTEX
  5
35AB
  8
241
  6
CONTINUOUS
 10
-23.0
 20
-4.513239999999997
 30
0.0
 70
    32
  0
VERTEX
  5
35AC
  8
241
  6
CONTINUOUS
 10
-23.0
 20
-4.513239999999997
 30
0.0
 70
    32
  0
VERTEX
  5
35AD
  8
241
  6
CONTINUOUS
 10
-23.0
 20
-4.513239999999997
 30
0.0
 70
    32
  0
VERTEX
  5
35AE
  8
241
  6
CONTINUOUS
 10
-23.0
 20
-4.513239999999997
 30
0.0
 70
    32
  0
VERTEX
  5
35AF
  8
241
  6
CONTINUOUS
 10
-23.0
 20
-4.513239999999997
 30
0.0
 70
    32
  0
VERTEX
  5
35B0
  8
241
  6
CONTINUOUS
 10
-23.0
 20
-4.513239999999997
 30
0.0
 70
    32
  0
SEQEND
  5
35B1
  8
241
  6
CONTINUOUS
  0
POLYLINE
  5
35B2
  8
241
  6
CONTINUOUS
 66
     1
 10
0.0
 20
0.0
 30
0.0
 70
     8
  0
VERTEX
  5
35B3
  8
241
  6
CONTINUOUS
 10
-22.9999
 20
-4.513239999999997
 30
0.0
 70
    32
  0
VERTEX
  5
35B4
  8
241
  6
CONTINUOUS
 10
-22.9999
 20
-4.513239999999997
 30
0.0
 70
    32
  0
VERTEX
  5
35B5
  8
241
  6
CONTINUOUS
 10
-22.9999
 20
-4.513239999999997
 30
0.0
 70
    32
  0
VERTEX
  5
35B6
  8
241
  6
CONTINUOUS
 10
-22.9999
 20
-4.513239999999997
 30
0.0
 70
    32
  0
VERTEX
  5
35B7
  8
241
  6
CONTINUOUS
 10
-22.9999
 20
-4.513239999999997
 30
0.0
 70
    32
  0
VERTEX
  5
35B8
  8
241
  6
CONTINUOUS
 10
-22.9999
 20
-4.513239999999997
 30
0.0
 70
    32
  0
VERTEX
  5
35B9
  8
241
  6
CONTINUOUS
 10
-22.9999
 20
-4.513239999999997
 30
0.0
 70
    32
  0
VERTEX
  5
35BA
  8
241
  6
CONTINUOUS
 10
-22.9999
 20
-4.513239999999997
 30
0.0
 70
    32
  0
VERTEX
  5
35BB
  8
241
  6
CONTINUOUS
 10
-22.9999
 20
-4.513239999999997
 30
0.0
 70
    32
  0
VERTEX
  5
35BC
  8
241
  6
CONTINUOUS
 10
-22.9999
 20
-4.513239999999997
 30
0.0
 70
    32
  0
VERTEX
  5
35BD
  8
241
  6
CONTINUOUS
 10
-22.9999
 20
-4.513239999999997
 30
0.0
 70
    32
  0
VERTEX
  5
35BE
  8
241
  6
CONTINUOUS
 10
-22.9999
 20
-4.513239999999997
 30
0.0
 70
    32
  0
VERTEX
  5
35BF
  8
241
  6
CONTINUOUS
 10
-22.9999
 20
-4.513239999999997
 30
0.0
 70
    32
  0
VERTEX
  5
35C0
  8
241
  6
CONTINUOUS
 10
-22.9999
 20
-4.513239999999997
 30
0.0
 70
    32
  0
VERTEX
  5
35C1
  8
241
  6
CONTINUOUS
 10
-22.9999
 20
-4.513239999999997
 30
0.0
 70
    32
  0
VERTEX
  5
35C2
  8
241
  6
CONTINUOUS
 10
-22.9999
 20
-4.513239999999997
 30
0.0
 70
    32
  0
VERTEX
  5
35C3
  8
241
  6
CONTINUOUS
 10
-22.9999
 20
-4.513239999999997
 30
0.0
 70
    32
  0
VERTEX
  5
35C4
  8
241
  6
CONTINUOUS
 10
-22.9999
 20
-4.513239999999997
 30
0.0
 70
    32
  0
VERTEX
  5
35C5
  8
241
  6
CONTINUOUS
 10
-22.9999
 20
-4.513239999999997
 30
0.0
 70
    32
  0
VERTEX
  5
35C6
  8
241
  6
CONTINUOUS
 10
-22.9999
 20
-4.513239999999997
 30
0.0
 70
    32
  0
VERTEX
  5
35C7
  8
241
  6
CONTINUOUS
 10
-22.9999
 20
-4.513239999999997
 30
0.0
 70
    32
  0
VERTEX
  5
35C8
  8
241
  6
CONTINUOUS
 10
-22.9999
 20
-4.513239999999997
 30
0.0
 70
    32
  0
VERTEX
  5
35C9
  8
241
  6
CONTINUOUS
 10
-22.9999
 20
-4.513239999999997
 30
0.0
 70
    32
  0
VERTEX
  5
35CA
  8
241
  6
CONTINUOUS
 10
-22.9999
 20
-4.513239999999997
 30
0.0
 70
    32
  0
VERTEX
  5
35CB
  8
241
  6
CONTINUOUS
 10
-22.9999
 20
-4.513239999999997
 30
0.0
 70
    32
  0
VERTEX
  5
35CC
  8
241
  6
CONTINUOUS
 10
-22.9999
 20
-4.513239999999997
 30
0.0
 70
    32
  0
VERTEX
  5
35CD
  8
241
  6
CONTINUOUS
 10
-22.9999
 20
-4.513239999999997
 30
0.0
 70
    32
  0
VERTEX
  5
35CE
  8
241
  6
CONTINUOUS
 10
-22.9999
 20
-4.513239999999997
 30
0.0
 70
    32
  0
VERTEX
  5
35CF
  8
241
  6
CONTINUOUS
 10
-22.9999
 20
-4.513239999999997
 30
0.0
 70
    32
  0
VERTEX
  5
35D0
  8
241
  6
CONTINUOUS
 10
-22.9999
 20
-4.513239999999997
 30
0.0
 70
    32
  0
VERTEX
  5
35D1
  8
241
  6
CONTINUOUS
 10
-22.9999
 20
-4.513239999999997
 30
0.0
 70
    32
  0
VERTEX
  5
35D2
  8
241
  6
CONTINUOUS
 10
-22.9999
 20
-4.513239999999997
 30
0.0
 70
    32
  0
VERTEX
  5
35D3
  8
241
  6
CONTINUOUS
 10
-22.9999
 20
-4.513239999999997
 30
0.0
 70
    32
  0
VERTEX
  5
35D4
  8
241
  6
CONTINUOUS
 10
-22.9999
 20
-4.513239999999997
 30
0.0
 70
    32
  0
VERTEX
  5
35D5
  8
241
  6
CONTINUOUS
 10
-22.9999
 20
-4.513239999999997
 30
0.0
 70
    32
  0
VERTEX
  5
35D6
  8
241
  6
CONTINUOUS
 10
-22.9999
 20
-4.513239999999997
 30
0.0
 70
    32
  0
VERTEX
  5
35D7
  8
241
  6
CONTINUOUS
 10
-22.9999
 20
-4.513239999999997
 30
0.0
 70
    32
  0
VERTEX
  5
35D8
  8
241
  6
CONTINUOUS
 10
-22.9999
 20
-4.513239999999997
 30
0.0
 70
    32
  0
VERTEX
  5
35D9
  8
241
  6
CONTINUOUS
 10
-22.9999
 20
-4.513239999999997
 30
0.0
 70
    32
  0
VERTEX
  5
35DA
  8
241
  6
CONTINUOUS
 10
-22.9999
 20
-4.513239999999997
 30
0.0
 70
    32
  0
VERTEX
  5
35DB
  8
241
  6
CONTINUOUS
 10
-22.9999
 20
-4.513239999999997
 30
0.0
 70
    32
  0
VERTEX
  5
35DC
  8
241
  6
CONTINUOUS
 10
-22.9999
 20
-4.513239999999997
 30
0.0
 70
    32
  0
VERTEX
  5
35DD
  8
241
  6
CONTINUOUS
 10
-22.9999
 20
-4.513239999999997
 30
0.0
 70
    32
  0
VERTEX
  5
35DE
  8
241
  6
CONTINUOUS
 10
-22.9999
 20
-4.513239999999997
 30
0.0
 70
    32
  0
VERTEX
  5
35DF
  8
241
  6
CONTINUOUS
 10
-22.9999
 20
-4.513239999999997
 30
0.0
 70
    32
  0
VERTEX
  5
35E0
  8
241
  6
CONTINUOUS
 10
-22.9999
 20
-4.513239999999997
 30
0.0
 70
    32
  0
VERTEX
  5
35E1
  8
241
  6
CONTINUOUS
 10
-22.9999
 20
-4.513239999999997
 30
0.0
 70
    32
  0
VERTEX
  5
35E2
  8
241
  6
CONTINUOUS
 10
-22.9999
 20
-4.513239999999997
 30
0.0
 70
    32
  0
VERTEX
  5
35E3
  8
241
  6
CONTINUOUS
 10
-22.9999
 20
-4.513239999999997
 30
0.0
 70
    32
  0
VERTEX
  5
35E4
  8
241
  6
CONTINUOUS
 10
-22.9999
 20
-4.513239999999997
 30
0.0
 70
    32
  0
VERTEX
  5
35E5
  8
241
  6
CONTINUOUS
 10
-22.9999
 20
-4.513239999999997
 30
0.0
 70
    32
  0
VERTEX
  5
35E6
  8
241
  6
CONTINUOUS
 10
-22.9999
 20
-4.513239999999997
 30
0.0
 70
    32
  0
VERTEX
  5
35E7
  8
241
  6
CONTINUOUS
 10
-22.9999
 20
-4.513239999999997
 30
0.0
 70
    32
  0
VERTEX
  5
35E8
  8
241
  6
CONTINUOUS
 10
-22.9999
 20
-4.513239999999997
 30
0.0
 70
    32
  0
VERTEX
  5
35E9
  8
241
  6
CONTINUOUS
 10
-22.9999
 20
-4.513239999999997
 30
0.0
 70
    32
  0
VERTEX
  5
35EA
  8
241
  6
CONTINUOUS
 10
-23.0
 20
-4.513239999999997
 30
0.0
 70
    32
  0
VERTEX
  5
35EB
  8
241
  6
CONTINUOUS
 10
-23.0
 20
-4.513239999999997
 30
0.0
 70
    32
  0
VERTEX
  5
35EC
  8
241
  6
CONTINUOUS
 10
-23.0
 20
-4.513239999999997
 30
0.0
 70
    32
  0
VERTEX
  5
35ED
  8
241
  6
CONTINUOUS
 10
-23.0
 20
-4.513239999999997
 30
0.0
 70
    32
  0
VERTEX
  5
35EE
  8
241
  6
CONTINUOUS
 10
-23.0
 20
-4.513239999999997
 30
0.0
 70
    32
  0
VERTEX
  5
35EF
  8
241
  6
CONTINUOUS
 10
-23.0
 20
-4.513239999999997
 30
0.0
 70
    32
  0
VERTEX
  5
35F0
  8
241
  6
CONTINUOUS
 10
-23.0
 20
-4.513239999999997
 30
0.0
 70
    32
  0
VERTEX
  5
35F1
  8
241
  6
CONTINUOUS
 10
-23.0
 20
-4.513239999999997
 30
0.0
 70
    32
  0
VERTEX
  5
35F2
  8
241
  6
CONTINUOUS
 10
-23.0
 20
-4.513239999999997
 30
0.0
 70
    32
  0
VERTEX
  5
35F3
  8
241
  6
CONTINUOUS
 10
-23.0
 20
-4.513239999999997
 30
0.0
 70
    32
  0
VERTEX
  5
35F4
  8
241
  6
CONTINUOUS
 10
-23.0
 20
-4.513239999999997
 30
0.0
 70
    32
  0
VERTEX
  5
35F5
  8
241
  6
CONTINUOUS
 10
-23.0
 20
-4.513239999999997
 30
0.0
 70
    32
  0
VERTEX
  5
35F6
  8
241
  6
CONTINUOUS
 10
-23.0
 20
-4.513239999999997
 30
0.0
 70
    32
  0
VERTEX
  5
35F7
  8
241
  6
CONTINUOUS
 10
-23.0
 20
-4.513239999999997
 30
0.0
 70
    32
  0
VERTEX
  5
35F8
  8
241
  6
CONTINUOUS
 10
-23.0
 20
-4.513239999999997
 30
0.0
 70
    32
  0
VERTEX
  5
35F9
  8
241
  6
CONTINUOUS
 10
-23.0
 20
-4.513239999999997
 30
0.0
 70
    32
  0
VERTEX
  5
35FA
  8
241
  6
CONTINUOUS
 10
-23.0
 20
-4.513239999999997
 30
0.0
 70
    32
  0
VERTEX
  5
35FB
  8
241
  6
CONTINUOUS
 10
-23.0
 20
-4.513239999999997
 30
0.0
 70
    32
  0
VERTEX
  5
35FC
  8
241
  6
CONTINUOUS
 10
-23.0
 20
-4.513239999999997
 30
0.0
 70
    32
  0
VERTEX
  5
35FD
  8
241
  6
CONTINUOUS
 10
-23.0
 20
-4.513239999999997
 30
0.0
 70
    32
  0
VERTEX
  5
35FE
  8
241
  6
CONTINUOUS
 10
-23.0
 20
-4.513239999999997
 30
0.0
 70
    32
  0
VERTEX
  5
35FF
  8
241
  6
CONTINUOUS
 10
-23.0
 20
-4.513239999999997
 30
0.0
 70
    32
  0
VERTEX
  5
3600
  8
241
  6
CONTINUOUS
 10
-23.0
 20
-4.513239999999997
 30
0.0
 70
    32
  0
VERTEX
  5
3601
  8
241
  6
CONTINUOUS
 10
-23.0
 20
-4.513239999999997
 30
0.0
 70
    32
  0
VERTEX
  5
3602
  8
241
  6
CONTINUOUS
 10
-23.0
 20
-4.513239999999997
 30
0.0
 70
    32
  0
VERTEX
  5
3603
  8
241
  6
CONTINUOUS
 10
-23.0
 20
-4.513239999999997
 30
0.0
 70
    32
  0
VERTEX
  5
3604
  8
241
  6
CONTINUOUS
 10
-23.0
 20
-4.513239999999997
 30
0.0
 70
    32
  0
VERTEX
  5
3605
  8
241
  6
CONTINUOUS
 10
-23.0
 20
-4.513239999999997
 30
0.0
 70
    32
  0
VERTEX
  5
3606
  8
241
  6
CONTINUOUS
 10
-23.0
 20
-4.513239999999997
 30
0.0
 70
    32
  0
VERTEX
  5
3607
  8
241
  6
CONTINUOUS
 10
-23.0
 20
-4.513239999999997
 30
0.0
 70
    32
  0
VERTEX
  5
3608
  8
241
  6
CONTINUOUS
 10
-23.0
 20
-4.513239999999997
 30
0.0
 70
    32
  0
VERTEX
  5
3609
  8
241
  6
CONTINUOUS
 10
-23.0
 20
-4.513239999999997
 30
0.0
 70
    32
  0
VERTEX
  5
360A
  8
241
  6
CONTINUOUS
 10
-23.0
 20
-4.513239999999997
 30
0.0
 70
    32
  0
VERTEX
  5
360B
  8
241
  6
CONTINUOUS
 10
-23.0
 20
-4.513239999999997
 30
0.0
 70
    32
  0
VERTEX
  5
360C
  8
241
  6
CONTINUOUS
 10
-23.0
 20
-4.513239999999997
 30
0.0
 70
    32
  0
VERTEX
  5
360D
  8
241
  6
CONTINUOUS
 10
-23.0
 20
-4.513239999999997
 30
0.0
 70
    32
  0
VERTEX
  5
360E
  8
241
  6
CONTINUOUS
 10
-23.0
 20
-4.513239999999997
 30
0.0
 70
    32
  0
VERTEX
  5
360F
  8
241
  6
CONTINUOUS
 10
-23.0
 20
-4.513239999999997
 30
0.0
 70
    32
  0
VERTEX
  5
3610
  8
241
  6
CONTINUOUS
 10
-23.0
 20
-4.513239999999997
 30
0.0
 70
    32
  0
VERTEX
  5
3611
  8
241
  6
CONTINUOUS
 10
-23.0
 20
-4.513239999999997
 30
0.0
 70
    32
  0
VERTEX
  5
3612
  8
241
  6
CONTINUOUS
 10
-23.0
 20
-4.513239999999997
 30
0.0
 70
    32
  0
VERTEX
  5
3613
  8
241
  6
CONTINUOUS
 10
-23.0
 20
-4.513239999999997
 30
0.0
 70
    32
  0
VERTEX
  5
3614
  8
241
  6
CONTINUOUS
 10
-23.0
 20
-4.513239999999997
 30
0.0
 70
    32
  0
VERTEX
  5
3615
  8
241
  6
CONTINUOUS
 10
-23.0
 20
-4.513239999999997
 30
0.0
 70
    32
  0
VERTEX
  5
3616
  8
241
  6
CONTINUOUS
 10
-23.0
 20
-4.513239999999997
 30
0.0
 70
    32
  0
VERTEX
  5
3617
  8
241
  6
CONTINUOUS
 10
-23.0
 20
-4.513239999999997
 30
0.0
 70
    32
  0
VERTEX
  5
3618
  8
241
  6
CONTINUOUS
 10
-23.0
 20
-4.513239999999997
 30
0.0
 70
    32
  0
VERTEX
  5
3619
  8
241
  6
CONTINUOUS
 10
-23.0
 20
-4.513239999999997
 30
0.0
 70
    32
  0
VERTEX
  5
361A
  8
241
  6
CONTINUOUS
 10
-23.0
 20
-4.513239999999997
 30
0.0
 70
    32
  0
VERTEX
  5
361B
  8
241
  6
CONTINUOUS
 10
-23.0
 20
-4.513239999999997
 30
0.0
 70
    32
  0
VERTEX
  5
361C
  8
241
  6
CONTINUOUS
 10
-23.0
 20
-4.513239999999997
 30
0.0
 70
    32
  0
VERTEX
  5
361D
  8
241
  6
CONTINUOUS
 10
-23.0
 20
-4.513239999999997
 30
0.0
 70
    32
  0
VERTEX
  5
361E
  8
241
  6
CONTINUOUS
 10
-23.0
 20
-4.513239999999997
 30
0.0
 70
    32
  0
VERTEX
  5
361F
  8
241
  6
CONTINUOUS
 10
-23.0
 20
-4.513239999999997
 30
0.0
 70
    32
  0
VERTEX
  5
3620
  8
241
  6
CONTINUOUS
 10
-23.0
 20
-4.513239999999997
 30
0.0
 70
    32
  0
VERTEX
  5
3621
  8
241
  6
CONTINUOUS
 10
-23.0
 20
-4.513239999999997
 30
0.0
 70
    32
  0
VERTEX
  5
3622
  8
241
  6
CONTINUOUS
 10
-23.0
 20
-4.513239999999997
 30
0.0
 70
    32
  0
VERTEX
  5
3623
  8
241
  6
CONTINUOUS
 10
-23.0
 20
-4.513239999999997
 30
0.0
 70
    32
  0
VERTEX
  5
3624
  8
241
  6
CONTINUOUS
 10
-23.0
 20
-4.513239999999997
 30
0.0
 70
    32
  0
VERTEX
  5
3625
  8
241
  6
CONTINUOUS
 10
-23.0
 20
-4.513239999999997
 30
0.0
 70
    32
  0
VERTEX
  5
3626
  8
241
  6
CONTINUOUS
 10
-23.0
 20
-4.513239999999997
 30
0.0
 70
    32
  0
VERTEX
  5
3627
  8
241
  6
CONTINUOUS
 10
-23.0
 20
-4.513239999999997
 30
0.0
 70
    32
  0
VERTEX
  5
3628
  8
241
  6
CONTINUOUS
 10
-23.0
 20
-4.513239999999997
 30
0.0
 70
    32
  0
VERTEX
  5
3629
  8
241
  6
CONTINUOUS
 10
-23.0
 20
-4.513239999999997
 30
0.0
 70
    32
  0
VERTEX
  5
362A
  8
241
  6
CONTINUOUS
 10
-23.0
 20
-4.513239999999997
 30
0.0
 70
    32
  0
VERTEX
  5
362B
  8
241
  6
CONTINUOUS
 10
-23.0
 20
-4.513239999999997
 30
0.0
 70
    32
  0
VERTEX
  5
362C
  8
241
  6
CONTINUOUS
 10
-23.0
 20
-4.513239999999997
 30
0.0
 70
    32
  0
VERTEX
  5
362D
  8
241
  6
CONTINUOUS
 10
-23.0
 20
-4.513239999999997
 30
0.0
 70
    32
  0
VERTEX
  5
362E
  8
241
  6
CONTINUOUS
 10
-23.0
 20
-4.513239999999997
 30
0.0
 70
    32
  0
VERTEX
  5
362F
  8
241
  6
CONTINUOUS
 10
-23.0
 20
-4.513239999999997
 30
0.0
 70
    32
  0
VERTEX
  5
3630
  8
241
  6
CONTINUOUS
 10
-23.0
 20
-4.513239999999997
 30
0.0
 70
    32
  0
VERTEX
  5
3631
  8
241
  6
CONTINUOUS
 10
-23.0
 20
-4.513239999999997
 30
0.0
 70
    32
  0
VERTEX
  5
3632
  8
241
  6
CONTINUOUS
 10
-23.0
 20
-4.513239999999997
 30
0.0
 70
    32
  0
SEQEND
  5
3633
  8
241
  6
CONTINUOUS
  0
ARC
  5
1570
  8
241
  6
CONTINUOUS
 10
-22.999912583008442
 20
24.778148728784469
 30
0.0
 40
29.291387239514052
 50
261.66151348122708
 51
278.33848651877798
  0
LINE
  5
1579
  8
250
  6
CONTINUOUS
 10
-60.959196708535167
 20
10.747291695330979
 30
0.0
 11
-42.692530041868523
 21
10.747291695330979
 31
0.0
  0
LINE
  5
157A
  8
250
  6
CONTINUOUS
 10
-42.692530041868523
 20
10.747291695330979
 30
0.0
 11
-35.194587262580697
 21
-2.0711148218465341
 31
0.0
  0
LINE
  5
157B
  8
250
  6
CONTINUOUS
 10
-35.194587262580697
 20
-2.0711148218465341
 30
0.0
 11
-34.068654477596262
 21
-3.9959980296534781
 31
0.0
  0
LINE
  5
157C
  8
250
  6
CONTINUOUS
 10
-35.44800294332186
 20
-2.2193466844438912
 30
0.0
 11
-34.068654477596262
 21
-3.9959980296534781
 31
0.0
  0
LINE
  5
157D
  8
250
  6
CONTINUOUS
 10
-34.068654477596262
 20
-3.9959980296534781
 30
0.0
 11
-34.941171581839562
 21
-1.9228829592491641
 31
0.0
  0
TEXT
  5
157E
  8
250
  6
CONTINUOUS
 10
-61.492530041868527
 20
12.14729169533099
 30
0.0
 40
2.799999999999998
  1
ENH7-1
  7
YOKO
  0
POINT
  5
1581
  8
0
 10
-732.00000178813718
 20
-444.0000000000008
 30
0.0
1001
GENIUS_GENODEF_13
1002
{
1000
HIER
1070
     1
1002
}
1002
{
1000
MANEDIT
1070
     0
1002
}
1002
{
1000
NOSEL
1070
     0
1002
}
1002
{
1000
BEHIND
1070
     0
1002
}
1002
{
1000
OTHER
1070
     0
1002
}
1002
{
1000
REACTOR
1002
}
1001
GENIUS_GENOBJ-N-CHA_13
1002
{
1000
OWNER
1000
GEN
1002
}
1001
GENIUS_GENOENT_13
1002
{
1000
MYREF
1005
1581
1002
}
1002
{
1000
GRP
1005
0
1002
}
1001
GENIUS_GENOLIS_13
1002
{
1000
ENT
1005
1567
1002
}
  0
POINT
  5
1582
  8
0
 10
-732.00000178813718
 20
-444.0000000000008
 30
0.0
1001
GENIUS_GENOLIS_13
1002
{
1000
ENT
1005
154D
1002
}
1001
GENIUS_GENODEF_13
1002
{
1000
HIER
1070
     1
1002
}
1002
{
1000
MANEDIT
1070
     0
1002
}
1002
{
1000
NOSEL
1070
     0
1002
}
1002
{
1000
BEHIND
1070
     0
1002
}
1002
{
1000
OTHER
1070
     0
1002
}
1002
{
1000
REACTOR
1002
}
1001
GENIUS_GENOENT_13
1002
{
1000
MYREF
1005
1582
1002
}
1002
{
1000
GRP
1005
0
1002
}
1001
GENIUS_GENOBJ-N-CHA_13
1002
{
1000
OWNER
1000
GEN
1002
}
  0
LINE
  5
1593
  8
246
  6
PHANTOM2
 10
-51.000000238420022
 20
-17.499998807906952
 30
0.0
 11
-92.999999905006902
 21
-17.499998807906952
 31
0.0
  0
LINE
  5
15A1
  8
246
  6
PHANTOM2
 10
-92.999999905006902
 20
-17.499998807906952
 30
0.0
 11
-95.000000000001904
 21
-19.500002861022789
 31
0.0
  0
LINE
  5
15A2
  8
246
  6
PHANTOM2
 10
-95.000000000001904
 20
-19.500002861022789
 30
0.0
 11
-95.000000000001904
 21
-28.703062382957459
 31
0.0
  0
LINE
  5
15A3
  8
246
  6
PHANTOM2
 10
-49.99999821186303
 20
-18.500000834463961
 30
0.0
 11
-51.000000238420022
 21
-17.499998807906952
 31
0.0
  0
LINE
  5
15F5
  8
250
  6
CONTINUOUS
 10
0.0999999999999375
 20
-0.0000000000000001
 30
0.0
 11
12.59999999999995
 21
-0.0000000000000037
 31
0.0
  0
LINE
  5
15F6
  8
250
  6
CONTINUOUS
 10
11.59999999999995
 20
-2.2300000000000031
 30
0.0
 11
11.59999999999992
 21
-111.6166665735345
 31
0.0
  0
LINE
  5
15FA
  8
250
  6
CONTINUOUS
 10
11.22833333333328
 20
-2.2300000000000031
 30
0.0
 11
11.59999999999995
 21
-0.0000000000000034
 31
0.0
  0
LINE
  5
15FB
  8
250
  6
CONTINUOUS
 10
11.971666666666611
 20
-2.2300000000000031
 30
0.0
 11
11.59999999999995
 21
-0.0000000000000034
 31
0.0
  0
LINE
  5
15FC
  8
250
  6
CONTINUOUS
 10
11.59999999999995
 20
-0.0000000000000034
 30
0.0
 11
11.59999999999995
 21
-2.2300000000000031
 31
0.0
  0
LINE
  5
17CB
  8
245
  6
CENTER2
 10
-22.999999999999972
 20
23.504288627762111
 30
0.0
 11
-22.999999999999972
 21
45.781286558761721
 31
0.0
  0
LINE
  5
17D0
  8
241
  6
CONTINUOUS
 10
-0.0005481860980012
 20
50.479065617501618
 30
0.0
 11
-0.5036475568730907
 21
40.879357756158491
 31
0.0
1001
GRPNAME
1000
PASTMD01
  0
CIRCLE
  5
17D1
  8
246
  6
PHANTOM2
 10
-3.4227466443313941
 20
45.845378347900137
 30
0.0
 40
3.174999999999998
1001
GRPNAME
1000
PASTMD01
  0
ARC
  5
17D2
  8
241
  6
CONTINUOUS
 10
-0.903099370774953
 20
40.900292138655509
 30
0.0
 40
0.399999999999995
 50
237.0000000000212
 51
356.99999998381821
1001
GRPNAME
1000
PASTMD01
  0
LINE
  5
17DA
  8
241
  6
CONTINUOUS
 10
-9.1829961762250054
 20
45.800374677868021
 30
0.0
 11
-1.1209549847808371
 21
40.564823911477269
 31
0.0
1001
GRPNAME
1000
PASTMD01
  0
LINE
  5
17DB
  8
241
  6
CONTINUOUS
 10
-9.1467367621150952
 20
46.492245514721539
 30
0.0
 11
-0.5815961998958416
 21
50.856402609673921
 31
0.0
1001
GRPNAME
1000
PASTMD01
  0
ARC
  5
17DC
  8
241
  6
CONTINUOUS
 10
-8.9651405622191191
 20
46.135842905046253
 30
0.0
 40
0.3999999999999995
 50
117.000000055809
 51
237.0000000558064
1001
GRPNAME
1000
PASTMD01
  0
ARC
  5
17E3
  8
241
  6
CONTINUOUS
 10
-0.3999999999998067
 20
50.499999999998629
 30
0.0
 40
0.3999999999999822
 50
357.00000000002291
 51
117.0000000000274
1001
GRPNAME
1000
PASTMD01
  0
LINE
  5
17E7
  8
241
  6
CONTINUOUS
 10
-17.500909166052931
 20
34.157359312880693
 30
0.0
 11
-17.500909166052931
 21
47.736654957643452
 31
0.0
  0
LINE
  5
17E8
  8
241
  6
CONTINUOUS
 10
-28.499090833946951
 20
38.900492492152281
 30
0.0
 11
-28.499090833946951
 21
34.89999999999997
 31
0.0
  0
LINE
  5
17F0
  8
240
  6
CONTINUOUS
 10
-20.099999999999831
 20
25.899999999999949
 30
0.0
 11
-20.45141947907096
 21
27.999999999999989
 31
0.0
  0
LINE
  5
17F2
  8
240
  6
CONTINUOUS
 10
-25.548580520928951
 20
28.000000000000011
 30
0.0
 11
-25.899999999999981
 21
25.899999999999959
 31
0.0
  0
LINE
  5
17F3
  8
240
  6
CONTINUOUS
 10
-20.45141947907096
 20
27.999999999999989
 30
0.0
 11
-25.548580520928951
 21
28.000000000000011
 31
0.0
  0
LINE
  5
17F7
  8
241
  6
CONTINUOUS
 10
-28.5
 20
38.899583326099233
 30
0.0
 11
-28.5
 21
34.157359312877311
 31
0.0
  0
LINE
  5
17FF
  8
240
  6
CONTINUOUS
 10
-8.9999999999999485
 20
32.399999999999977
 30
0.0
 11
-11.99999999999997
 21
32.399999999999977
 31
0.0
  0
LINE
  5
1801
  8
240
  6
CONTINUOUS
 10
-35.0
 20
31.1573593128807
 30
0.0
 11
-34.999999999999957
 21
25.899999999999949
 31
0.0
  0
ARC
  5
1802
  8
241
  6
CONTINUOUS
 10
-31.999999999999989
 20
31.1573593128807
 30
0.0
 40
3.0
 50
90.0
 51
129.51321055999421
  0
LINE
  5
1808
  8
240
  6
CONTINUOUS
 10
-11.99999999999997
 20
25.899999999999959
 30
0.0
 11
-11.99999999999997
 21
32.399999999999977
 31
0.0
  0
LINE
  5
1809
  8
240
  6
CONTINUOUS
 10
-20.099999999999831
 20
25.899999999999949
 30
0.0
 11
-11.99999999999997
 21
25.899999999999959
 31
0.0
  0
LINE
  5
180A
  8
240
  6
CONTINUOUS
 10
-34.999999999999957
 20
25.899999999999949
 30
0.0
 11
-25.899999999999981
 21
25.899999999999959
 31
0.0
  0
LINE
  5
180B
  8
241
  6
CONTINUOUS
 10
-31.999999999999989
 20
34.157359312880693
 30
0.0
 11
-28.499999999999972
 21
34.157359312880693
 31
0.0
  0
LINE
  5
180D
  8
241
  6
CONTINUOUS
 10
-17.500909166052931
 20
34.157359312880693
 30
0.0
 11
-13.75735931288072
 21
34.157359312880693
 31
0.0
  0
LINE
  5
180E
  8
240
  6
CONTINUOUS
 10
-21.285267771353059
 20
46.114732228646901
 30
0.0
 11
-28.499999999999972
 21
38.899999999999977
 31
0.0
  0
LINE
  5
1811
  8
240
  6
CONTINUOUS
 10
-33.938355147766153
 20
33.447070936891109
 30
0.0
 11
-28.499999999999972
 21
38.899999999999977
 31
0.0
  0
LINE
  5
1813
  8
240
  6
CONTINUOUS
 10
-17.500909166052931
 20
47.736654957643452
 30
0.0
 11
-0.9910106895341463
 21
50.64779550781121
 31
0.0
  0
LINE
  5
1814
  8
240
  6
CONTINUOUS
 10
-0.8048431927677969
 20
37.657281540131642
 30
0.0
 11
-0.6511669313235942
 21
40.58959929040811
 31
0.0
  0
LINE
  5
1817
  8
240
  6
CONTINUOUS
 10
-1.3034727275223761
 20
36.843592092590129
 30
0.0
 11
-8.9999999999999485
 21
32.399999999999977
 31
0.0
  0
LINE
  5
181E
  8
241
  6
CONTINUOUS
 10
-11.99999999999997
 20
32.399999999999977
 30
0.0
 11
-13.75735931288072
 21
34.157359312880693
 31
0.0
  0
ARC
  5
196A
  8
240
  6
CONTINUOUS
 10
-31.999999999999989
 20
31.1573593128807
 30
0.0
 40
3.0
 50
130.24957983104349
 51
180.0
  0
TEXT
  5
1A4B
  8
250
  6
CONTINUOUS
 10
-18.17306202876523
 20
18.040391716549038
 30
0.0
 40
3.0
  1
+25/\U+03C6
  7
YOKO
  0
LINE
  5
1A51
  8
250
  6
CONTINUOUS
 10
-57.568075970756063
 20
44.612451155652927
 30
0.0
 11
-38.501409304089407
 21
44.612451155652927
 31
0.0
  0
LINE
  5
1A52
  8
250
  6
CONTINUOUS
 10
-38.501409304089407
 20
44.612451155652927
 30
0.0
 11
-33.126022255714233
 21
37.385341953993503
 31
0.0
  0
LINE
  5
1A53
  8
250
  6
CONTINUOUS
 10
-33.126022255714233
 20
37.385341953993503
 30
0.0
 11
-31.795154639578399
 21
35.596014877039451
 31
0.0
  0
LINE
  5
1A54
  8
250
  6
CONTINUOUS
 10
-33.36159163334495
 20
37.210129909152791
 30
0.0
 11
-31.795154639578399
 21
35.596014877039451
 31
0.0
  0
LINE
  5
1A55
  8
250
  6
CONTINUOUS
 10
-31.795154639578399
 20
35.596014877039451
 30
0.0
 11
-32.890452878083522
 21
37.56055399883423
 31
0.0
  0
INSERT
  5
1A56
  8
250
  6
CONTINUOUS
  2
*U3
 10
0.0
 20
0.0
 30
0.0
  0
LINE
  5
1B8C
  8
245
  6
CENTER2
 10
-22.999999999999972
 20
91.515772955407769
 30
0.0
 11
-22.999999999999972
 21
66.107809360818294
 31
0.0
  0
LINE
  5
1BA0
  8
241
  6
CONTINUOUS
 10
-0.0005481860980296
 20
104.9790656175016
 30
0.0
 11
-0.5036475568730907
 21
95.379357756158484
 31
0.0
1001
GRPNAME
1000
PASTMD01
  0
CIRCLE
  5
1BA1
  8
246
 10
-3.4227466443313941
 20
100.3453783479
 30
0.0
 40
3.174999999999998
1001
GRPNAME
1000
PASTMD01
  0
ARC
  5
1BA2
  8
241
  6
CONTINUOUS
 10
-0.903099370774953
 20
95.400292138655516
 30
0.0
 40
0.399999999999995
 50
237.0000000000212
 51
356.99999998381821
1001
GRPNAME
1000
PASTMD01
  0
LINE
  5
1BAA
  8
241
  6
CONTINUOUS
 10
-9.1829961762250054
 20
100.30037467786801
 30
0.0
 11
-1.1209549847808371
 21
95.064823911477248
 31
0.0
1001
GRPNAME
1000
PASTMD01
  0
ARC
  5
1BAC
  8
241
  6
CONTINUOUS
 10
-8.9651405622191191
 20
100.6358429050463
 30
0.0
 40
0.3999999999999995
 50
117.0000000558089
 51
237.0000000558064
1001
GRPNAME
1000
PASTMD01
  0
LINE
  5
1BB1
  8
241
  6
CONTINUOUS
 10
-9.1467367621150952
 20
100.9922455147215
 30
0.0
 11
-0.5815961998958416
 21
105.35640260967391
 31
0.0
1001
GRPNAME
1000
PASTMD01
  0
ARC
  5
1BB3
  8
241
  6
CONTINUOUS
 10
-0.3999999999998067
 20
104.99999999999859
 30
0.0
 40
0.3999999999999822
 50
357.00000000002291
 51
117.0000000000274
1001
GRPNAME
1000
PASTMD01
  0
LINE
  5
1BB5
  8
240
  6
CONTINUOUS
 10
-20.09999999999987
 20
67.899999999999935
 30
0.0
 11
-11.99999999999997
 21
67.899999999999935
 31
0.0
  0
LINE
  5
1BB6
  8
240
  6
CONTINUOUS
 10
-35.0
 20
67.899999999999935
 30
0.0
 11
-25.900000000000009
 21
67.899999999999935
 31
0.0
  0
LINE
  5
1BBF
  8
240
  6
CONTINUOUS
 10
-20.09999999999987
 20
67.899999999999935
 30
0.0
 11
-20.451419479070971
 21
70.0
 31
0.0
  0
LINE
  5
1BC1
  8
240
  6
CONTINUOUS
 10
-25.548580520928979
 20
70.0
 30
0.0
 11
-25.900000000000009
 21
67.899999999999935
 31
0.0
  0
LINE
  5
1BC2
  8
240
  6
CONTINUOUS
 10
-20.451419479070971
 20
70.0
 30
0.0
 11
-25.548580520928979
 21
70.0
 31
0.0
  0
LINE
  5
1BC6
  8
241
  6
CONTINUOUS
 10
-28.49999999999994
 20
80.899999869787194
 30
0.0
 11
-28.499999999999989
 21
76.157399999999981
 31
0.0
  0
LINE
  5
1BC7
  8
241
  6
CONTINUOUS
 10
-17.49999999999994
 20
76.157359312880672
 30
0.0
 11
-17.499999999999972
 21
96.960019331868054
 31
0.0
  0
LINE
  5
1BCF
  8
240
  6
CONTINUOUS
 10
-0.9976410522916031
 20
88.478479229457307
 30
0.0
 11
-0.651166931323573
 21
95.089599290408131
 31
0.0
  0
LINE
  5
1BD9
  8
240
  6
CONTINUOUS
 10
-35.0
 20
73.157359312880672
 30
0.0
 11
-34.999999999999957
 21
67.899999999999935
 31
0.0
  0
ARC
  5
1BDA
  8
241
  6
CONTINUOUS
 10
-31.999999999999972
 20
73.157359312880672
 30
0.0
 40
3.0
 50
90.0
 51
134.98580463959991
  0
LINE
  5
1BE2
  8
240
  6
CONTINUOUS
 10
-11.99999999999997
 20
74.399999999999949
 30
0.0
 11
-11.99999999999997
 21
67.899999999999935
 31
0.0
  0
LINE
  5
1BE4
  8
241
  6
CONTINUOUS
 10
-31.999999999999972
 20
76.157359312880672
 30
0.0
 11
-28.499999999999972
 21
76.157359312880672
 31
0.0
  0
LINE
  5
1BE5
  8
241
  6
CONTINUOUS
 10
-17.49999999999994
 20
76.157359312880672
 30
0.0
 11
-13.757359312880631
 21
76.157359312880672
 31
0.0
  0
LINE
  5
1BE7
  8
240
  6
CONTINUOUS
 10
-25.156854140981789
 20
84.24314572880543
 30
0.0
 11
-28.499999999999972
 21
80.899999869787223
 31
0.0
  0
LINE
  5
1BE8
  8
240
  6
CONTINUOUS
 10
-17.499999999999972
 20
96.960019347755207
 30
0.0
 11
-23.885505160198718
 21
85.899999978297785
 31
0.0
  0
ARC
  5
1BE9
  8
240
  6
CONTINUOUS
 10
-30.813708390474211
 20
89.899999978297785
 30
0.0
 40
8.0
 50
315.00000000000028
 51
329.99999999999972
  0
LINE
  5
1BEB
  8
240
  6
CONTINUOUS
 10
-34.121218471232453
 20
75.278781398554614
 30
0.0
 11
-28.499999999999972
 21
80.899999869787194
 31
0.0
  0
LINE
  5
1BEE
  8
240
  6
CONTINUOUS
 10
-1.1302451832617411
 20
88.030815185700234
 30
0.0
 11
-8.9999999999999662
 21
74.399999999999949
 31
0.0
  0
LINE
  5
1BEF
  8
240
  6
CONTINUOUS
 10
-8.9999999999999662
 20
74.399999999999949
 30
0.0
 11
-11.99999999999997
 21
74.399999999999949
 31
0.0
  0
LINE
  5
1BF1
  8
240
  6
CONTINUOUS
 10
-13.655507858174939
 20
102.9044502860685
 30
0.0
 11
-1.0217811604874061
 21
105.1321171697676
 31
0.0
  0
LINE
  5
1BF2
  8
240
  6
CONTINUOUS
 10
-17.499999999999972
 20
96.960019347755164
 30
0.0
 11
-14.34788508429245
 21
102.4196425330563
 31
0.0
  0
ARC
  5
1D4D
  8
240
  6
CONTINUOUS
 10
-32.0
 20
73.157359312880672
 30
0.0
 40
3.0
 50
134.9858046374089
 51
180.0
  0
LINE
  5
1D96
  8
250
  6
CONTINUOUS
 10
-57.568075970756077
 20
86.612451155652963
 30
0.0
 11
-38.501409304089421
 21
86.612451155652963
 31
0.0
  0
LINE
  5
1D97
  8
250
  6
CONTINUOUS
 10
-38.501409304089421
 20
86.612451155652963
 30
0.0
 11
-33.126022255714247
 21
79.385341953993503
 31
0.0
  0
LINE
  5
1D98
  8
250
  6
CONTINUOUS
 10
-33.126022255714247
 20
79.385341953993503
 30
0.0
 11
-31.79515463957841
 21
77.596014877039451
 31
0.0
  0
LINE
  5
1D99
  8
250
  6
CONTINUOUS
 10
-33.361591633344958
 20
79.210129909152784
 30
0.0
 11
-31.79515463957841
 21
77.596014877039451
 31
0.0
  0
LINE
  5
1D9A
  8
250
  6
CONTINUOUS
 10
-31.79515463957841
 20
77.596014877039451
 30
0.0
 11
-32.890452878083551
 21
79.560553998834223
 31
0.0
  0
INSERT
  5
1D9B
  8
250
  6
CONTINUOUS
  2
*U4
 10
0.0
 20
0.0
 30
0.0
  0
TEXT
  5
1D9C
  8
250
  6
CONTINUOUS
 10
-18.173062028765241
 20
60.040391716549053
 30
0.0
 40
3.0
  1
+50/\U+03C6
  7
YOKO
  0
TEXT
  5
1D9F
  8
241
  6
CONTINUOUS
 10
-91.0
 20
-7.0
 30
0.0
 40
4.0
  1
EWN200
  7
YOKO
  0
ARC
  5
4B9A
  8
241
  6
CONTINUOUS
 10
-23.000347396762791
 20
63.13341606712325
 30
0.0
 40
29.493315952576079
 50
259.25308413796921
 51
280.74649197241098
  0
ARC
  5
4BA3
  8
241
  6
CONTINUOUS
 10
-22.999892804782618
 20
105.1382318367024
 30
0.0
 40
29.498132027403091
 50
259.25396088391108
 51
280.74561526150387
  0
LINE
  5
4BA4
  8
241
  6
CONTINUOUS
 10
-11.99999999999997
 20
74.399999999999949
 30
0.0
 11
-13.757359312880631
 21
76.157359312880672
 31
0.0
  0
LINE
  5
4BAE
  8
241
  6
CONTINUOUS
 10
-8.9999970793748911
 20
-19.075580537319141
 30
0.0
 11
-4.500162501847778
 21
-22.893663545247112
 31
0.0
  0
LINE
  5
4BAF
  8
241
  6
CONTINUOUS
 10
-4.500162501847778
 20
-22.893663545247112
 30
0.0
 11
-4.0
 21
-23.1218
 31
0.0
  0
ARC
  5
4BB1
  8
241
  6
CONTINUOUS
 10
-56.659421901402851
 20
6.401528455746182
 30
0.0
 40
47.464879238782331
 50
310.26707137386308
 51
326.3643644547721
  0
ARC
  5
4BB2
  8
241
  6
CONTINUOUS
 10
-29.679437227709219
 20
-32.26380067507457
 30
0.0
 40
0.5130659001838709
 50
231.3327970507041
 51
298.41185443530679
  0
ARC
  5
4BB3
  8
241
  6
CONTINUOUS
 10
-22.91223559170934
 20
89.966082214322199
 30
0.0
 40
108.200787349607
 50
263.31924781740082
 51
276.58717751339708
  0
ARC
  5
4BB9
  8
241
  6
CONTINUOUS
 10
-23.880066200374468
 20
-123.9117011809381
 30
0.0
 40
104.8444444805089
 50
86.4851332197929
 51
89.278012675781156
  0
ARC
  5
4BBA
  8
241
  6
CONTINUOUS
 10
-17.47202032918182
 20
-19.664275114691311
 30
0.0
 40
0.4002835253109896
 50
325.72200290951281
 51
87.177921287725695
  0
ARC
  5
4BBF
  8
241
  6
CONTINUOUS
 10
-13.526683905254639
 20
-38.989503674624103
 30
0.0
 40
3.0168558304680322
 50
128.6009664976059
 51
170.2536935650831
  0
ARC
  5
4BC1
  8
241
  6
CONTINUOUS
 10
-12.86415239422279
 20
-46.847111143927698
 30
0.0
 40
5.1539262432593764
 50
225.1339686510843
 51
268.85132645325348
  0
ARC
  5
4BC2
  8
241
  6
CONTINUOUS
 10
-16.579471759925379
 20
-74.944441095195373
 30
0.0
 40
5.860533723009655
 50
102.25043379372821
 51
138.9631513243838
  0
ARC
  5
4BC3
  8
241
  6
CONTINUOUS
 10
-16.230012867940111
 20
-79.476402213686512
 30
0.0
 40
6.5155615074419551
 50
222.9379935166609
 51
255.8484213652325
  0
POLYLINE
  5
4BD9
  8
241
  6
CONTINUOUS
 66
     1
 10
0.0
 20
0.0
 30
0.0
 70
     8
  0
VERTEX
  5
4C78
  8
241
  6
CONTINUOUS
 10
-12.584199999999999
 20
-72.823599999999999
 30
0.0
 70
    32
  0
VERTEX
  5
4C79
  8
241
  6
CONTINUOUS
 10
-12.7948
 20
-72.8292
 30
0.0
 70
    32
  0
VERTEX
  5
4C7A
  8
241
  6
CONTINUOUS
 10
-13.004799999999999
 20
-72.846100000000007
 30
0.0
 70
    32
  0
VERTEX
  5
4C7B
  8
241
  6
CONTINUOUS
 10
-13.213900000000001
 20
-72.874200000000002
 30
0.0
 70
    32
  0
VERTEX
  5
4C7C
  8
241
  6
CONTINUOUS
 10
-13.4214
 20
-72.913499999999999
 30
0.0
 70
    32
  0
VERTEX
  5
4C7D
  8
241
  6
CONTINUOUS
 10
-13.626899999999999
 20
-72.963800000000006
 30
0.0
 70
    32
  0
VERTEX
  5
4C7E
  8
241
  6
CONTINUOUS
 10
-13.8299
 20
-73.025000000000006
 30
0.0
 70
    32
  0
VERTEX
  5
4C7F
  8
241
  6
CONTINUOUS
 10
-14.0298
 20
-73.09699999999998
 30
0.0
 70
    32
  0
VERTEX
  5
4C80
  8
241
  6
CONTINUOUS
 10
-14.2263
 20
-73.179599999999979
 30
0.0
 70
    32
  0
VERTEX
  5
4C81
  8
241
  6
CONTINUOUS
 10
-14.418900000000001
 20
-73.272599999999983
 30
0.0
 70
    32
  0
VERTEX
  5
4C82
  8
241
  6
CONTINUOUS
 10
-14.606999999999999
 20
-73.375799999999984
 30
0.0
 70
    32
  0
VERTEX
  5
4C83
  8
241
  6
CONTINUOUS
 10
-14.7903
 20
-73.488900000000001
 30
0.0
 70
    32
  0
VERTEX
  5
4C84
  8
241
  6
CONTINUOUS
 10
-14.9682
 20
-73.611699999999999
 30
0.0
 70
    32
  0
VERTEX
  5
4C85
  8
241
  6
CONTINUOUS
 10
-15.1404
 20
-73.743899999999982
 30
0.0
 70
    32
  0
VERTEX
  5
4C86
  8
241
  6
CONTINUOUS
 10
-15.3064
 20
-73.88509999999998
 30
0.0
 70
    32
  0
VERTEX
  5
4C87
  8
241
  6
CONTINUOUS
 10
-15.4659
 20
-74.034999999999982
 30
0.0
 70
    32
  0
VERTEX
  5
4C88
  8
241
  6
CONTINUOUS
 10
-15.618499999999999
 20
-74.193299999999979
 30
0.0
 70
    32
  0
VERTEX
  5
4C89
  8
241
  6
CONTINUOUS
 10
-15.7637
 20
-74.359499999999983
 30
0.0
 70
    32
  0
VERTEX
  5
4C8A
  8
241
  6
CONTINUOUS
 10
-15.901199999999999
 20
-74.533299999999983
 30
0.0
 70
    32
  0
VERTEX
  5
4C8B
  8
241
  6
CONTINUOUS
 10
-16.030799999999999
 20
-74.71429999999998
 30
0.0
 70
    32
  0
VERTEX
  5
4C8C
  8
241
  6
CONTINUOUS
 10
-16.152100000000001
 20
-74.901899999999998
 30
0.0
 70
    32
  0
VERTEX
  5
4C8D
  8
241
  6
CONTINUOUS
 10
-16.264800000000001
 20
-75.0959
 30
0.0
 70
    32
  0
VERTEX
  5
4C8E
  8
241
  6
CONTINUOUS
 10
-16.368600000000001
 20
-75.295599999999979
 30
0.0
 70
    32
  0
VERTEX
  5
4C8F
  8
241
  6
CONTINUOUS
 10
-16.4633
 20
-75.500600000000006
 30
0.0
 70
    32
  0
VERTEX
  5
4C90
  8
241
  6
CONTINUOUS
 10
-16.5486
 20
-75.710400000000007
 30
0.0
 70
    32
  0
VERTEX
  5
4C91
  8
241
  6
CONTINUOUS
 10
-16.624400000000001
 20
-75.924599999999984
 30
0.0
 70
    32
  0
VERTEX
  5
4C92
  8
241
  6
CONTINUOUS
 10
-16.6905
 20
-76.142499999999998
 30
0.0
 70
    32
  0
VERTEX
  5
4C93
  8
241
  6
CONTINUOUS
 10
-16.746700000000001
 20
-76.36369999999998
 30
0.0
 70
    32
  0
VERTEX
  5
4C94
  8
241
  6
CONTINUOUS
 10
-16.7928
 20
-76.587699999999998
 30
0.0
 70
    32
  0
VERTEX
  5
4C95
  8
241
  6
CONTINUOUS
 10
-16.828800000000001
 20
-76.813800000000001
 30
0.0
 70
    32
  0
VERTEX
  5
4C96
  8
241
  6
CONTINUOUS
 10
-16.854600000000001
 20
-77.041600000000003
 30
0.0
 70
    32
  0
VERTEX
  5
4C97
  8
241
  6
CONTINUOUS
 10
-16.870100000000001
 20
-77.270499999999998
 30
0.0
 70
    32
  0
VERTEX
  5
4C98
  8
241
  6
CONTINUOUS
 10
-16.875299999999999
 20
-77.5
 30
0.0
 70
    32
  0
VERTEX
  5
4C99
  8
241
  6
CONTINUOUS
 10
-16.870100000000001
 20
-77.729500000000002
 30
0.0
 70
    32
  0
VERTEX
  5
4C9A
  8
241
  6
CONTINUOUS
 10
-16.854600000000001
 20
-77.958399999999983
 30
0.0
 70
    32
  0
VERTEX
  5
4C9B
  8
241
  6
CONTINUOUS
 10
-16.828800000000001
 20
-78.186199999999999
 30
0.0
 70
    32
  0
VERTEX
  5
4C9C
  8
241
  6
CONTINUOUS
 10
-16.7928
 20
-78.412300000000002
 30
0.0
 70
    32
  0
VERTEX
  5
4C9D
  8
241
  6
CONTINUOUS
 10
-16.746700000000001
 20
-78.636300000000006
 30
0.0
 70
    32
  0
VERTEX
  5
4C9E
  8
241
  6
CONTINUOUS
 10
-16.6905
 20
-78.857500000000002
 30
0.0
 70
    32
  0
VERTEX
  5
4C9F
  8
241
  6
CONTINUOUS
 10
-16.624400000000001
 20
-79.075400000000002
 30
0.0
 70
    32
  0
VERTEX
  5
4CA0
  8
241
  6
CONTINUOUS
 10
-16.5486
 20
-79.289599999999979
 30
0.0
 70
    32
  0
VERTEX
  5
4CA1
  8
241
  6
CONTINUOUS
 10
-16.4633
 20
-79.49939999999998
 30
0.0
 70
    32
  0
VERTEX
  5
4CA2
  8
241
  6
CONTINUOUS
 10
-16.368600000000001
 20
-79.704400000000007
 30
0.0
 70
    32
  0
VERTEX
  5
4CA3
  8
241
  6
CONTINUOUS
 10
-16.264800000000001
 20
-79.9041
 30
0.0
 70
    32
  0
VERTEX
  5
4CA4
  8
241
  6
CONTINUOUS
 10
-16.152100000000001
 20
-80.098099999999988
 30
0.0
 70
    32
  0
VERTEX
  5
4CA5
  8
241
  6
CONTINUOUS
 10
-16.030799999999999
 20
-80.285700000000006
 30
0.0
 70
    32
  0
VERTEX
  5
4CA6
  8
241
  6
CONTINUOUS
 10
-15.901199999999999
 20
-80.466700000000003
 30
0.0
 70
    32
  0
VERTEX
  5
4CA7
  8
241
  6
CONTINUOUS
 10
-15.7637
 20
-80.640499999999989
 30
0.0
 70
    32
  0
VERTEX
  5
4CA8
  8
241
  6
CONTINUOUS
 10
-15.618499999999999
 20
-80.806700000000006
 30
0.0
 70
    32
  0
VERTEX
  5
4CA9
  8
241
  6
CONTINUOUS
 10
-15.4659
 20
-80.965000000000003
 30
0.0
 70
    32
  0
VERTEX
  5
4CAA
  8
241
  6
CONTINUOUS
 10
-15.3064
 20
-81.114900000000006
 30
0.0
 70
    32
  0
VERTEX
  5
4CAB
  8
241
  6
CONTINUOUS
 10
-15.1404
 20
-81.256099999999989
 30
0.0
 70
    32
  0
VERTEX
  5
4CAC
  8
241
  6
CONTINUOUS
 10
-14.9682
 20
-81.388300000000001
 30
0.0
 70
    32
  0
VERTEX
  5
4CAD
  8
241
  6
CONTINUOUS
 10
-14.7903
 20
-81.511099999999999
 30
0.0
 70
    32
  0
VERTEX
  5
4CAE
  8
241
  6
CONTINUOUS
 10
-14.606999999999999
 20
-81.624200000000002
 30
0.0
 70
    32
  0
VERTEX
  5
4CAF
  8
241
  6
CONTINUOUS
 10
-14.418900000000001
 20
-81.727400000000003
 30
0.0
 70
    32
  0
VERTEX
  5
4CB0
  8
241
  6
CONTINUOUS
 10
-14.2263
 20
-81.820400000000006
 30
0.0
 70
    32
  0
VERTEX
  5
4CB1
  8
241
  6
CONTINUOUS
 10
-14.0298
 20
-81.903000000000006
 30
0.0
 70
    32
  0
VERTEX
  5
4CB2
  8
241
  6
CONTINUOUS
 10
-13.8299
 20
-81.97499999999998
 30
0.0
 70
    32
  0
VERTEX
  5
4CB3
  8
241
  6
CONTINUOUS
 10
-13.626899999999999
 20
-82.036199999999994
 30
0.0
 70
    32
  0
VERTEX
  5
4CB4
  8
241
  6
CONTINUOUS
 10
-13.4214
 20
-82.086500000000001
 30
0.0
 70
    32
  0
VERTEX
  5
4CB5
  8
241
  6
CONTINUOUS
 10
-13.213900000000001
 20
-82.125799999999998
 30
0.0
 70
    32
  0
VERTEX
  5
4CB6
  8
241
  6
CONTINUOUS
 10
-13.004799999999999
 20
-82.153899999999965
 30
0.0
 70
    32
  0
VERTEX
  5
4CB7
  8
241
  6
CONTINUOUS
 10
-12.7948
 20
-82.170800000000014
 30
0.0
 70
    32
  0
VERTEX
  5
4CB8
  8
241
  6
CONTINUOUS
 10
-12.584199999999999
 20
-82.176400000000015
 30
0.0
 70
    32
  0
VERTEX
  5
4CB9
  8
241
  6
CONTINUOUS
 10
-12.373699999999999
 20
-82.170800000000014
 30
0.0
 70
    32
  0
VERTEX
  5
4CBA
  8
241
  6
CONTINUOUS
 10
-12.163600000000001
 20
-82.153899999999965
 30
0.0
 70
    32
  0
VERTEX
  5
4CBB
  8
241
  6
CONTINUOUS
 10
-11.954599999999999
 20
-82.125799999999998
 30
0.0
 70
    32
  0
VERTEX
  5
4CBC
  8
241
  6
CONTINUOUS
 10
-11.7471
 20
-82.086500000000001
 30
0.0
 70
    32
  0
VERTEX
  5
4CBD
  8
241
  6
CONTINUOUS
 10
-11.541600000000001
 20
-82.036199999999994
 30
0.0
 70
    32
  0
VERTEX
  5
4CBE
  8
241
  6
CONTINUOUS
 10
-11.3386
 20
-81.97499999999998
 30
0.0
 70
    32
  0
VERTEX
  5
4CBF
  8
241
  6
CONTINUOUS
 10
-11.1386
 20
-81.903000000000006
 30
0.0
 70
    32
  0
VERTEX
  5
4CC0
  8
241
  6
CONTINUOUS
 10
-10.9421
 20
-81.820400000000006
 30
0.0
 70
    32
  0
VERTEX
  5
4CC1
  8
241
  6
CONTINUOUS
 10
-10.749599999999999
 20
-81.727400000000003
 30
0.0
 70
    32
  0
VERTEX
  5
4CC2
  8
241
  6
CONTINUOUS
 10
-10.561500000000001
 20
-81.624200000000002
 30
0.0
 70
    32
  0
VERTEX
  5
4CC3
  8
241
  6
CONTINUOUS
 10
-10.3782
 20
-81.511099999999999
 30
0.0
 70
    32
  0
VERTEX
  5
4CC4
  8
241
  6
CONTINUOUS
 10
-10.2003
 20
-81.388300000000001
 30
0.0
 70
    32
  0
VERTEX
  5
4CC5
  8
241
  6
CONTINUOUS
 10
-10.0281
 20
-81.256099999999989
 30
0.0
 70
    32
  0
VERTEX
  5
4CC6
  8
241
  6
CONTINUOUS
 10
-9.8620499999999982
 20
-81.114900000000006
 30
0.0
 70
    32
  0
VERTEX
  5
4CC7
  8
241
  6
CONTINUOUS
 10
-9.7025699999999997
 20
-80.965000000000003
 30
0.0
 70
    32
  0
VERTEX
  5
4CC8
  8
241
  6
CONTINUOUS
 10
-9.5500299999999996
 20
-80.806700000000006
 30
0.0
 70
    32
  0
VERTEX
  5
4CC9
  8
241
  6
CONTINUOUS
 10
-9.4047999999999998
 20
-80.640499999999989
 30
0.0
 70
    32
  0
VERTEX
  5
4CCA
  8
241
  6
CONTINUOUS
 10
-9.2672399999999993
 20
-80.466700000000003
 30
0.0
 70
    32
  0
VERTEX
  5
4CCB
  8
241
  6
CONTINUOUS
 10
-9.1376600000000003
 20
-80.285700000000006
 30
0.0
 70
    32
  0
VERTEX
  5
4CCC
  8
241
  6
CONTINUOUS
 10
-9.0163899999999995
 20
-80.098099999999988
 30
0.0
 70
    32
  0
VERTEX
  5
4CCD
  8
241
  6
CONTINUOUS
 10
-8.9037100000000002
 20
-79.9041
 30
0.0
 70
    32
  0
VERTEX
  5
4CCE
  8
241
  6
CONTINUOUS
 10
-8.7998999999999992
 20
-79.704400000000007
 30
0.0
 70
    32
  0
VERTEX
  5
4CCF
  8
241
  6
CONTINUOUS
 10
-8.7051999999999961
 20
-79.49939999999998
 30
0.0
 70
    32
  0
VERTEX
  5
4CD0
  8
241
  6
CONTINUOUS
 10
-8.619849999999996
 20
-79.289599999999979
 30
0.0
 70
    32
  0
VERTEX
  5
4CD1
  8
241
  6
CONTINUOUS
 10
-8.5440599999999982
 20
-79.075400000000002
 30
0.0
 70
    32
  0
VERTEX
  5
4CD2
  8
241
  6
CONTINUOUS
 10
-8.4779900000000001
 20
-78.857500000000002
 30
0.0
 70
    32
  0
VERTEX
  5
4CD3
  8
241
  6
CONTINUOUS
 10
-8.4218200000000003
 20
-78.636300000000006
 30
0.0
 70
    32
  0
VERTEX
  5
4CD4
  8
241
  6
CONTINUOUS
 10
-8.3756699999999942
 20
-78.412300000000002
 30
0.0
 70
    32
  0
VERTEX
  5
4CD5
  8
241
  6
CONTINUOUS
 10
-8.3396600000000003
 20
-78.186199999999999
 30
0.0
 70
    32
  0
VERTEX
  5
4CD6
  8
241
  6
CONTINUOUS
 10
-8.313880000000001
 20
-77.958399999999983
 30
0.0
 70
    32
  0
VERTEX
  5
4CD7
  8
241
  6
CONTINUOUS
 10
-8.2983899999999942
 20
-77.729500000000002
 30
0.0
 70
    32
  0
VERTEX
  5
4CD8
  8
241
  6
CONTINUOUS
 10
-8.2932199999999998
 20
-77.5
 30
0.0
 70
    32
  0
VERTEX
  5
4CD9
  8
241
  6
CONTINUOUS
 10
-8.2983899999999942
 20
-77.270499999999998
 30
0.0
 70
    32
  0
VERTEX
  5
4CDA
  8
241
  6
CONTINUOUS
 10
-8.313880000000001
 20
-77.041600000000003
 30
0.0
 70
    32
  0
VERTEX
  5
4CDB
  8
241
  6
CONTINUOUS
 10
-8.3396600000000003
 20
-76.813800000000001
 30
0.0
 70
    32
  0
VERTEX
  5
4CDC
  8
241
  6
CONTINUOUS
 10
-8.3756699999999942
 20
-76.587699999999998
 30
0.0
 70
    32
  0
VERTEX
  5
4CDD
  8
241
  6
CONTINUOUS
 10
-8.4218200000000003
 20
-76.36369999999998
 30
0.0
 70
    32
  0
VERTEX
  5
4CDE
  8
241
  6
CONTINUOUS
 10
-8.4779900000000001
 20
-76.142499999999998
 30
0.0
 70
    32
  0
VERTEX
  5
4CDF
  8
241
  6
CONTINUOUS
 10
-8.5440599999999982
 20
-75.924599999999984
 30
0.0
 70
    32
  0
VERTEX
  5
4CE0
  8
241
  6
CONTINUOUS
 10
-8.619849999999996
 20
-75.710400000000007
 30
0.0
 70
    32
  0
VERTEX
  5
4CE1
  8
241
  6
CONTINUOUS
 10
-8.7051999999999961
 20
-75.500600000000006
 30
0.0
 70
    32
  0
VERTEX
  5
4CE2
  8
241
  6
CONTINUOUS
 10
-8.7998999999999992
 20
-75.295599999999979
 30
0.0
 70
    32
  0
VERTEX
  5
4CE3
  8
241
  6
CONTINUOUS
 10
-8.9037100000000002
 20
-75.0959
 30
0.0
 70
    32
  0
VERTEX
  5
4CE4
  8
241
  6
CONTINUOUS
 10
-9.0163899999999995
 20
-74.901899999999998
 30
0.0
 70
    32
  0
VERTEX
  5
4CE5
  8
241
  6
CONTINUOUS
 10
-9.1376600000000003
 20
-74.71429999999998
 30
0.0
 70
    32
  0
VERTEX
  5
4CE6
  8
241
  6
CONTINUOUS
 10
-9.2672399999999993
 20
-74.533299999999983
 30
0.0
 70
    32
  0
VERTEX
  5
4CE7
  8
241
  6
CONTINUOUS
 10
-9.4047999999999998
 20
-74.359499999999983
 30
0.0
 70
    32
  0
VERTEX
  5
4CE8
  8
241
  6
CONTINUOUS
 10
-9.5500299999999996
 20
-74.193299999999979
 30
0.0
 70
    32
  0
VERTEX
  5
4CE9
  8
241
  6
CONTINUOUS
 10
-9.7025699999999997
 20
-74.034999999999982
 30
0.0
 70
    32
  0
VERTEX
  5
4CEA
  8
241
  6
CONTINUOUS
 10
-9.8620499999999982
 20
-73.88509999999998
 30
0.0
 70
    32
  0
VERTEX
  5
4CEB
  8
241
  6
CONTINUOUS
 10
-10.0281
 20
-73.743899999999982
 30
0.0
 70
    32
  0
VERTEX
  5
4CEC
  8
241
  6
CONTINUOUS
 10
-10.2003
 20
-73.611699999999999
 30
0.0
 70
    32
  0
VERTEX
  5
4CED
  8
241
  6
CONTINUOUS
 10
-10.3782
 20
-73.488900000000001
 30
0.0
 70
    32
  0
VERTEX
  5
4CEE
  8
241
  6
CONTINUOUS
 10
-10.561500000000001
 20
-73.375799999999984
 30
0.0
 70
    32
  0
VERTEX
  5
4CEF
  8
241
  6
CONTINUOUS
 10
-10.749599999999999
 20
-73.272599999999983
 30
0.0
 70
    32
  0
VERTEX
  5
4CF0
  8
241
  6
CONTINUOUS
 10
-10.9421
 20
-73.179599999999979
 30
0.0
 70
    32
  0
VERTEX
  5
4CF1
  8
241
  6
CONTINUOUS
 10
-11.1386
 20
-73.09699999999998
 30
0.0
 70
    32
  0
VERTEX
  5
4CF2
  8
241
  6
CONTINUOUS
 10
-11.3386
 20
-73.025000000000006
 30
0.0
 70
    32
  0
VERTEX
  5
4CF3
  8
241
  6
CONTINUOUS
 10
-11.541600000000001
 20
-72.963800000000006
 30
0.0
 70
    32
  0
VERTEX
  5
4CF4
  8
241
  6
CONTINUOUS
 10
-11.7471
 20
-72.913499999999999
 30
0.0
 70
    32
  0
VERTEX
  5
4CF5
  8
241
  6
CONTINUOUS
 10
-11.954599999999999
 20
-72.874200000000002
 30
0.0
 70
    32
  0
VERTEX
  5
4CF6
  8
241
  6
CONTINUOUS
 10
-12.163600000000001
 20
-72.846100000000007
 30
0.0
 70
    32
  0
VERTEX
  5
4CF7
  8
241
  6
CONTINUOUS
 10
-12.373699999999999
 20
-72.8292
 30
0.0
 70
    32
  0
VERTEX
  5
4CF8
  8
241
  6
CONTINUOUS
 10
-12.584199999999999
 20
-72.823599999999999
 30
0.0
 70
    32
  0
SEQEND
  5
4CF9
  8
241
  6
CONTINUOUS
  0
POLYLINE
  5
4BDA
  8
241
  6
CONTINUOUS
 66
     1
 10
0.0
 20
0.0
 30
0.0
 70
     8
  0
VERTEX
  5
4CFA
  8
241
  6
CONTINUOUS
 10
-12.6051
 20
-72.221500000000006
 30
0.0
 70
    32
  0
VERTEX
  5
4CFB
  8
241
  6
CONTINUOUS
 10
-12.844099999999999
 20
-72.227800000000002
 30
0.0
 70
    32
  0
VERTEX
  5
4CFC
  8
241
  6
CONTINUOUS
 10
-13.0825
 20
-72.246899999999982
 30
0.0
 70
    32
  0
VERTEX
  5
4CFD
  8
241
  6
CONTINUOUS
 10
-13.319800000000001
 20
-72.278599999999983
 30
0.0
 70
    32
  0
VERTEX
  5
4CFE
  8
241
  6
CONTINUOUS
 10
-13.555300000000001
 20
-72.322900000000004
 30
0.0
 70
    32
  0
VERTEX
  5
4CFF
  8
241
  6
CONTINUOUS
 10
-13.788600000000001
 20
-72.3797
 30
0.0
 70
    32
  0
VERTEX
  5
4D00
  8
241
  6
CONTINUOUS
 10
-14.019
 20
-72.448800000000006
 30
0.0
 70
    32
  0
VERTEX
  5
4D01
  8
241
  6
CONTINUOUS
 10
-14.246
 20
-72.530000000000001
 30
0.0
 70
    32
  0
VERTEX
  5
4D02
  8
241
  6
CONTINUOUS
 10
-14.469099999999999
 20
-72.6233
 30
0.0
 70
    32
  0
VERTEX
  5
4D03
  8
241
  6
CONTINUOUS
 10
-14.6876
 20
-72.728300000000004
 30
0.0
 70
    32
  0
VERTEX
  5
4D04
  8
241
  6
CONTINUOUS
 10
-14.901199999999999
 20
-72.844800000000006
 30
0.0
 70
    32
  0
VERTEX
  5
4D05
  8
241
  6
CONTINUOUS
 10
-15.1092
 20
-72.972499999999982
 30
0.0
 70
    32
  0
VERTEX
  5
4D06
  8
241
  6
CONTINUOUS
 10
-15.311199999999999
 20
-73.111099999999979
 30
0.0
 70
    32
  0
VERTEX
  5
4D07
  8
241
  6
CONTINUOUS
 10
-15.506600000000001
 20
-73.260199999999983
 30
0.0
 70
    32
  0
VERTEX
  5
4D08
  8
241
  6
CONTINUOUS
 10
-15.6951
 20
-73.419600000000003
 30
0.0
 70
    32
  0
VERTEX
  5
4D09
  8
241
  6
CONTINUOUS
 10
-15.876099999999999
 20
-73.588899999999981
 30
0.0
 70
    32
  0
VERTEX
  5
4D0A
  8
241
  6
CONTINUOUS
 10
-16.049299999999999
 20
-73.767499999999998
 30
0.0
 70
    32
  0
VERTEX
  5
4D0B
  8
241
  6
CONTINUOUS
 10
-16.214099999999998
 20
-73.955200000000005
 30
0.0
 70
    32
  0
VERTEX
  5
4D0C
  8
241
  6
CONTINUOUS
 10
-16.3703
 20
-74.151300000000006
 30
0.0
 70
    32
  0
VERTEX
  5
4D0D
  8
241
  6
CONTINUOUS
 10
-16.517399999999999
 20
-74.355599999999981
 30
0.0
 70
    32
  0
VERTEX
  5
4D0E
  8
241
  6
CONTINUOUS
 10
-16.655000000000001
 20
-74.567400000000006
 30
0.0
 70
    32
  0
VERTEX
  5
4D0F
  8
241
  6
CONTINUOUS
 10
-16.782900000000001
 20
-74.786299999999983
 30
0.0
 70
    32
  0
VERTEX
  5
4D10
  8
241
  6
CONTINUOUS
 10
-16.9008
 20
-75.011700000000005
 30
0.0
 70
    32
  0
VERTEX
  5
4D11
  8
241
  6
CONTINUOUS
 10
-17.008299999999998
 20
-75.243099999999984
 30
0.0
 70
    32
  0
VERTEX
  5
4D12
  8
241
  6
CONTINUOUS
 10
-17.1052
 20
-75.480000000000004
 30
0.0
 70
    32
  0
VERTEX
  5
4D13
  8
241
  6
CONTINUOUS
 10
-17.191199999999998
 20
-75.721699999999984
 30
0.0
 70
    32
  0
VERTEX
  5
4D14
  8
241
  6
CONTINUOUS
 10
-17.266200000000001
 20
-75.967699999999979
 30
0.0
 70
    32
  0
VERTEX
  5
4D15
  8
241
  6
CONTINUOUS
 10
-17.329899999999999
 20
-76.217399999999984
 30
0.0
 70
    32
  0
VERTEX
  5
4D16
  8
241
  6
CONTINUOUS
 10
-17.382300000000001
 20
-76.470200000000006
 30
0.0
 70
    32
  0
VERTEX
  5
4D17
  8
241
  6
CONTINUOUS
 10
-17.423200000000001
 20
-76.725499999999982
 30
0.0
 70
    32
  0
VERTEX
  5
4D18
  8
241
  6
CONTINUOUS
 10
-17.452500000000001
 20
-76.982600000000005
 30
0.0
 70
    32
  0
VERTEX
  5
4D19
  8
241
  6
CONTINUOUS
 10
-17.470099999999999
 20
-77.240999999999985
 30
0.0
 70
    32
  0
VERTEX
  5
4D1A
  8
241
  6
CONTINUOUS
 10
-17.475899999999999
 20
-77.5
 30
0.0
 70
    32
  0
VERTEX
  5
4D1B
  8
241
  6
CONTINUOUS
 10
-17.470099999999999
 20
-77.759
 30
0.0
 70
    32
  0
VERTEX
  5
4D1C
  8
241
  6
CONTINUOUS
 10
-17.452500000000001
 20
-78.017399999999981
 30
0.0
 70
    32
  0
VERTEX
  5
4D1D
  8
241
  6
CONTINUOUS
 10
-17.423200000000001
 20
-78.274500000000003
 30
0.0
 70
    32
  0
VERTEX
  5
4D1E
  8
241
  6
CONTINUOUS
 10
-17.382300000000001
 20
-78.52979999999998
 30
0.0
 70
    32
  0
VERTEX
  5
4D1F
  8
241
  6
CONTINUOUS
 10
-17.329899999999999
 20
-78.782600000000002
 30
0.0
 70
    32
  0
VERTEX
  5
4D20
  8
241
  6
CONTINUOUS
 10
-17.266200000000001
 20
-79.032300000000006
 30
0.0
 70
    32
  0
VERTEX
  5
4D21
  8
241
  6
CONTINUOUS
 10
-17.191199999999998
 20
-79.278300000000002
 30
0.0
 70
    32
  0
VERTEX
  5
4D22
  8
241
  6
CONTINUOUS
 10
-17.1052
 20
-79.519999999999982
 30
0.0
 70
    32
  0
VERTEX
  5
4D23
  8
241
  6
CONTINUOUS
 10
-17.008299999999998
 20
-79.756900000000002
 30
0.0
 70
    32
  0
VERTEX
  5
4D24
  8
241
  6
CONTINUOUS
 10
-16.9008
 20
-79.988299999999981
 30
0.0
 70
    32
  0
VERTEX
  5
4D25
  8
241
  6
CONTINUOUS
 10
-16.782900000000001
 20
-80.213700000000003
 30
0.0
 70
    32
  0
VERTEX
  5
4D26
  8
241
  6
CONTINUOUS
 10
-16.655000000000001
 20
-80.432599999999979
 30
0.0
 70
    32
  0
VERTEX
  5
4D27
  8
241
  6
CONTINUOUS
 10
-16.517399999999999
 20
-80.644400000000005
 30
0.0
 70
    32
  0
VERTEX
  5
4D28
  8
241
  6
CONTINUOUS
 10
-16.3703
 20
-80.84869999999998
 30
0.0
 70
    32
  0
VERTEX
  5
4D29
  8
241
  6
CONTINUOUS
 10
-16.214099999999998
 20
-81.044799999999981
 30
0.0
 70
    32
  0
VERTEX
  5
4D2A
  8
241
  6
CONTINUOUS
 10
-16.049299999999999
 20
-81.232500000000002
 30
0.0
 70
    32
  0
VERTEX
  5
4D2B
  8
241
  6
CONTINUOUS
 10
-15.876099999999999
 20
-81.411100000000005
 30
0.0
 70
    32
  0
VERTEX
  5
4D2C
  8
241
  6
CONTINUOUS
 10
-15.6951
 20
-81.580399999999969
 30
0.0
 70
    32
  0
VERTEX
  5
4D2D
  8
241
  6
CONTINUOUS
 10
-15.506600000000001
 20
-81.739800000000002
 30
0.0
 70
    32
  0
VERTEX
  5
4D2E
  8
241
  6
CONTINUOUS
 10
-15.311199999999999
 20
-81.888900000000007
 30
0.0
 70
    32
  0
VERTEX
  5
4D2F
  8
241
  6
CONTINUOUS
 10
-15.1092
 20
-82.027499999999989
 30
0.0
 70
    32
  0
VERTEX
  5
4D30
  8
241
  6
CONTINUOUS
 10
-14.901199999999999
 20
-82.155199999999965
 30
0.0
 70
    32
  0
VERTEX
  5
4D31
  8
241
  6
CONTINUOUS
 10
-14.6876
 20
-82.271699999999996
 30
0.0
 70
    32
  0
VERTEX
  5
4D32
  8
241
  6
CONTINUOUS
 10
-14.469099999999999
 20
-82.376699999999985
 30
0.0
 70
    32
  0
VERTEX
  5
4D33
  8
241
  6
CONTINUOUS
 10
-14.246
 20
-82.469999999999985
 30
0.0
 70
    32
  0
VERTEX
  5
4D34
  8
241
  6
CONTINUOUS
 10
-14.019
 20
-82.55119999999998
 30
0.0
 70
    32
  0
VERTEX
  5
4D35
  8
241
  6
CONTINUOUS
 10
-13.788600000000001
 20
-82.620300000000015
 30
0.0
 70
    32
  0
VERTEX
  5
4D36
  8
241
  6
CONTINUOUS
 10
-13.555300000000001
 20
-82.677099999999996
 30
0.0
 70
    32
  0
VERTEX
  5
4D37
  8
241
  6
CONTINUOUS
 10
-13.319800000000001
 20
-82.721400000000003
 30
0.0
 70
    32
  0
VERTEX
  5
4D38
  8
241
  6
CONTINUOUS
 10
-13.0825
 20
-82.753100000000003
 30
0.0
 70
    32
  0
VERTEX
  5
4D39
  8
241
  6
CONTINUOUS
 10
-12.844099999999999
 20
-82.772199999999984
 30
0.0
 70
    32
  0
VERTEX
  5
4D3A
  8
241
  6
CONTINUOUS
 10
-12.6051
 20
-82.778499999999994
 30
0.0
 70
    32
  0
VERTEX
  5
4D3B
  8
241
  6
CONTINUOUS
 10
-12.366099999999999
 20
-82.772199999999984
 30
0.0
 70
    32
  0
VERTEX
  5
4D3C
  8
241
  6
CONTINUOUS
 10
-12.127700000000001
 20
-82.753100000000003
 30
0.0
 70
    32
  0
VERTEX
  5
4D3D
  8
241
  6
CONTINUOUS
 10
-11.8904
 20
-82.721400000000003
 30
0.0
 70
    32
  0
VERTEX
  5
4D3E
  8
241
  6
CONTINUOUS
 10
-11.6548
 20
-82.677099999999996
 30
0.0
 70
    32
  0
VERTEX
  5
4D3F
  8
241
  6
CONTINUOUS
 10
-11.4216
 20
-82.620300000000015
 30
0.0
 70
    32
  0
VERTEX
  5
4D40
  8
241
  6
CONTINUOUS
 10
-11.1912
 20
-82.55119999999998
 30
0.0
 70
    32
  0
VERTEX
  5
4D41
  8
241
  6
CONTINUOUS
 10
-10.9642
 20
-82.469999999999985
 30
0.0
 70
    32
  0
VERTEX
  5
4D42
  8
241
  6
CONTINUOUS
 10
-10.741099999999999
 20
-82.376699999999985
 30
0.0
 70
    32
  0
VERTEX
  5
4D43
  8
241
  6
CONTINUOUS
 10
-10.522500000000001
 20
-82.271699999999996
 30
0.0
 70
    32
  0
VERTEX
  5
4D44
  8
241
  6
CONTINUOUS
 10
-10.308999999999999
 20
-82.155199999999965
 30
0.0
 70
    32
  0
VERTEX
  5
4D45
  8
241
  6
CONTINUOUS
 10
-10.101000000000001
 20
-82.027499999999989
 30
0.0
 70
    32
  0
VERTEX
  5
4D46
  8
241
  6
CONTINUOUS
 10
-9.8990100000000005
 20
-81.888900000000007
 30
0.0
 70
    32
  0
VERTEX
  5
4D47
  8
241
  6
CONTINUOUS
 10
-9.7035499999999981
 20
-81.739800000000002
 30
0.0
 70
    32
  0
VERTEX
  5
4D48
  8
241
  6
CONTINUOUS
 10
-9.5150799999999993
 20
-81.580399999999969
 30
0.0
 70
    32
  0
VERTEX
  5
4D49
  8
241
  6
CONTINUOUS
 10
-9.3340499999999995
 20
-81.411100000000005
 30
0.0
 70
    32
  0
VERTEX
  5
4D4A
  8
241
  6
CONTINUOUS
 10
-9.1608999999999998
 20
-81.232500000000002
 30
0.0
 70
    32
  0
VERTEX
  5
4D4B
  8
241
  6
CONTINUOUS
 10
-8.9960500000000003
 20
-81.044799999999981
 30
0.0
 70
    32
  0
VERTEX
  5
4D4C
  8
241
  6
CONTINUOUS
 10
-8.8399000000000001
 20
-80.84869999999998
 30
0.0
 70
    32
  0
VERTEX
  5
4D4D
  8
241
  6
CONTINUOUS
 10
-8.6928099999999962
 20
-80.644400000000005
 30
0.0
 70
    32
  0
VERTEX
  5
4D4E
  8
241
  6
CONTINUOUS
 10
-8.5551499999999976
 20
-80.432599999999979
 30
0.0
 70
    32
  0
VERTEX
  5
4D4F
  8
241
  6
CONTINUOUS
 10
-8.4272500000000008
 20
-80.213700000000003
 30
0.0
 70
    32
  0
VERTEX
  5
4D50
  8
241
  6
CONTINUOUS
 10
-8.3094099999999962
 20
-79.988299999999981
 30
0.0
 70
    32
  0
VERTEX
  5
4D51
  8
241
  6
CONTINUOUS
 10
-8.2019199999999977
 20
-79.756900000000002
 30
0.0
 70
    32
  0
VERTEX
  5
4D52
  8
241
  6
CONTINUOUS
 10
-8.1050399999999971
 20
-79.519999999999982
 30
0.0
 70
    32
  0
VERTEX
  5
4D53
  8
241
  6
CONTINUOUS
 10
-8.0190000000000001
 20
-79.278300000000002
 30
0.0
 70
    32
  0
VERTEX
  5
4D54
  8
241
  6
CONTINUOUS
 10
-7.944009999999996
 20
-79.032300000000006
 30
0.0
 70
    32
  0
VERTEX
  5
4D55
  8
241
  6
CONTINUOUS
 10
-7.8802399999999988
 20
-78.782600000000002
 30
0.0
 70
    32
  0
VERTEX
  5
4D56
  8
241
  6
CONTINUOUS
 10
-7.8278600000000003
 20
-78.52979999999998
 30
0.0
 70
    32
  0
VERTEX
  5
4D57
  8
241
  6
CONTINUOUS
 10
-7.7869899999999959
 20
-78.274500000000003
 30
0.0
 70
    32
  0
VERTEX
  5
4D58
  8
241
  6
CONTINUOUS
 10
-7.7577199999999982
 20
-78.017399999999981
 30
0.0
 70
    32
  0
VERTEX
  5
4D59
  8
241
  6
CONTINUOUS
 10
-7.7401399999999958
 20
-77.759
 30
0.0
 70
    32
  0
VERTEX
  5
4D5A
  8
241
  6
CONTINUOUS
 10
-7.734269999999996
 20
-77.5
 30
0.0
 70
    32
  0
VERTEX
  5
4D5B
  8
241
  6
CONTINUOUS
 10
-7.7401399999999958
 20
-77.240999999999985
 30
0.0
 70
    32
  0
VERTEX
  5
4D5C
  8
241
  6
CONTINUOUS
 10
-7.7577199999999982
 20
-76.982600000000005
 30
0.0
 70
    32
  0
VERTEX
  5
4D5D
  8
241
  6
CONTINUOUS
 10
-7.7869899999999959
 20
-76.725499999999982
 30
0.0
 70
    32
  0
VERTEX
  5
4D5E
  8
241
  6
CONTINUOUS
 10
-7.8278600000000003
 20
-76.470200000000006
 30
0.0
 70
    32
  0
VERTEX
  5
4D5F
  8
241
  6
CONTINUOUS
 10
-7.8802399999999988
 20
-76.217399999999984
 30
0.0
 70
    32
  0
VERTEX
  5
4D60
  8
241
  6
CONTINUOUS
 10
-7.944009999999996
 20
-75.967699999999979
 30
0.0
 70
    32
  0
VERTEX
  5
4D61
  8
241
  6
CONTINUOUS
 10
-8.0190000000000001
 20
-75.721699999999984
 30
0.0
 70
    32
  0
VERTEX
  5
4D62
  8
241
  6
CONTINUOUS
 10
-8.1050399999999971
 20
-75.480000000000004
 30
0.0
 70
    32
  0
VERTEX
  5
4D63
  8
241
  6
CONTINUOUS
 10
-8.2019199999999977
 20
-75.243099999999984
 30
0.0
 70
    32
  0
VERTEX
  5
4D64
  8
241
  6
CONTINUOUS
 10
-8.3094099999999962
 20
-75.011700000000005
 30
0.0
 70
    32
  0
VERTEX
  5
4D65
  8
241
  6
CONTINUOUS
 10
-8.4272500000000008
 20
-74.786299999999983
 30
0.0
 70
    32
  0
VERTEX
  5
4D66
  8
241
  6
CONTINUOUS
 10
-8.5551499999999976
 20
-74.567400000000006
 30
0.0
 70
    32
  0
VERTEX
  5
4D67
  8
241
  6
CONTINUOUS
 10
-8.6928099999999962
 20
-74.355599999999981
 30
0.0
 70
    32
  0
VERTEX
  5
4D68
  8
241
  6
CONTINUOUS
 10
-8.8399000000000001
 20
-74.151300000000006
 30
0.0
 70
    32
  0
VERTEX
  5
4D69
  8
241
  6
CONTINUOUS
 10
-8.9960500000000003
 20
-73.955200000000005
 30
0.0
 70
    32
  0
VERTEX
  5
4D6A
  8
241
  6
CONTINUOUS
 10
-9.1608999999999998
 20
-73.767499999999998
 30
0.0
 70
    32
  0
VERTEX
  5
4D6B
  8
241
  6
CONTINUOUS
 10
-9.3340499999999995
 20
-73.588899999999981
 30
0.0
 70
    32
  0
VERTEX
  5
4D6C
  8
241
  6
CONTINUOUS
 10
-9.5150799999999993
 20
-73.419600000000003
 30
0.0
 70
    32
  0
VERTEX
  5
4D6D
  8
241
  6
CONTINUOUS
 10
-9.7035499999999981
 20
-73.260199999999983
 30
0.0
 70
    32
  0
VERTEX
  5
4D6E
  8
241
  6
CONTINUOUS
 10
-9.8990100000000005
 20
-73.111099999999979
 30
0.0
 70
    32
  0
VERTEX
  5
4D6F
  8
241
  6
CONTINUOUS
 10
-10.101000000000001
 20
-72.972499999999982
 30
0.0
 70
    32
  0
VERTEX
  5
4D70
  8
241
  6
CONTINUOUS
 10
-10.308999999999999
 20
-72.844800000000006
 30
0.0
 70
    32
  0
VERTEX
  5
4D71
  8
241
  6
CONTINUOUS
 10
-10.522500000000001
 20
-72.728300000000004
 30
0.0
 70
    32
  0
VERTEX
  5
4D72
  8
241
  6
CONTINUOUS
 10
-10.741099999999999
 20
-72.6233
 30
0.0
 70
    32
  0
VERTEX
  5
4D73
  8
241
  6
CONTINUOUS
 10
-10.9642
 20
-72.530000000000001
 30
0.0
 70
    32
  0
VERTEX
  5
4D74
  8
241
  6
CONTINUOUS
 10
-11.1912
 20
-72.448800000000006
 30
0.0
 70
    32
  0
VERTEX
  5
4D75
  8
241
  6
CONTINUOUS
 10
-11.4216
 20
-72.3797
 30
0.0
 70
    32
  0
VERTEX
  5
4D76
  8
241
  6
CONTINUOUS
 10
-11.6548
 20
-72.322900000000004
 30
0.0
 70
    32
  0
VERTEX
  5
4D77
  8
241
  6
CONTINUOUS
 10
-11.8904
 20
-72.278599999999983
 30
0.0
 70
    32
  0
VERTEX
  5
4D78
  8
241
  6
CONTINUOUS
 10
-12.127700000000001
 20
-72.246899999999982
 30
0.0
 70
    32
  0
VERTEX
  5
4D79
  8
241
  6
CONTINUOUS
 10
-12.366099999999999
 20
-72.227800000000002
 30
0.0
 70
    32
  0
VERTEX
  5
4D7A
  8
241
  6
CONTINUOUS
 10
-12.6051
 20
-72.221500000000006
 30
0.0
 70
    32
  0
SEQEND
  5
4D7B
  8
241
  6
CONTINUOUS
  0
POLYLINE
  5
4BEF
  8
241
  6
CONTINUOUS
 66
     1
 10
0.0
 20
0.0
 30
0.0
 70
     8
  0
VERTEX
  5
4D7C
  8
241
  6
CONTINUOUS
 10
-15.4359
 20
-77.479299999999981
 30
0.0
 70
    32
  0
VERTEX
  5
4D7D
  8
241
  6
CONTINUOUS
 10
-15.4338
 20
-77.625399999999999
 30
0.0
 70
    32
  0
VERTEX
  5
4D7E
  8
241
  6
CONTINUOUS
 10
-15.424899999999999
 20
-77.771100000000004
 30
0.0
 70
    32
  0
VERTEX
  5
4D7F
  8
241
  6
CONTINUOUS
 10
-15.4093
 20
-77.916300000000007
 30
0.0
 70
    32
  0
VERTEX
  5
4D80
  8
241
  6
CONTINUOUS
 10
-15.3871
 20
-78.060400000000001
 30
0.0
 70
    32
  0
VERTEX
  5
4D81
  8
241
  6
CONTINUOUS
 10
-15.3584
 20
-78.203199999999981
 30
0.0
 70
    32
  0
VERTEX
  5
4D82
  8
241
  6
CONTINUOUS
 10
-15.3231
 20
-78.344300000000004
 30
0.0
 70
    32
  0
VERTEX
  5
4D83
  8
241
  6
CONTINUOUS
 10
-15.2814
 20
-78.483400000000003
 30
0.0
 70
    32
  0
VERTEX
  5
4D84
  8
241
  6
CONTINUOUS
 10
-15.2334
 20
-78.620099999999965
 30
0.0
 70
    32
  0
VERTEX
  5
4D85
  8
241
  6
CONTINUOUS
 10
-15.1791
 20
-78.75409999999998
 30
0.0
 70
    32
  0
VERTEX
  5
4D86
  8
241
  6
CONTINUOUS
 10
-15.1188
 20
-78.88509999999998
 30
0.0
 70
    32
  0
VERTEX
  5
4D87
  8
241
  6
CONTINUOUS
 10
-15.0526
 20
-79.012699999999981
 30
0.0
 70
    32
  0
VERTEX
  5
4D88
  8
241
  6
CONTINUOUS
 10
-14.980600000000001
 20
-79.136700000000005
 30
0.0
 70
    32
  0
VERTEX
  5
4D89
  8
241
  6
CONTINUOUS
 10
-14.902900000000001
 20
-79.256799999999984
 30
0.0
 70
    32
  0
VERTEX
  5
4D8A
  8
241
  6
CONTINUOUS
 10
-14.819900000000001
 20
-79.37269999999998
 30
0.0
 70
    32
  0
VERTEX
  5
4D8B
  8
241
  6
CONTINUOUS
 10
-14.7316
 20
-79.48399999999998
 30
0.0
 70
    32
  0
VERTEX
  5
4D8C
  8
241
  6
CONTINUOUS
 10
-14.638400000000001
 20
-79.590599999999981
 30
0.0
 70
    32
  0
VERTEX
  5
4D8D
  8
241
  6
CONTINUOUS
 10
-14.5404
 20
-79.692099999999982
 30
0.0
 70
    32
  0
VERTEX
  5
4D8E
  8
241
  6
CONTINUOUS
 10
-14.437799999999999
 20
-79.788300000000007
 30
0.0
 70
    32
  0
VERTEX
  5
4D8F
  8
241
  6
CONTINUOUS
 10
-14.3309
 20
-79.87909999999998
 30
0.0
 70
    32
  0
VERTEX
  5
4D90
  8
241
  6
CONTINUOUS
 10
-14.220000000000001
 20
-79.964100000000002
 30
0.0
 70
    32
  0
VERTEX
  5
4D91
  8
241
  6
CONTINUOUS
 10
-14.105399999999999
 20
-80.043199999999985
 30
0.0
 70
    32
  0
VERTEX
  5
4D92
  8
241
  6
CONTINUOUS
 10
-13.9872
 20
-80.116100000000003
 30
0.0
 70
    32
  0
VERTEX
  5
4D93
  8
241
  6
CONTINUOUS
 10
-13.8659
 20
-80.1828
 30
0.0
 70
    32
  0
VERTEX
  5
4D94
  8
241
  6
CONTINUOUS
 10
-13.7416
 20
-80.242999999999981
 30
0.0
 70
    32
  0
VERTEX
  5
4D95
  8
241
  6
CONTINUOUS
 10
-13.614699999999999
 20
-80.296599999999984
 30
0.0
 70
    32
  0
VERTEX
  5
4D96
  8
241
  6
CONTINUOUS
 10
-13.4855
 20
-80.343400000000003
 30
0.0
 70
    32
  0
VERTEX
  5
4D97
  8
241
  6
CONTINUOUS
 10
-13.3543
 20
-80.383499999999984
 30
0.0
 70
    32
  0
VERTEX
  5
4D98
  8
241
  6
CONTINUOUS
 10
-13.221399999999999
 20
-80.416499999999999
 30
0.0
 70
    32
  0
VERTEX
  5
4D99
  8
241
  6
CONTINUOUS
 10
-13.0871
 20
-80.442599999999985
 30
0.0
 70
    32
  0
VERTEX
  5
4D9A
  8
241
  6
CONTINUOUS
 10
-12.9519
 20
-80.461500000000001
 30
0.0
 70
    32
  0
VERTEX
  5
4D9B
  8
241
  6
CONTINUOUS
 10
-12.815899999999999
 20
-80.473399999999998
 30
0.0
 70
    32
  0
VERTEX
  5
4D9C
  8
241
  6
CONTINUOUS
 10
-12.679500000000001
 20
-80.47799999999998
 30
0.0
 70
    32
  0
VERTEX
  5
4D9D
  8
241
  6
CONTINUOUS
 10
-12.542999999999999
 20
-80.475499999999997
 30
0.0
 70
    32
  0
VERTEX
  5
4D9E
  8
241
  6
CONTINUOUS
 10
-12.4068
 20
-80.465900000000005
 30
0.0
 70
    32
  0
VERTEX
  5
4D9F
  8
241
  6
CONTINUOUS
 10
-12.2713
 20
-80.449099999999987
 30
0.0
 70
    32
  0
VERTEX
  5
4DA0
  8
241
  6
CONTINUOUS
 10
-12.1366
 20
-80.425200000000004
 30
0.0
 70
    32
  0
VERTEX
  5
4DA1
  8
241
  6
CONTINUOUS
 10
-12.0032
 20
-80.394199999999984
 30
0.0
 70
    32
  0
VERTEX
  5
4DA2
  8
241
  6
CONTINUOUS
 10
-11.8714
 20
-80.356300000000005
 30
0.0
 70
    32
  0
VERTEX
  5
4DA3
  8
241
  6
CONTINUOUS
 10
-11.7415
 20
-80.311499999999981
 30
0.0
 70
    32
  0
VERTEX
  5
4DA4
  8
241
  6
CONTINUOUS
 10
-11.6137
 20
-80.259900000000002
 30
0.0
 70
    32
  0
VERTEX
  5
4DA5
  8
241
  6
CONTINUOUS
 10
-11.4885
 20
-80.201700000000002
 30
0.0
 70
    32
  0
VERTEX
  5
4DA6
  8
241
  6
CONTINUOUS
 10
-11.366099999999999
 20
-80.137
 30
0.0
 70
    32
  0
VERTEX
  5
4DA7
  8
241
  6
CONTINUOUS
 10
-11.2468
 20
-80.065899999999999
 30
0.0
 70
    32
  0
VERTEX
  5
4DA8
  8
241
  6
CONTINUOUS
 10
-11.1309
 20
-79.98869999999998
 30
0.0
 70
    32
  0
VERTEX
  5
4DA9
  8
241
  6
CONTINUOUS
 10
-11.018700000000001
 20
-79.9054
 30
0.0
 70
    32
  0
VERTEX
  5
4DAA
  8
241
  6
CONTINUOUS
 10
-10.910399999999999
 20
-79.816400000000002
 30
0.0
 70
    32
  0
VERTEX
  5
4DAB
  8
241
  6
CONTINUOUS
 10
-10.8063
 20
-79.721800000000002
 30
0.0
 70
    32
  0
VERTEX
  5
4DAC
  8
241
  6
CONTINUOUS
 10
-10.7067
 20
-79.621799999999979
 30
0.0
 70
    32
  0
VERTEX
  5
4DAD
  8
241
  6
CONTINUOUS
 10
-10.611700000000001
 20
-79.516800000000003
 30
0.0
 70
    32
  0
VERTEX
  5
4DAE
  8
241
  6
CONTINUOUS
 10
-10.521699999999999
 20
-79.406899999999979
 30
0.0
 70
    32
  0
VERTEX
  5
4DAF
  8
241
  6
CONTINUOUS
 10
-10.4368
 20
-79.292299999999983
 30
0.0
 70
    32
  0
VERTEX
  5
4DB0
  8
241
  6
CONTINUOUS
 10
-10.3573
 20
-79.173500000000004
 30
0.0
 70
    32
  0
VERTEX
  5
4DB1
  8
241
  6
CONTINUOUS
 10
-10.283300000000001
 20
-79.050700000000006
 30
0.0
 70
    32
  0
VERTEX
  5
4DB2
  8
241
  6
CONTINUOUS
 10
-10.2151
 20
-78.924099999999981
 30
0.0
 70
    32
  0
VERTEX
  5
4DB3
  8
241
  6
CONTINUOUS
 10
-10.152699999999999
 20
-78.7941
 30
0.0
 70
    32
  0
VERTEX
  5
4DB4
  8
241
  6
CONTINUOUS
 10
-10.096299999999999
 20
-78.660899999999984
 30
0.0
 70
    32
  0
VERTEX
  5
4DB5
  8
241
  6
CONTINUOUS
 10
-10.046099999999999
 20
-78.525000000000006
 30
0.0
 70
    32
  0
VERTEX
  5
4DB6
  8
241
  6
CONTINUOUS
 10
-10.0022
 20
-78.386600000000001
 30
0.0
 70
    32
  0
VERTEX
  5
4DB7
  8
241
  6
CONTINUOUS
 10
-9.9647000000000006
 20
-78.246099999999984
 30
0.0
 70
    32
  0
VERTEX
  5
4DB8
  8
241
  6
CONTINUOUS
 10
-9.9336699999999993
 20
-78.103800000000007
 30
0.0
 70
    32
  0
VERTEX
  5
4DB9
  8
241
  6
CONTINUOUS
 10
-9.9092000000000002
 20
-77.95999999999998
 30
0.0
 70
    32
  0
VERTEX
  5
4DBA
  8
241
  6
CONTINUOUS
 10
-9.8913399999999996
 20
-77.815200000000004
 30
0.0
 70
    32
  0
VERTEX
  5
4DBB
  8
241
  6
CONTINUOUS
 10
-9.8801400000000008
 20
-77.669499999999999
 30
0.0
 70
    32
  0
VERTEX
  5
4DBC
  8
241
  6
CONTINUOUS
 10
-9.8756299999999992
 20
-77.523499999999984
 30
0.0
 70
    32
  0
VERTEX
  5
4DBD
  8
241
  6
CONTINUOUS
 10
-9.8778199999999998
 20
-77.37739999999998
 30
0.0
 70
    32
  0
VERTEX
  5
4DBE
  8
241
  6
CONTINUOUS
 10
-9.8866999999999994
 20
-77.2316
 30
0.0
 70
    32
  0
VERTEX
  5
4DBF
  8
241
  6
CONTINUOUS
 10
-9.9022500000000004
 20
-77.086500000000001
 30
0.0
 70
    32
  0
VERTEX
  5
4DC0
  8
241
  6
CONTINUOUS
 10
-9.9244299999999992
 20
-76.942400000000006
 30
0.0
 70
    32
  0
VERTEX
  5
4DC1
  8
241
  6
CONTINUOUS
 10
-9.9532000000000007
 20
-76.799599999999998
 30
0.0
 70
    32
  0
VERTEX
  5
4DC2
  8
241
  6
CONTINUOUS
 10
-9.9884699999999995
 20
-76.658500000000004
 30
0.0
 70
    32
  0
VERTEX
  5
4DC3
  8
241
  6
CONTINUOUS
 10
-10.030200000000001
 20
-76.519400000000005
 30
0.0
 70
    32
  0
VERTEX
  5
4DC4
  8
241
  6
CONTINUOUS
 10
-10.078200000000001
 20
-76.3827
 30
0.0
 70
    32
  0
VERTEX
  5
4DC5
  8
241
  6
CONTINUOUS
 10
-10.132400000000001
 20
-76.248699999999999
 30
0.0
 70
    32
  0
VERTEX
  5
4DC6
  8
241
  6
CONTINUOUS
 10
-10.1927
 20
-76.117699999999985
 30
0.0
 70
    32
  0
VERTEX
  5
4DC7
  8
241
  6
CONTINUOUS
 10
-10.259
 20
-75.990099999999984
 30
0.0
 70
    32
  0
VERTEX
  5
4DC8
  8
241
  6
CONTINUOUS
 10
-10.331
 20
-75.866
 30
0.0
 70
    32
  0
VERTEX
  5
4DC9
  8
241
  6
CONTINUOUS
 10
-10.4086
 20
-75.745999999999981
 30
0.0
 70
    32
  0
VERTEX
  5
4DCA
  8
241
  6
CONTINUOUS
 10
-10.4917
 20
-75.630099999999999
 30
0.0
 70
    32
  0
VERTEX
  5
4DCB
  8
241
  6
CONTINUOUS
 10
-10.5799
 20
-75.518799999999999
 30
0.0
 70
    32
  0
VERTEX
  5
4DCC
  8
241
  6
CONTINUOUS
 10
-10.6732
 20
-75.412199999999999
 30
0.0
 70
    32
  0
VERTEX
  5
4DCD
  8
241
  6
CONTINUOUS
 10
-10.7712
 20
-75.310699999999983
 30
0.0
 70
    32
  0
VERTEX
  5
4DCE
  8
241
  6
CONTINUOUS
 10
-10.873799999999999
 20
-75.214399999999998
 30
0.0
 70
    32
  0
VERTEX
  5
4DCF
  8
241
  6
CONTINUOUS
 10
-10.980600000000001
 20
-75.123699999999999
 30
0.0
 70
    32
  0
VERTEX
  5
4DD0
  8
241
  6
CONTINUOUS
 10
-11.0915
 20
-75.038700000000006
 30
0.0
 70
    32
  0
VERTEX
  5
4DD1
  8
241
  6
CONTINUOUS
 10
-11.206200000000001
 20
-74.95959999999998
 30
0.0
 70
    32
  0
VERTEX
  5
4DD2
  8
241
  6
CONTINUOUS
 10
-11.324400000000001
 20
-74.886600000000001
 30
0.0
 70
    32
  0
VERTEX
  5
4DD3
  8
241
  6
CONTINUOUS
 10
-11.4457
 20
-74.819999999999979
 30
0.0
 70
    32
  0
VERTEX
  5
4DD4
  8
241
  6
CONTINUOUS
 10
-11.57
 20
-74.759799999999984
 30
0.0
 70
    32
  0
VERTEX
  5
4DD5
  8
241
  6
CONTINUOUS
 10
-11.696899999999999
 20
-74.706199999999981
 30
0.0
 70
    32
  0
VERTEX
  5
4DD6
  8
241
  6
CONTINUOUS
 10
-11.8261
 20
-74.659300000000002
 30
0.0
 70
    32
  0
VERTEX
  5
4DD7
  8
241
  6
CONTINUOUS
 10
-11.9573
 20
-74.619299999999981
 30
0.0
 70
    32
  0
VERTEX
  5
4DD8
  8
241
  6
CONTINUOUS
 10
-12.090199999999999
 20
-74.586200000000005
 30
0.0
 70
    32
  0
VERTEX
  5
4DD9
  8
241
  6
CONTINUOUS
 10
-12.224399999999999
 20
-74.56019999999998
 30
0.0
 70
    32
  0
VERTEX
  5
4DDA
  8
241
  6
CONTINUOUS
 10
-12.3597
 20
-74.541200000000003
 30
0.0
 70
    32
  0
VERTEX
  5
4DDB
  8
241
  6
CONTINUOUS
 10
-12.495699999999999
 20
-74.529399999999981
 30
0.0
 70
    32
  0
VERTEX
  5
4DDC
  8
241
  6
CONTINUOUS
 10
-12.632099999999999
 20
-74.524699999999982
 30
0.0
 70
    32
  0
VERTEX
  5
4DDD
  8
241
  6
CONTINUOUS
 10
-12.768599999999999
 20
-74.527199999999979
 30
0.0
 70
    32
  0
VERTEX
  5
4DDE
  8
241
  6
CONTINUOUS
 10
-12.9047
 20
-74.536900000000003
 30
0.0
 70
    32
  0
VERTEX
  5
4DDF
  8
241
  6
CONTINUOUS
 10
-13.0403
 20
-74.553700000000006
 30
0.0
 70
    32
  0
VERTEX
  5
4DE0
  8
241
  6
CONTINUOUS
 10
-13.174899999999999
 20
-74.577600000000004
 30
0.0
 70
    32
  0
VERTEX
  5
4DE1
  8
241
  6
CONTINUOUS
 10
-13.308299999999999
 20
-74.608599999999981
 30
0.0
 70
    32
  0
VERTEX
  5
4DE2
  8
241
  6
CONTINUOUS
 10
-13.440200000000001
 20
-74.646500000000003
 30
0.0
 70
    32
  0
VERTEX
  5
4DE3
  8
241
  6
CONTINUOUS
 10
-13.5701
 20
-74.691299999999984
 30
0.0
 70
    32
  0
VERTEX
  5
4DE4
  8
241
  6
CONTINUOUS
 10
-13.697800000000001
 20
-74.742900000000006
 30
0.0
 70
    32
  0
VERTEX
  5
4DE5
  8
241
  6
CONTINUOUS
 10
-13.8231
 20
-74.801100000000005
 30
0.0
 70
    32
  0
VERTEX
  5
4DE6
  8
241
  6
CONTINUOUS
 10
-13.945499999999999
 20
-74.865799999999979
 30
0.0
 70
    32
  0
VERTEX
  5
4DE7
  8
241
  6
CONTINUOUS
 10
-14.0648
 20
-74.93689999999998
 30
0.0
 70
    32
  0
VERTEX
  5
4DE8
  8
241
  6
CONTINUOUS
 10
-14.1807
 20
-75.014099999999985
 30
0.0
 70
    32
  0
VERTEX
  5
4DE9
  8
241
  6
CONTINUOUS
 10
-14.292899999999999
 20
-75.097300000000004
 30
0.0
 70
    32
  0
VERTEX
  5
4DEA
  8
241
  6
CONTINUOUS
 10
-14.401199999999999
 20
-75.186400000000006
 30
0.0
 70
    32
  0
VERTEX
  5
4DEB
  8
241
  6
CONTINUOUS
 10
-14.5053
 20
-75.281000000000006
 30
0.0
 70
    32
  0
VERTEX
  5
4DEC
  8
241
  6
CONTINUOUS
 10
-14.604900000000001
 20
-75.380899999999983
 30
0.0
 70
    32
  0
VERTEX
  5
4DED
  8
241
  6
CONTINUOUS
 10
-14.6998
 20
-75.486000000000004
 30
0.0
 70
    32
  0
VERTEX
  5
4DEE
  8
241
  6
CONTINUOUS
 10
-14.789899999999999
 20
-75.5959
 30
0.0
 70
    32
  0
VERTEX
  5
4DEF
  8
241
  6
CONTINUOUS
 10
-14.874700000000001
 20
-75.710400000000007
 30
0.0
 70
    32
  0
VERTEX
  5
4DF0
  8
241
  6
CONTINUOUS
 10
-14.9542
 20
-75.829300000000003
 30
0.0
 70
    32
  0
VERTEX
  5
4DF1
  8
241
  6
CONTINUOUS
 10
-15.0282
 20
-75.952100000000002
 30
0.0
 70
    32
  0
VERTEX
  5
4DF2
  8
241
  6
CONTINUOUS
 10
-15.096500000000001
 20
-76.078699999999998
 30
0.0
 70
    32
  0
VERTEX
  5
4DF3
  8
241
  6
CONTINUOUS
 10
-15.158899999999999
 20
-76.208699999999979
 30
0.0
 70
    32
  0
VERTEX
  5
4DF4
  8
241
  6
CONTINUOUS
 10
-15.215299999999999
 20
-76.341800000000006
 30
0.0
 70
    32
  0
VERTEX
  5
4DF5
  8
241
  6
CONTINUOUS
 10
-15.265499999999999
 20
-76.477800000000002
 30
0.0
 70
    32
  0
VERTEX
  5
4DF6
  8
241
  6
CONTINUOUS
 10
-15.3094
 20
-76.616200000000006
 30
0.0
 70
    32
  0
VERTEX
  5
4DF7
  8
241
  6
CONTINUOUS
 10
-15.3469
 20
-76.756699999999981
 30
0.0
 70
    32
  0
VERTEX
  5
4DF8
  8
241
  6
CONTINUOUS
 10
-15.3779
 20
-76.899000000000001
 30
0.0
 70
    32
  0
VERTEX
  5
4DF9
  8
241
  6
CONTINUOUS
 10
-15.4024
 20
-77.0428
 30
0.0
 70
    32
  0
VERTEX
  5
4DFA
  8
241
  6
CONTINUOUS
 10
-15.420199999999999
 20
-77.187600000000003
 30
0.0
 70
    32
  0
VERTEX
  5
4DFB
  8
241
  6
CONTINUOUS
 10
-15.4314
 20
-77.333200000000005
 30
0.0
 70
    32
  0
VERTEX
  5
4DFC
  8
241
  6
CONTINUOUS
 10
-15.4359
 20
-77.479299999999981
 30
0.0
 70
    32
  0
SEQEND
  5
4DFD
  8
241
  6
CONTINUOUS
  0
ARC
  5
4C19
  8
240
  6
CONTINUOUS
 10
-34.10000033527632
 20
-4.8959980296534784
 30
0.0
 40
0.9
 50
90.0
 51
180.0
1001
GENIUS_GENOBJ-N-FIL_13
1002
{
1000
OWNER
1000
GEN
1002
}
1001
GENIUS_GENODEF_13
1002
{
1000
HIER
1070
     0
1002
}
1002
{
1000
MANEDIT
1070
     0
1002
}
1002
{
1000
NOSEL
1070
     0
1002
}
1002
{
1000
BEHIND
1070
     0
1002
}
1002
{
1000
OTHER
1070
     0
1002
}
1002
{
1000
REACTOR
1002
}
  0
ARC
  5
4C1A
  8
240
  6
CONTINUOUS
 10
-25.352860549810341
 20
10.824661741495669
 30
0.0
 40
15.14726504368768
 50
258.08029323454321
 51
262.81288554270952
  0
ARC
  5
4C1F
  8
240
  6
CONTINUOUS
 10
-19.808123824522841
 20
5.9712827805189264
 30
0.0
 40
10.2295296104139
 50
275.92564229977592
 51
283.00165863237282
  0
LINE
  5
4C27
  8
240
  6
CONTINUOUS
 10
-17.500909166052931
 20
47.736654957643452
 30
0.0
 11
-20.95442893257766
 21
46.334136340819782
 31
0.0
  0
ARC
  5
4C2A
  8
240
  6
CONTINUOUS
 10
-20.578160990166509
 20
45.40762544746034
 30
0.0
 40
1.0
 50
112.1027011166168
 51
135.00000000000011
1001
GENIUS_GENODEF_13
1002
{
1000
HIER
1070
     0
1002
}
1002
{
1000
MANEDIT
1070
     0
1002
}
1002
{
1000
NOSEL
1070
     0
1002
}
1002
{
1000
BEHIND
1070
     0
1002
}
1002
{
1000
OTHER
1070
     0
1002
}
1002
{
1000
REACTOR
1002
}
1001
GENIUS_GENOBJ-N-FIL_13
1002
{
1000
OWNER
1000
GEN
1002
}
  0
ARC
  5
4C3B
  8
240
  6
CONTINUOUS
 10
-1.8034727275223701
 20
37.70961749637457
 30
0.0
 40
1.0
 50
299.9999999999996
 51
357.00000000000063
1001
GENIUS_GENOBJ-N-FIL_13
1002
{
1000
OWNER
1000
GEN
1002
}
1001
GENIUS_GENODEF_13
1002
{
1000
HIER
1070
     0
1002
}
1002
{
1000
MANEDIT
1070
     0
1002
}
1002
{
1000
NOSEL
1070
     0
1002
}
1002
{
1000
BEHIND
1070
     0
1002
}
1002
{
1000
OTHER
1070
     0
1002
}
1002
{
1000
REACTOR
1002
}
  0
ARC
  5
4C42
  8
240
  6
CONTINUOUS
 10
-1.9962705870461761
 20
88.530815185700277
 30
0.0
 40
1.0
 50
329.9999999999996
 51
356.99999999999972
1001
GENIUS_GENODEF_13
1002
{
1000
HIER
1070
     0
1002
}
1002
{
1000
MANEDIT
1070
     0
1002
}
1002
{
1000
NOSEL
1070
     0
1002
}
1002
{
1000
BEHIND
1070
     0
1002
}
1002
{
1000
OTHER
1070
     0
1002
}
1002
{
1000
REACTOR
1002
}
1001
GENIUS_GENOBJ-N-FIL_13
1002
{
1000
OWNER
1000
GEN
1002
}
  0
ARC
  5
4C47
  8
240
  6
CONTINUOUS
 10
-13.481859680508011
 20
101.91964253305621
 30
0.0
 40
1.0
 50
99.999999999999602
 51
150.00000000000011
1001
GENIUS_GENODEF_13
1002
{
1000
HIER
1070
     0
1002
}
1002
{
1000
MANEDIT
1070
     0
1002
}
1002
{
1000
NOSEL
1070
     0
1002
}
1002
{
1000
BEHIND
1070
     0
1002
}
1002
{
1000
OTHER
1070
     0
1002
}
1002
{
1000
REACTOR
1002
}
1001
GENIUS_GENOBJ-N-FIL_13
1002
{
1000
OWNER
1000
GEN
1002
}
  0
TEXT
  5
5133
  8
250
  6
CONTINUOUS
 10
-97.487492076357285
 20
-129.0794839715696
 30
0.0
 40
4.0
  1
(Extension slide and EWN200 +35/\U+03C6adjustment of boring diameterüj
 50
90.0
  7
YOKO
  0
TEXT
  5
513C
  8
250
  6
CONTINUOUS
 10
9.3275024249038552
 20
-130.9351929018527
 30
0.0
 40
2.799999999999998
  1
(EWN200 and ENH7-1 +35/\U+03C6adjustment of boring diameter)
 50
90.0
  0
VIEWPORT
  5
22
 67
     1
  8
0
 10
261.51769911504419
 20
148.5
 30
0.0
 40
523.0353982300885
 41
297.0
 68
     1
 69
     1
1001
ACAD
1000
MVIEW
1002
{
1070
    16
1010
0.0
1020
0.0
1030
0.0
1010
0.0
1020
0.0
1030
1.0
1040
0.0
1040
297.0
1040
261.51769911504419
1040
148.5
1040
50.0
1040
0.0
1040
0.0
1070
     0
1070
   100
1070
     1
1070
     1
1070
     0
1070
     0
1070
     0
1070
     0
1040
0.0
1040
0.0
1040
0.0
1040
1.0
1040
1.0
1040
10.0
1040
10.0
1070
     0
1002
{
1002
}
1002
}
1001
GENIUS_GENODEF_13
1002
{
1000
HIER
1070
     0
1002
}
1002
{
1000
MANEDIT
1070
     0
1002
}
1002
{
1000
NOSEL
1070
     0
1002
}
1002
{
1000
BEHIND
1070
     0
1002
}
1002
{
1000
OTHER
1070
     0
1002
}
1002
{
1000
REACTOR
1002
}
1001
GENIUS_GENOBJ-N-SDF_13
1002
{
1000
OWNER
1000
GEN
1002
}
1001
GENIUS_GENSCREG_15
1000
PF
1040
1.0
1000
DF
1040
1.0
1000
MIN
1011
0.0
1021
0.0
1031
0.0
1021
0.0
1031
0.0
1000
MAX
1011
523.0353982300885
1021
0.0
1031
0.0
1021
297.0
1031
0.0
1000
FLAGS
1070
     4
  0
ENDSEC
  0
EOF
