  0
SECTION
  2
HEADER
  9
$ACADVER
  1
AC1009
  9
$INSBASE
 10
0.0
 20
0.0
 30
0.0
  9
$EXTMIN
 10
-19.943800126328519
 20
-13.53248687487581
 30
0.0
  9
$EXTMAX
 10
73.969293684939487
 20
47.000000000000007
 30
0.0
  9
$LIMMIN
 10
0.0
 20
0.0
  9
$LIMMAX
 10
297.0
 20
210.0
  9
$ORTHOMODE
 70
     1
  9
$REGENMODE
 70
     1
  9
$FILLMODE
 70
     1
  9
$QTEXTMODE
 70
     0
  9
$MIRRTEXT
 70
     1
  9
$DRAGMODE
 70
     2
  9
$LTSCALE
 40
10.0
  9
$OSMODE
 70
     7
  9
$ATTMODE
 70
     1
  9
$TEXTSIZE
 40
3.0
  9
$TRACEWID
 40
1.0
  9
$TEXTSTYLE
  7
YOKO
  9
$CLAYER
  8
240
  9
$CELTYPE
  6
BYLAYER
  9
$CECOLOR
 62
   256
  9
$DIMSCALE
 40
1.0
  9
$DIMASZ
 40
2.2299999999999991
  9
$DIMEXO
 40
0.5
  9
$DIMDLI
 40
2.5
  9
$DIMRND
 40
0.0
  9
$DIMDLE
 40
0.0
  9
$DIMEXE
 40
1.0
  9
$DIMTP
 40
0.0
  9
$DIMTM
 40
0.0
  9
$DIMTXT
 40
3.0
  9
$DIMCEN
 40
0.0
  9
$DIMTSZ
 40
0.0
  9
$DIMTOL
 70
     0
  9
$DIMLIM
 70
     0
  9
$DIMTIH
 70
     0
  9
$DIMTOH
 70
     0
  9
$DIMSE1
 70
     0
  9
$DIMSE2
 70
     0
  9
$DIMTAD
 70
     3
  9
$DIMZIN
 70
     8
  9
$DIMBLK
  1
OPEN
  9
$DIMASO
 70
     1
  9
$DIMSHO
 70
     1
  9
$DIMPOST
  1

  9
$DIMAPOST
  1

  9
$DIMALT
 70
     0
  9
$DIMALTD
 70
     2
  9
$DIMALTF
 40
25.399999999999999
  9
$DIMLFAC
 40
1.0
  9
$DIMTOFL
 70
     1
  9
$DIMTVP
 40
0.0
  9
$DIMTIX
 70
     0
  9
$DIMSOXD
 70
     0
  9
$DIMSAH
 70
     1
  9
$DIMBLK1
  1

  9
$DIMBLK2
  1

  9
$DIMSTYLE
  2
BIGT
  9
$DIMCLRD
 70
   256
  9
$DIMCLRE
 70
   256
  9
$DIMCLRT
 70
    40
  9
$DIMTFAC
 40
1.0
  9
$DIMGAP
 40
1.0
  9
$LUNITS
 70
     2
  9
$LUPREC
 70
     2
  9
$SKETCHINC
 40
1.0
  9
$FILLETRAD
 40
5.0
  9
$AUNITS
 70
     0
  9
$AUPREC
 70
     3
  9
$MENU
  1
.
  9
$ELEVATION
 40
0.0
  9
$PELEVATION
 40
0.0
  9
$THICKNESS
 40
0.0
  9
$LIMCHECK
 70
     0
  9
$BLIPMODE
 70
     0
  9
$CHAMFERA
 40
10.0
  9
$CHAMFERB
 40
10.0
  9
$SKPOLY
 70
     0
  9
$TDCREATE
 40
2452203.359927292
  9
$TDUPDATE
 40
2460549.5729943868
  9
$TDINDWG
 40
0.2397857639
  9
$TDUSRTIMER
 40
0.2397828356
  9
$USRTIMER
 70
     1
  9
$ANGBASE
 50
0.0
  9
$ANGDIR
 70
     0
  9
$PDMODE
 70
    35
  9
$PDSIZE
 40
-5.0
  9
$PLINEWID
 40
0.0
  9
$COORDS
 70
     1
  9
$SPLFRAME
 70
     0
  9
$SPLINETYPE
 70
     6
  9
$SPLINESEGS
 70
     8
  9
$ATTDIA
 70
     1
  9
$ATTREQ
 70
     1
  9
$HANDLING
 70
     1
  9
$HANDSEED
  5
278A
  9
$SURFTAB1
 70
     6
  9
$SURFTAB2
 70
     6
  9
$SURFTYPE
 70
     6
  9
$SURFU
 70
     6
  9
$SURFV
 70
     6
  9
$UCSNAME
  2

  9
$UCSORG
 10
0.0
 20
0.0
 30
0.0
  9
$UCSXDIR
 10
1.0
 20
0.0
 30
0.0
  9
$UCSYDIR
 10
0.0
 20
1.0
 30
0.0
  9
$PUCSNAME
  2

  9
$PUCSORG
 10
0.0
 20
0.0
 30
0.0
  9
$PUCSXDIR
 10
1.0
 20
0.0
 30
0.0
  9
$PUCSYDIR
 10
0.0
 20
1.0
 30
0.0
  9
$USERI1
 70
     1
  9
$USERI2
 70
     0
  9
$USERI3
 70
     0
  9
$USERI4
 70
     0
  9
$USERI5
 70
     0
  9
$USERR1
 40
0.0
  9
$USERR2
 40
0.0
  9
$USERR3
 40
0.0
  9
$USERR4
 40
0.0
  9
$USERR5
 40
0.0
  9
$WORLDVIEW
 70
     1
  9
$SHADEDGE
 70
     3
  9
$SHADEDIF
 70
    70
  9
$TILEMODE
 70
     1
  9
$MAXACTVP
 70
    16
  9
$PLIMCHECK
 70
     0
  9
$PEXTMIN
 10
1.0000000000000000E+020
 20
1.0000000000000000E+020
 30
1.0000000000000000E+020
  9
$PEXTMAX
 10
-1.0000000000000000E+020
 20
-1.0000000000000000E+020
 30
-1.0000000000000000E+020
  9
$PLIMMIN
 10
0.0
 20
0.0
  9
$PLIMMAX
 10
420.0
 20
297.0
  9
$UNITMODE
 70
     0
  9
$VISRETAIN
 70
     0
  9
$PLINEGEN
 70
     0
  9
$PSLTSCALE
 70
     1
  0
ENDSEC
  0
SECTION
  2
TABLES
  0
TABLE
  2
VPORT
 70
     1
  0
VPORT
  2
*ACTIVE
 70
     0
 10
0.0
 20
0.0
 11
1.0
 21
1.0
 12
12.171498803082059
 22
17.096156989600999
 13
0.0
 23
0.0
 14
7.0
 24
7.0
 15
7.0
 25
7.0
 16
0.0
 26
0.0
 36
1.0
 17
0.0
 27
0.0
 37
0.0
 40
110.0275192939669
 41
2.0682680151706689
 42
50.0
 43
0.0
 44
0.0
 50
0.0
 51
0.0
 71
     0
 72
  2000
 73
     1
 74
     0
 75
     0
 76
     1
 77
     0
 78
     1
  0
ENDTAB
  0
TABLE
  2
LTYPE
 70
    18
  0
LTYPE
  2
CONTINUOUS
 70
     0
  3
Solid line
 72
    65
 73
     0
 40
0.0
  0
LTYPE
  2
CENTER2
 70
     0
  3
___ _ ___ _ ___ _ ___ _ ___ _ ___ _ ___ _ ___ _
 72
    65
 73
     4
 40
1.125
 49
0.75
 49
-0.125
 49
0.125
 49
-0.125
  0
LTYPE
  2
PHANTOM2
 70
     0
  3
___ _ _ ___ _ _ ___ _ _ ___ _ _ ___ _ _ ___ _ _
 72
    65
 73
     6
 40
1.25
 49
0.625
 49
-0.125
 49
0.125
 49
-0.125
 49
0.125
 49
-0.125
  0
LTYPE
  2
HIDDEN
 70
     0
  3
Hidden __ __ __ __ __ __ __ __ __ __ __ __ __ _
 72
    65
 73
     2
 40
9.5249999999999986
 49
6.349999999999997
 49
-3.174999999999998
  0
LTYPE
  2
CENTER
 70
     0
  3
Center ____ _ ____ _ ____ _ ____ _ ____ _ ____
 72
    65
 73
     4
 40
50.799999999999997
 49
31.75
 49
-6.349999999999997
 49
6.349999999999997
 49
-6.349999999999997
  0
LTYPE
  2
AMCONSTR
 70
     0
  3
_______________________
 72
    65
 73
     2
 40
9999.0
 49
9999.0
 49
0.0
  0
LTYPE
  2
HIDDEN2
 70
     0
  3
Hidden (.5x) _ _ _ _ _ _ _ _ _ _ _ _ _ _ _ _ _
 72
    65
 73
     2
 40
0.1875
 49
0.125
 49
-0.0625
  0
LTYPE
  2
AMZIGZAG2
 70
     0
  3
/\/-/\/-/\/-/\/-/\/-/\/
 72
    65
 73
     2
 40
0.4401
 49
0.0001
 49
-0.4400000000000003
  0
LTYPE
  2
ACANSTGB
 70
     0
  3
__ . . __ . .
 72
    65
 73
     6
 40
0.35433070866
 49
0.15748031496
 49
-0.03937007874
 49
0.03937007874
 49
-0.03937007874
 49
0.03937007874
 49
-0.03937007874
  0
LTYPE
  2
ACANSTGL
 70
     0
  3
_ _ _ _ _
 72
    65
 73
     2
 40
0.11811023622
 49
0.07874015748
 49
-0.03937007874
  0
ENDTAB
  0
TABLE
  2
LAYER
 70
     9
  0
LAYER
  2
0
 70
     0
 62
     7
  6
CONTINUOUS
  0
LAYER
  2
240
 70
     0
 62
     4
  6
CONTINUOUS
  0
LAYER
  2
241
 70
     0
 62
   211
  6
CONTINUOUS
  0
LAYER
  2
242
 70
     0
 62
     3
  6
CONTINUOUS
  0
LAYER
  2
245
 70
     0
 62
     2
  6
CENTER2
  0
LAYER
  2
246
 70
     0
 62
     3
  6
PHANTOM2
  0
LAYER
  2
250
 70
     0
 62
     3
  6
CONTINUOUS
  0
LAYER
  2
DEFPOINTS
 70
     0
 62
     7
  6
CONTINUOUS
  0
LAYER
  2
247
 70
     0
 62
    60
  6
CONTINUOUS
  0
ENDTAB
  0
TABLE
  2
STYLE
 70
     6
  0
STYLE
  2
STANDARD
 70
     0
 40
0.0
 41
1.0
 50
0.0
 71
     0
 42
3.0
  3
romans.shx
  4
BIGFONT.SHX
  0
STYLE
  2
YOKO
 70
     0
 40
0.0
 41
1.0
 50
0.0
 71
     0
 42
3.0
  3
romans.shx
  4
extfont.shx
  0
STYLE
  2
ACANSGDT
 70
     0
 40
0.0
 41
1.0
 50
0.0
 71
     0
 42
3.0
  3
amgdt.shx
  4

  0
ENDTAB
  0
TABLE
  2
VIEW
 70
     0
  0
ENDTAB
  0
TABLE
  2
UCS
 70
     0
  0
ENDTAB
  0
TABLE
  2
APPID
 70
    27
  0
APPID
  2
ACAD
 70
     0
  0
APPID
  2
ACADANNOTATIVE
 70
     0
  0
APPID
  2
GLOBAL
 70
     0
  0
APPID
  2
DETAIL
 70
     0
  0
APPID
  2
GRPNAME
 70
     0
  0
APPID
  2
GPARA
 70
     0
  0
APPID
  2
ITEMNAME
 70
     0
  0
APPID
  2
HATCH_TYPE
 70
     0
  0
APPID
  2
HATCH_DISPLAY
 70
     0
  0
APPID
  2
HATCH_DISTANCE
 70
     0
  0
APPID
  2
MCAD_NO_VIS
 70
     0
  0
APPID
  2
ACAD_TEMP_GRAPHIC
 70
     0
  0
APPID
  2
AD_DRAW
 70
     0
  0
APPID
  2
ACATTRIBSERVICES
 70
     0
  0
APPID
  2
DESIGNERASSEMBLIES
 70
     0
  0
APPID
  2
ACADM_DIM_EDIT
 70
     0
  0
APPID
  2
AMDT_DM_ADJ
 70
     0
  0
APPID
  2
GENIUS_GENSCREG_15
 70
     0
  0
APPID
  2
GENIUS_GENOBJ-N-SDF_13
 70
     0
  0
APPID
  2
GENIUS_GENODEF_13
 70
     0
  0
APPID
  2
CONTENTBLOCKICON
 70
     0
  0
APPID
  2
ACAD_DSTYLE_DIMBREAK
 70
     0
  0
APPID
  2
ACAD_DSTYLE_DIMJAG
 70
     0
  0
APPID
  2
ACAD_NAV_VCDISPLAY
 70
     0
  0
APPID
  2
GENIUS_GENOBJ-N-FIL_13
 70
     0
  0
APPID
  2
ACAD_EXEMPT_FROM_CAD_STANDARDS
 70
     0
  0
APPID
  2
ACAD_MLEADERVER
 70
     0
  0
ENDTAB
  0
TABLE
  2
DIMSTYLE
 70
    10
  0
DIMSTYLE
  2
STANDARD
 70
     0
  3

  4

  5

  6

  7

 40
1.0
 41
0.18
 42
0.0625
 43
0.38
 44
0.18
 45
0.0
 46
0.0
 47
0.0
 48
0.0
140
0.18
141
0.09
142
0.0
143
25.399999999999999
144
1.0
145
0.0
146
1.0
147
0.09
 71
     0
 72
     0
 73
     1
 74
     1
 75
     0
 76
     0
 77
     0
 78
     0
170
     0
171
     2
172
     0
173
     0
174
     0
175
     0
176
     0
177
     0
178
     0
  0
DIMSTYLE
  2
BIGT
 70
     0
  3

  4

  5

  6

  7

 40
1.0
 41
2.2299999999999991
 42
0.5
 43
2.5
 44
1.0
 45
0.0
 46
0.0
 47
0.0
 48
0.0
140
3.5
141
0.0
142
0.0
143
25.399999999999999
144
1.0
145
0.0
146
1.0
147
1.0
 71
     0
 72
     0
 73
     0
 74
     0
 75
     0
 76
     0
 77
     3
 78
     9
170
     0
171
     2
172
     1
173
     0
174
     0
175
     0
176
   256
177
   256
178
    40
  0
DIMSTYLE
  2
AM_ANSI
 70
     0
  3

  4
mm
  5

  6

  7

 40
1.0
 41
0.1
 42
0.05
 43
0.5
 44
0.1
 45
0.0
 46
0.0
 47
0.1
 48
0.1
140
0.12
141
0.0
142
0.0
143
25.399999999999999
144
1.0
145
0.0
146
0.71
147
0.06
 71
     0
 72
     0
 73
     1
 74
     1
 75
     0
 76
     0
 77
     0
 78
     7
170
     0
171
     2
172
     0
173
     0
174
     0
175
     0
176
   256
177
   256
178
     2
  0
DIMSTYLE
  2
AM_ANSI$3
 70
     0
  3

  4
mm
  5

  6

  7

 40
1.0
 41
0.1
 42
0.05
 43
0.5
 44
0.1
 45
0.0
 46
0.0
 47
0.1
 48
0.1
140
0.12
141
0.0
142
0.0
143
25.399999999999999
144
1.0
145
0.0
146
0.71
147
0.06
 71
     0
 72
     0
 73
     1
 74
     1
 75
     0
 76
     0
 77
     0
 78
     7
170
     0
171
     2
172
     0
173
     0
174
     0
175
     0
176
   256
177
   256
178
     2
  0
DIMSTYLE
  2
AM_ANSI$4
 70
     0
  3

  4
mm
  5

  6

  7

 40
1.0
 41
0.1
 42
0.05
 43
0.5
 44
0.1
 45
0.0
 46
0.0
 47
0.1
 48
0.1
140
0.12
141
0.0
142
0.0
143
25.399999999999999
144
1.0
145
0.0
146
0.71
147
0.06
 71
     0
 72
     0
 73
     1
 74
     1
 75
     0
 76
     0
 77
     0
 78
     7
170
     0
171
     2
172
     0
173
     0
174
     0
175
     0
176
   256
177
   256
178
     2
  0
DIMSTYLE
  2
AM_ANSI$7
 70
     0
  3

  4
mm
  5

  6

  7

 40
1.0
 41
0.1
 42
0.05
 43
0.5
 44
0.1
 45
0.0
 46
0.0
 47
0.1
 48
0.1
140
0.24
141
0.0
142
0.0
143
25.399999999999999
144
1.0
145
0.0
146
0.71
147
0.06
 71
     0
 72
     0
 73
     1
 74
     1
 75
     0
 76
     0
 77
     0
 78
     7
170
     0
171
     2
172
     0
173
     0
174
     0
175
     0
176
   256
177
   256
178
     2
  0
DIMSTYLE
  2
AM_ANSI$SF
 70
     0
  3

  4
mm
  5

  6

  7

 40
1.0
 41
0.1
 42
0.05
 43
0.5
 44
0.1
 45
0.0
 46
0.0
 47
0.1
 48
0.1
140
0.12
141
0.0
142
0.0
143
25.399999999999999
144
1.0
145
0.0
146
0.71
147
0.06
 71
     0
 72
     0
 73
     1
 74
     1
 75
     1
 76
     1
 77
     0
 78
     7
170
     0
171
     2
172
     0
173
     0
174
     0
175
     0
176
   256
177
   256
178
     2
  0
DIMSTYLE
  2
AM_ANSI$SH
 70
     0
  3

  4
mm
  5

  6

  7

 40
1.0
 41
0.1
 42
0.05
 43
0.5
 44
0.1
 45
0.0
 46
0.0
 47
0.1
 48
0.1
140
0.12
141
0.0
142
0.0
143
25.399999999999999
144
1.0
145
0.0
146
0.71
147
0.06
 71
     0
 72
     0
 73
     1
 74
     1
 75
     1
 76
     1
 77
     0
 78
     7
170
     0
171
     2
172
     0
173
     1
174
     0
175
     0
176
   256
177
   256
178
     2
  0
ENDTAB
  0
ENDSEC
  0
SECTION
  2
BLOCKS
  0
BLOCK
  8
0
  2
$MODEL_SPACE
 70
     0
 10
0.0
 20
0.0
 30
0.0
  3
$MODEL_SPACE
  1

  0
ENDBLK
  5
24A2
  8
0
  0
BLOCK
 67
     1
  8
0
  2
$PAPER_SPACE
 70
     0
 10
0.0
 20
0.0
 30
0.0
  3
$PAPER_SPACE
  1

  0
ENDBLK
  5
249E
 67
     1
  8
0
  0
BLOCK
  8
0
  2
_OPEN
 70
     0
 10
0.0
 20
0.0
 30
0.0
  3
_OPEN
  1

  0
LINE
  5
595
  8
0
  6
BYBLOCK
 62
     0
 10
-1.0
 20
0.1666666666666666
 30
0.0
 11
0.0
 21
0.0
 31
0.0
  0
LINE
  5
596
  8
0
  6
BYBLOCK
 62
     0
 10
-1.0
 20
-0.1666666666666666
 30
0.0
 11
0.0
 21
0.0
 31
0.0
  0
LINE
  5
597
  8
0
  6
BYBLOCK
 62
     0
 10
0.0
 20
0.0
 30
0.0
 11
-1.0
 21
0.0
 31
0.0
  0
ENDBLK
  5
599
  8
0
  0
BLOCK
  8
0
  2
_ACMFILLEDHALF
 70
     0
 10
0.0
 20
0.0
 30
0.0
  3
_ACMFILLEDHALF
  1

  0
TRACE
  5
2189
  8
240
 62
     0
 10
-0.8
 20
0.0
 30
0.0
 11
-1.0
 21
0.166666666
 31
0.0
 12
0.0
 22
0.0
 32
0.0
 13
0.0
 23
0.0
 33
0.0
  0
LINE
  5
218A
  8
240
 62
     0
 10
-1.0
 20
0.0
 30
0.0
 11
-0.8
 21
0.0
 31
0.0
  0
ENDBLK
  5
2188
  8
0
  0
ENDSEC
  0
SECTION
  2
ENTITIES
  0
TEXT
  5
14C5
  8
241
  6
CONTINUOUS
 10
-13.69999999999987
 20
42.0
 30
0.0
 40
5.0
  1
EWN20-36CKB1
  7
YOKO
 11
-13.69999999999987
 21
42.0
 31
0.0
 73
     1
  0
LINE
  5
14CC
  8
250
  6
CONTINUOUS
 10
37.474111086112231
 20
27.737945086536399
 30
0.0
 11
73.969293684939487
 21
27.737945086536399
 31
0.0
1001
ITEMNAME
1000
LNSP2
  0
LINE
  5
182F
  8
250
  6
CONTINUOUS
 10
33.009201900052098
 20
13.00000030483767
 30
0.0
 11
43.599998156922247
 21
13.000000304837659
 31
0.0
  0
LINE
  5
1830
  8
250
  6
CONTINUOUS
 10
42.59999815692224
 20
10.77000030483766
 30
0.0
 11
42.59999815692224
 21
-13.00000030483767
 31
0.0
  0
TEXT
  5
183C
  8
250
  6
CONTINUOUS
 10
41.902682514683683
 20
28.737945086536399
 30
0.0
 40
3.0
  1
ENH1-1,TP08
  7
YOKO
1001
ITEMNAME
1000
LNSP3
1001
ACAD
1000
MTEXTBEGIN
1070
    73
1070
     1
1070
    44
1040
1.0
1070
    74
1070
     0
1000
MTEXTEND
  0
LINE
  5
183D
  8
250
  6
CONTINUOUS
 10
29.871251875197618
 20
14.5694066504393
 30
0.0
 11
37.474111086112231
 21
27.737945086536399
 31
0.0
1001
ACAD
1000
DSTYLE
1002
{
1070
     6
1000
OPEN
1070
    41
1040
2.2299999999999991
1070
    78
1070
     8
1070
    79
1070
     2
1070
   140
1040
3.0
1070
   173
1070
     1
1070
   179
1070
     3
1070
   371
1070
    -1
1070
   372
1070
    -1
1002
}
  0
LINE
  5
1848
  8
250
  6
CONTINUOUS
 10
30.193124650270839
 20
14.383573317105959
 30
0.0
 11
28.75625187519762
 21
12.638170000000001
 31
0.0
  0
LINE
  5
1849
  8
250
  6
CONTINUOUS
 10
29.549379100124408
 20
14.75523998377262
 30
0.0
 11
28.75625187519762
 21
12.638170000000001
 31
0.0
  0
LINE
  5
184A
  8
250
  6
CONTINUOUS
 10
28.75625187519762
 20
12.638170000000001
 30
0.0
 11
29.871251875197618
 21
14.569406650439291
 31
0.0
  0
TEXT
  5
184C
  8
250
  6
CONTINUOUS
 10
40.434282794409327
 20
-12.23057257596577
 30
0.0
 40
3.0
  1
(
 50
90.0
  0
TEXT
  5
184D
  8
250
  6
CONTINUOUS
 10
40.434282794409327
 20
-10.23057257596577
 30
0.0
 40
3.0
  1
\U+2205
 50
90.0
  0
TEXT
  5
184E
  8
250
  6
CONTINUOUS
 10
40.434282794409327
 20
-7.5162868616800571
 30
0.0
 40
3.0
  1
20~
 50
90.0
  0
TEXT
  5
184F
  8
250
  6
CONTINUOUS
 10
40.434282794409327
 20
1.9122845668913671
 30
0.0
 40
3.0
  1
\U+2205
 50
90.0
  0
TEXT
  5
1850
  8
250
  6
CONTINUOUS
 10
40.434282794409327
 20
4.6265702811770852
 30
0.0
 40
3.0
  1
26)
 50
90.0
  0
LINE
  5
1851
  8
250
  6
CONTINUOUS
 10
42.228331490255592
 20
10.77000030483766
 30
0.0
 11
42.59999815692224
 21
13.000000304837659
 31
0.0
  0
LINE
  5
1852
  8
250
  6
CONTINUOUS
 10
42.971664823588917
 20
10.77000030483766
 30
0.0
 11
42.59999815692224
 21
13.000000304837659
 31
0.0
  0
LINE
  5
1853
  8
250
  6
CONTINUOUS
 10
42.59999815692224
 20
13.000000304837659
 30
0.0
 11
42.59999815692224
 21
10.77000030483766
 31
0.0
  0
LINE
  5
1BB5
  8
241
  6
CONTINUOUS
 10
8.3000000000000114
 20
9.25
 30
0.0
 11
8.3000000000000114
 21
-9.25
 31
0.0
  0
LINE
  5
1BB7
  8
245
  6
CENTER2
 10
21.499999999999989
 20
-9.6527319999999541
 30
0.0
 11
21.499999999999989
 21
13.537951000000071
 31
0.0
  0
LINE
  5
1BB8
  8
241
  6
CONTINUOUS
 10
0.2999999999999971
 20
8.5
 30
0.0
 11
0.2999999999999971
 21
-8.5
 31
0.0
  0
ARC
  5
1BB9
  8
240
  6
CONTINUOUS
 10
27.970022
 20
-6.3999999999999764
 30
0.0
 40
1.0
 50
270.0
 51
329.99999999999972
  0
LINE
  5
1BBF
  8
240
  6
CONTINUOUS
 10
0.0
 20
-8.1999999999999869
 30
0.0
 11
0.0000000000001137
 21
-5.499999999999857
 31
0.0
  0
LINE
  5
1BC2
  8
240
  6
CONTINUOUS
 10
13.93190199999998
 20
-9.25
 30
0.0
 11
8.3000000000000114
 21
-9.25
 31
0.0
  0
LINE
  5
1BC3
  8
240
  6
CONTINUOUS
 10
0.2999999999999971
 20
-9.25
 30
0.0
 11
8.3000000000000114
 21
-9.25
 31
0.0
  0
LINE
  5
1BC7
  8
240
  6
CONTINUOUS
 10
0.2999999999999971
 20
-9.25
 30
0.0
 11
0.2999999999999971
 21
-8.5000000000037463
 31
0.0
  0
LINE
  5
1BC8
  8
240
  6
CONTINUOUS
 10
0.2999999999999971
 20
-8.5
 30
0.0
 11
0.0
 21
-8.1999999999999869
 31
0.0
  0
LINE
  5
1BC9
  8
240
  6
CONTINUOUS
 10
21.499999999999989
 20
-8.4583989999999272
 30
0.0
 11
23.0
 21
-8.4583989999999272
 31
0.0
  0
LINE
  5
1BCA
  8
241
  6
CONTINUOUS
 10
26.949999999999982
 20
-7.3999999999999773
 30
0.0
 11
16.050000000000011
 21
-7.3999999999999773
 31
0.0
  0
LINE
  5
1BCB
  8
240
  6
CONTINUOUS
 10
16.050000000000011
 20
-7.3999999999999773
 30
0.0
 11
15.0
 21
-7.3999999999999773
 31
0.0
  0
LINE
  5
1BCC
  8
240
  6
CONTINUOUS
 10
15.0
 20
-7.3999999999999773
 30
0.0
 11
13.93190199999998
 21
-9.25
 31
0.0
  0
LINE
  5
1BCD
  8
240
  6
CONTINUOUS
 10
20.0
 20
-8.4583989999999272
 30
0.0
 11
16.050000000000011
 21
-7.3999999999999773
 31
0.0
  0
LINE
  5
1BCE
  8
240
  6
CONTINUOUS
 10
21.499999999999989
 20
-8.4583989999999272
 30
0.0
 11
20.0
 21
-8.4583989999999272
 31
0.0
  0
LINE
  5
1BCF
  8
240
  6
CONTINUOUS
 10
23.0
 20
-8.4583989999999272
 30
0.0
 11
26.949999999999982
 21
-7.3999999999999773
 31
0.0
  0
LINE
  5
1BD0
  8
240
  6
CONTINUOUS
 10
27.970022
 20
-7.3999999999999773
 30
0.0
 11
26.949999999999982
 21
-7.3999999999999773
 31
0.0
  0
LINE
  5
1BD1
  8
245
  6
CENTER2
 10
-14.659378
 20
0.0
 30
0.0
 11
31.167930999999989
 21
0.0
 31
0.0
  0
LINE
  5
1BD2
  8
240
  6
CONTINUOUS
 10
8.5700219999999945
 20
9.25
 30
0.0
 11
10.099999999999991
 21
6.600000000000021
 31
0.0
  0
LINE
  5
1C4F
  8
240
  6
CONTINUOUS
 10
0.2999999999999971
 20
9.25
 30
0.0
 11
8.3000000000000114
 21
9.25
 31
0.0
  0
LINE
  5
1C50
  8
240
  6
CONTINUOUS
 10
0.0
 20
8.1999999999999869
 30
0.0
 11
0.000000000000469
 21
5.4999999999999831
 31
0.0
  0
LINE
  5
1C56
  8
240
  6
CONTINUOUS
 10
0.2999999999999971
 20
8.4999999999996732
 30
0.0
 11
0.2999999999999971
 21
9.25
 31
0.0
  0
LINE
  5
1C57
  8
240
  6
CONTINUOUS
 10
0.0
 20
8.1999999999999869
 30
0.0
 11
0.2999999999999971
 21
8.5
 31
0.0
  0
LINE
  5
1C58
  8
240
  6
CONTINUOUS
 10
8.5700219999999945
 20
9.25
 30
0.0
 11
8.3000000000000114
 21
9.25
 31
0.0
  0
CIRCLE
  5
1C5B
  8
242
  6
CONTINUOUS
 10
21.499999999999989
 20
0.0
 30
0.0
 40
1.649999999999999
  0
LINE
  5
1C5C
  8
241
  6
CONTINUOUS
 10
21.662693999999981
 20
6.600000000000021
 30
0.0
 11
26.0
 21
5.437822000000037
 31
0.0
  0
CIRCLE
  5
1C5D
  8
241
  6
CONTINUOUS
 10
21.499999999999989
 20
0.0
 30
0.0
 40
2.0
  0
LINE
  5
1C5E
  8
241
  6
CONTINUOUS
 10
22.715924000000001
 20
9.4717990000000327
 30
0.0
 11
20.284076999999989
 21
9.4717990000000327
 31
0.0
  0
LINE
  5
1C5F
  8
241
  6
CONTINUOUS
 10
21.499999999999989
 20
1.1547010000000431
 30
0.0
 11
22.5
 21
0.577350000000024
 31
0.0
  0
LINE
  5
1C60
  8
241
  6
CONTINUOUS
 10
22.5
 20
-0.577350000000024
 30
0.0
 11
21.499999999999989
 21
-1.1546999999999901
 31
0.0
  0
LINE
  5
1C61
  8
241
  6
CONTINUOUS
 10
20.5
 20
-0.577350000000024
 30
0.0
 11
20.5
 21
0.577350000000024
 31
0.0
  0
LINE
  5
1C62
  8
241
  6
CONTINUOUS
 10
20.5
 20
0.577350000000024
 30
0.0
 11
21.499999999999989
 21
1.1547010000000431
 31
0.0
  0
LINE
  5
1C63
  8
241
  6
CONTINUOUS
 10
21.499999999999989
 20
-1.1546999999999901
 30
0.0
 11
20.5
 21
-0.577350000000024
 31
0.0
  0
LINE
  5
1C64
  8
240
  6
CONTINUOUS
 10
17.0
 20
6.600000000000021
 30
0.0
 11
10.099999999999991
 21
6.600000000000021
 31
0.0
  0
LINE
  5
1C66
  8
241
  6
CONTINUOUS
 10
21.662693999999981
 20
6.600000000000021
 30
0.0
 11
17.0
 21
6.600000000000021
 31
0.0
  0
LINE
  5
1C67
  8
240
  6
CONTINUOUS
 10
17.0
 20
6.600000000000021
 30
0.0
 11
17.0
 21
8.1717990000000214
 31
0.0
  0
LINE
  5
1C68
  8
240
  6
CONTINUOUS
 10
17.199999999999982
 20
8.3717990000000082
 30
0.0
 11
17.0
 21
8.1717990000000214
 31
0.0
  0
LINE
  5
1C69
  8
241
  6
CONTINUOUS
 10
20.284076999999989
 20
9.4717990000000327
 30
0.0
 11
20.051067999999979
 21
9.2745419999999967
 31
0.0
  0
LINE
  5
1C6A
  8
241
  6
CONTINUOUS
 10
20.051067999999979
 20
9.2745419999999967
 30
0.0
 11
19.899999999999991
 21
8.3717989999999922
 31
0.0
  0
LINE
  5
1C6B
  8
240
  6
CONTINUOUS
 10
29.5
 20
4.5
 30
0.0
 11
29.5
 21
-5.75
 31
0.0
  0
LINE
  5
1C6C
  8
241
  6
CONTINUOUS
 10
22.5
 20
0.577350000000024
 30
0.0
 11
22.5
 21
-0.577350000000024
 31
0.0
  0
LINE
  5
1C6D
  8
240
  6
CONTINUOUS
 10
29.5
 20
-5.75
 30
0.0
 11
28.836048000000002
 21
-6.8999999999999764
 31
0.0
  0
LINE
  5
1C6E
  8
240
  6
CONTINUOUS
 10
26.0
 20
5.437822000000037
 30
0.0
 11
29.5
 21
4.5
 31
0.0
  0
LINE
  5
1C6F
  8
240
  6
CONTINUOUS
 10
26.0
 20
5.437822000000037
 30
0.0
 11
26.0
 21
8.1717990000000214
 31
0.0
  0
LINE
  5
1C71
  8
241
  6
CONTINUOUS
 10
22.715924000000001
 20
9.4717990000000327
 30
0.0
 11
22.948932999999979
 21
9.2745419999999967
 31
0.0
  0
LINE
  5
1C72
  8
241
  6
CONTINUOUS
 10
22.948932999999979
 20
9.2745419999999967
 30
0.0
 11
23.099999999999991
 21
8.3717990000000082
 31
0.0
  0
LINE
  5
1C73
  8
240
  6
CONTINUOUS
 10
26.0
 20
8.1717990000000214
 30
0.0
 11
25.80000000000004
 21
8.3717989999999922
 31
0.0
  0
ARC
  5
1C7B
  8
240
  6
CONTINUOUS
 10
18.300000000000001
 20
11.271799000000019
 30
0.0
 40
1.0
 50
89.999999992281175
 51
179.99999999228189
1001
GRPNAME
1000
PASTMD0F
  0
LINE
  5
1C7C
  8
241
  6
CONTINUOUS
 10
17.300000000000001
 20
8.3717989999999922
 30
0.0
 11
19.899999999999991
 21
8.3717989999999922
 31
0.0
1001
GRPNAME
1000
PASTMD0F
  0
LINE
  5
1C7D
  8
240
  6
CONTINUOUS
 10
17.300000000000001
 20
8.3717989999999922
 30
0.0
 11
17.300000000000001
 21
11.271799000000019
 31
0.0
1001
GRPNAME
1000
PASTMD0F
  0
POLYLINE
  5
1C7E
  8
240
  6
CONTINUOUS
 66
     1
 10
0.0
 20
0.0
 30
0.0
 70
     8
  0
VERTEX
  5
1C7F
  8
240
  6
CONTINUOUS
 10
23.347939999999991
 20
12.03596900000001
 30
0.0
 70
    32
  0
VERTEX
  5
1C80
  8
240
  6
CONTINUOUS
 10
23.35366999999999
 20
12.03724900000001
 30
0.0
 70
    32
  0
VERTEX
  5
1C81
  8
240
  6
CONTINUOUS
 10
23.359389999999991
 20
12.038529000000009
 30
0.0
 70
    32
  0
VERTEX
  5
1C82
  8
240
  6
CONTINUOUS
 10
23.36511999999999
 20
12.039799000000009
 30
0.0
 70
    32
  0
VERTEX
  5
1C83
  8
240
  6
CONTINUOUS
 10
23.37084999999999
 20
12.041079000000011
 30
0.0
 70
    32
  0
VERTEX
  5
1C84
  8
240
  6
CONTINUOUS
 10
23.37656999999999
 20
12.04235900000001
 30
0.0
 70
    32
  0
VERTEX
  5
1C85
  8
240
  6
CONTINUOUS
 10
23.38229999999999
 20
12.04363900000001
 30
0.0
 70
    32
  0
VERTEX
  5
1C86
  8
240
  6
CONTINUOUS
 10
23.38802999999999
 20
12.044919
 30
0.0
 70
    32
  0
VERTEX
  5
1C87
  8
240
  6
CONTINUOUS
 10
23.39374999999999
 20
12.04619900000001
 30
0.0
 70
    32
  0
VERTEX
  5
1C88
  8
240
  6
CONTINUOUS
 10
23.39947999999999
 20
12.04747900000001
 30
0.0
 70
    32
  0
VERTEX
  5
1C89
  8
240
  6
CONTINUOUS
 10
23.40520999999999
 20
12.048759000000009
 30
0.0
 70
    32
  0
VERTEX
  5
1C8A
  8
240
  6
CONTINUOUS
 10
23.41092999999999
 20
12.05004900000001
 30
0.0
 70
    32
  0
VERTEX
  5
1C8B
  8
240
  6
CONTINUOUS
 10
23.41665999999999
 20
12.05132900000001
 30
0.0
 70
    32
  0
VERTEX
  5
1C8C
  8
240
  6
CONTINUOUS
 10
23.42237999999999
 20
12.052609
 30
0.0
 70
    32
  0
VERTEX
  5
1C8D
  8
240
  6
CONTINUOUS
 10
23.42810999999999
 20
12.05389900000001
 30
0.0
 70
    32
  0
VERTEX
  5
1C8E
  8
240
  6
CONTINUOUS
 10
23.43382999999999
 20
12.05517900000001
 30
0.0
 70
    32
  0
VERTEX
  5
1C8F
  8
240
  6
CONTINUOUS
 10
23.43955999999999
 20
12.056469
 30
0.0
 70
    32
  0
VERTEX
  5
1C90
  8
240
  6
CONTINUOUS
 10
23.44527999999999
 20
12.05775900000001
 30
0.0
 70
    32
  0
VERTEX
  5
1C91
  8
240
  6
CONTINUOUS
 10
23.451009999999989
 20
12.059039000000009
 30
0.0
 70
    32
  0
VERTEX
  5
1C92
  8
240
  6
CONTINUOUS
 10
23.45672999999999
 20
12.06032900000001
 30
0.0
 70
    32
  0
VERTEX
  5
1C93
  8
240
  6
CONTINUOUS
 10
23.46244999999999
 20
12.061629000000011
 30
0.0
 70
    32
  0
VERTEX
  5
1C94
  8
240
  6
CONTINUOUS
 10
23.46817999999999
 20
12.06291900000001
 30
0.0
 70
    32
  0
VERTEX
  5
1C95
  8
240
  6
CONTINUOUS
 10
23.47389999999999
 20
12.064209000000011
 30
0.0
 70
    32
  0
VERTEX
  5
1C96
  8
240
  6
CONTINUOUS
 10
23.47961999999999
 20
12.065509
 30
0.0
 70
    32
  0
VERTEX
  5
1C97
  8
240
  6
CONTINUOUS
 10
23.48534999999999
 20
12.06679900000001
 30
0.0
 70
    32
  0
VERTEX
  5
1C98
  8
240
  6
CONTINUOUS
 10
23.49106999999999
 20
12.068099
 30
0.0
 70
    32
  0
VERTEX
  5
1C99
  8
240
  6
CONTINUOUS
 10
23.49678999999999
 20
12.06939900000001
 30
0.0
 70
    32
  0
VERTEX
  5
1C9A
  8
240
  6
CONTINUOUS
 10
23.50250999999999
 20
12.07069900000001
 30
0.0
 70
    32
  0
VERTEX
  5
1C9B
  8
240
  6
CONTINUOUS
 10
23.50822999999999
 20
12.071999000000011
 30
0.0
 70
    32
  0
VERTEX
  5
1C9C
  8
240
  6
CONTINUOUS
 10
23.513949999999991
 20
12.073309000000011
 30
0.0
 70
    32
  0
VERTEX
  5
1C9D
  8
240
  6
CONTINUOUS
 10
23.519669999999991
 20
12.074619000000011
 30
0.0
 70
    32
  0
VERTEX
  5
1C9E
  8
240
  6
CONTINUOUS
 10
23.525389999999991
 20
12.075929
 30
0.0
 70
    32
  0
VERTEX
  5
1C9F
  8
240
  6
CONTINUOUS
 10
23.531109999999991
 20
12.077239000000009
 30
0.0
 70
    32
  0
VERTEX
  5
1CA0
  8
240
  6
CONTINUOUS
 10
23.536819999999992
 20
12.07854900000001
 30
0.0
 70
    32
  0
VERTEX
  5
1CA1
  8
240
  6
CONTINUOUS
 10
23.542539999999988
 20
12.07985900000001
 30
0.0
 70
    32
  0
VERTEX
  5
1CA2
  8
240
  6
CONTINUOUS
 10
23.548259999999988
 20
12.081179000000009
 30
0.0
 70
    32
  0
VERTEX
  5
1CA3
  8
240
  6
CONTINUOUS
 10
23.553969999999989
 20
12.082499000000009
 30
0.0
 70
    32
  0
VERTEX
  5
1CA4
  8
240
  6
CONTINUOUS
 10
23.559689999999989
 20
12.083819000000011
 30
0.0
 70
    32
  0
VERTEX
  5
1CA5
  8
240
  6
CONTINUOUS
 10
23.56539999999999
 20
12.08514900000001
 30
0.0
 70
    32
  0
VERTEX
  5
1CA6
  8
240
  6
CONTINUOUS
 10
23.57111999999999
 20
12.08646900000001
 30
0.0
 70
    32
  0
VERTEX
  5
1CA7
  8
240
  6
CONTINUOUS
 10
23.57682999999999
 20
12.087799000000009
 30
0.0
 70
    32
  0
VERTEX
  5
1CA8
  8
240
  6
CONTINUOUS
 10
23.582549999999991
 20
12.08912900000001
 30
0.0
 70
    32
  0
VERTEX
  5
1CA9
  8
240
  6
CONTINUOUS
 10
23.588259999999991
 20
12.090469000000009
 30
0.0
 70
    32
  0
VERTEX
  5
1CAA
  8
240
  6
CONTINUOUS
 10
23.593969999999992
 20
12.09180900000001
 30
0.0
 70
    32
  0
VERTEX
  5
1CAB
  8
240
  6
CONTINUOUS
 10
23.599679999999989
 20
12.093149
 30
0.0
 70
    32
  0
VERTEX
  5
1CAC
  8
240
  6
CONTINUOUS
 10
23.605389999999989
 20
12.09448900000001
 30
0.0
 70
    32
  0
VERTEX
  5
1CAD
  8
240
  6
CONTINUOUS
 10
23.61109999999999
 20
12.095829000000011
 30
0.0
 70
    32
  0
VERTEX
  5
1CAE
  8
240
  6
CONTINUOUS
 10
23.61680999999999
 20
12.097179000000009
 30
0.0
 70
    32
  0
VERTEX
  5
1CAF
  8
240
  6
CONTINUOUS
 10
23.622509999999991
 20
12.098539000000009
 30
0.0
 70
    32
  0
VERTEX
  5
1CB0
  8
240
  6
CONTINUOUS
 10
23.628219999999988
 20
12.09988900000001
 30
0.0
 70
    32
  0
VERTEX
  5
1CB1
  8
240
  6
CONTINUOUS
 10
23.633929999999989
 20
12.10124900000001
 30
0.0
 70
    32
  0
VERTEX
  5
1CB2
  8
240
  6
CONTINUOUS
 10
23.63962999999999
 20
12.10260900000001
 30
0.0
 70
    32
  0
VERTEX
  5
1CB3
  8
240
  6
CONTINUOUS
 10
23.64533999999999
 20
12.10396900000001
 30
0.0
 70
    32
  0
VERTEX
  5
1CB4
  8
240
  6
CONTINUOUS
 10
23.651039999999991
 20
12.10533900000001
 30
0.0
 70
    32
  0
VERTEX
  5
1CB5
  8
240
  6
CONTINUOUS
 10
23.656739999999989
 20
12.106709000000009
 30
0.0
 70
    32
  0
VERTEX
  5
1CB6
  8
240
  6
CONTINUOUS
 10
23.662439999999989
 20
12.10808900000001
 30
0.0
 70
    32
  0
VERTEX
  5
1CB7
  8
240
  6
CONTINUOUS
 10
23.66814999999999
 20
12.10946900000001
 30
0.0
 70
    32
  0
VERTEX
  5
1CB8
  8
240
  6
CONTINUOUS
 10
23.673839999999991
 20
12.110849000000011
 30
0.0
 70
    32
  0
VERTEX
  5
1CB9
  8
240
  6
CONTINUOUS
 10
23.679539999999989
 20
12.11223900000001
 30
0.0
 70
    32
  0
VERTEX
  5
1CBA
  8
240
  6
CONTINUOUS
 10
23.68523999999999
 20
12.11362900000001
 30
0.0
 70
    32
  0
VERTEX
  5
1CBB
  8
240
  6
CONTINUOUS
 10
23.690939999999991
 20
12.115019000000011
 30
0.0
 70
    32
  0
VERTEX
  5
1CBC
  8
240
  6
CONTINUOUS
 10
23.696629999999988
 20
12.116419000000009
 30
0.0
 70
    32
  0
VERTEX
  5
1CBD
  8
240
  6
CONTINUOUS
 10
23.702329999999989
 20
12.11781900000001
 30
0.0
 70
    32
  0
VERTEX
  5
1CBE
  8
240
  6
CONTINUOUS
 10
23.708019999999991
 20
12.11921900000001
 30
0.0
 70
    32
  0
VERTEX
  5
1CBF
  8
240
  6
CONTINUOUS
 10
23.713709999999988
 20
12.12062900000001
 30
0.0
 70
    32
  0
VERTEX
  5
1CC0
  8
240
  6
CONTINUOUS
 10
23.719409999999989
 20
12.122049000000009
 30
0.0
 70
    32
  0
VERTEX
  5
1CC1
  8
240
  6
CONTINUOUS
 10
23.725099999999991
 20
12.123469000000011
 30
0.0
 70
    32
  0
VERTEX
  5
1CC2
  8
240
  6
CONTINUOUS
 10
23.730789999999988
 20
12.12488900000001
 30
0.0
 70
    32
  0
VERTEX
  5
1CC3
  8
240
  6
CONTINUOUS
 10
23.73646999999999
 20
12.126319000000001
 30
0.0
 70
    32
  0
VERTEX
  5
1CC4
  8
240
  6
CONTINUOUS
 10
23.742159999999991
 20
12.12774900000001
 30
0.0
 70
    32
  0
VERTEX
  5
1CC5
  8
240
  6
CONTINUOUS
 10
23.747849999999989
 20
12.129179000000001
 30
0.0
 70
    32
  0
VERTEX
  5
1CC6
  8
240
  6
CONTINUOUS
 10
23.753529999999991
 20
12.13061900000001
 30
0.0
 70
    32
  0
VERTEX
  5
1CC7
  8
240
  6
CONTINUOUS
 10
23.759209999999989
 20
12.13206900000001
 30
0.0
 70
    32
  0
VERTEX
  5
1CC8
  8
240
  6
CONTINUOUS
 10
23.76489999999999
 20
12.13351900000001
 30
0.0
 70
    32
  0
VERTEX
  5
1CC9
  8
240
  6
CONTINUOUS
 10
23.770579999999988
 20
12.134969000000011
 30
0.0
 70
    32
  0
VERTEX
  5
1CCA
  8
240
  6
CONTINUOUS
 10
23.77625999999999
 20
12.13642900000001
 30
0.0
 70
    32
  0
VERTEX
  5
1CCB
  8
240
  6
CONTINUOUS
 10
23.781939999999992
 20
12.13788900000001
 30
0.0
 70
    32
  0
VERTEX
  5
1CCC
  8
240
  6
CONTINUOUS
 10
23.78760999999999
 20
12.13935900000001
 30
0.0
 70
    32
  0
VERTEX
  5
1CCD
  8
240
  6
CONTINUOUS
 10
23.793289999999988
 20
12.14083900000001
 30
0.0
 70
    32
  0
VERTEX
  5
1CCE
  8
240
  6
CONTINUOUS
 10
23.79895999999999
 20
12.142319000000009
 30
0.0
 70
    32
  0
VERTEX
  5
1CCF
  8
240
  6
CONTINUOUS
 10
23.804639999999988
 20
12.14379900000001
 30
0.0
 70
    32
  0
VERTEX
  5
1CD0
  8
240
  6
CONTINUOUS
 10
23.810309999999991
 20
12.145289000000011
 30
0.0
 70
    32
  0
VERTEX
  5
1CD1
  8
240
  6
CONTINUOUS
 10
23.815979999999989
 20
12.146779
 30
0.0
 70
    32
  0
VERTEX
  5
1CD2
  8
240
  6
CONTINUOUS
 10
23.821649999999991
 20
12.148279000000009
 30
0.0
 70
    32
  0
VERTEX
  5
1CD3
  8
240
  6
CONTINUOUS
 10
23.82731999999999
 20
12.149789000000011
 30
0.0
 70
    32
  0
VERTEX
  5
1CD4
  8
240
  6
CONTINUOUS
 10
23.832979999999989
 20
12.151289000000011
 30
0.0
 70
    32
  0
VERTEX
  5
1CD5
  8
240
  6
CONTINUOUS
 10
23.838649999999991
 20
12.15280900000001
 30
0.0
 70
    32
  0
VERTEX
  5
1CD6
  8
240
  6
CONTINUOUS
 10
23.844309999999989
 20
12.154329000000009
 30
0.0
 70
    32
  0
VERTEX
  5
1CD7
  8
240
  6
CONTINUOUS
 10
23.849969999999988
 20
12.155849000000011
 30
0.0
 70
    32
  0
VERTEX
  5
1CD8
  8
240
  6
CONTINUOUS
 10
23.85563999999999
 20
12.157379000000009
 30
0.0
 70
    32
  0
VERTEX
  5
1CD9
  8
240
  6
CONTINUOUS
 10
23.861299999999989
 20
12.15890900000001
 30
0.0
 70
    32
  0
VERTEX
  5
1CDA
  8
240
  6
CONTINUOUS
 10
23.866959999999992
 20
12.16044900000001
 30
0.0
 70
    32
  0
VERTEX
  5
1CDB
  8
240
  6
CONTINUOUS
 10
23.872609999999991
 20
12.161989000000011
 30
0.0
 70
    32
  0
VERTEX
  5
1CDC
  8
240
  6
CONTINUOUS
 10
23.87826999999999
 20
12.163529000000009
 30
0.0
 70
    32
  0
VERTEX
  5
1CDD
  8
240
  6
CONTINUOUS
 10
23.883929999999989
 20
12.165079
 30
0.0
 70
    32
  0
VERTEX
  5
1CDE
  8
240
  6
CONTINUOUS
 10
23.889579999999992
 20
12.166629000000009
 30
0.0
 70
    32
  0
VERTEX
  5
1CDF
  8
240
  6
CONTINUOUS
 10
23.89523999999999
 20
12.168189000000011
 30
0.0
 70
    32
  0
VERTEX
  5
1CE0
  8
240
  6
CONTINUOUS
 10
23.90088999999999
 20
12.16974900000001
 30
0.0
 70
    32
  0
VERTEX
  5
1CE1
  8
240
  6
CONTINUOUS
 10
23.906539999999989
 20
12.171319000000009
 30
0.0
 70
    32
  0
VERTEX
  5
1CE2
  8
240
  6
CONTINUOUS
 10
23.912189999999988
 20
12.17288900000001
 30
0.0
 70
    32
  0
VERTEX
  5
1CE3
  8
240
  6
CONTINUOUS
 10
23.917839999999991
 20
12.174459000000009
 30
0.0
 70
    32
  0
VERTEX
  5
1CE4
  8
240
  6
CONTINUOUS
 10
23.92348999999999
 20
12.17603900000001
 30
0.0
 70
    32
  0
VERTEX
  5
1CE5
  8
240
  6
CONTINUOUS
 10
23.92913999999999
 20
12.177619000000011
 30
0.0
 70
    32
  0
VERTEX
  5
1CE6
  8
240
  6
CONTINUOUS
 10
23.934789999999989
 20
12.179199000000009
 30
0.0
 70
    32
  0
VERTEX
  5
1CE7
  8
240
  6
CONTINUOUS
 10
23.940429999999989
 20
12.18078900000001
 30
0.0
 70
    32
  0
VERTEX
  5
1CE8
  8
240
  6
CONTINUOUS
 10
23.946079999999991
 20
12.18237900000001
 30
0.0
 70
    32
  0
VERTEX
  5
1CE9
  8
240
  6
CONTINUOUS
 10
23.951719999999991
 20
12.18397900000001
 30
0.0
 70
    32
  0
VERTEX
  5
1CEA
  8
240
  6
CONTINUOUS
 10
23.957359999999991
 20
12.185579000000009
 30
0.0
 70
    32
  0
VERTEX
  5
1CEB
  8
240
  6
CONTINUOUS
 10
23.96300999999999
 20
12.187179000000009
 30
0.0
 70
    32
  0
VERTEX
  5
1CEC
  8
240
  6
CONTINUOUS
 10
23.96864999999999
 20
12.188779
 30
0.0
 70
    32
  0
VERTEX
  5
1CED
  8
240
  6
CONTINUOUS
 10
23.974289999999989
 20
12.19038900000001
 30
0.0
 70
    32
  0
VERTEX
  5
1CEE
  8
240
  6
CONTINUOUS
 10
23.979929999999989
 20
12.19199900000001
 30
0.0
 70
    32
  0
VERTEX
  5
1CEF
  8
240
  6
CONTINUOUS
 10
23.985569999999989
 20
12.193619000000011
 30
0.0
 70
    32
  0
VERTEX
  5
1CF0
  8
240
  6
CONTINUOUS
 10
23.991199999999989
 20
12.19523900000001
 30
0.0
 70
    32
  0
VERTEX
  5
1CF1
  8
240
  6
CONTINUOUS
 10
23.996839999999992
 20
12.196859000000011
 30
0.0
 70
    32
  0
VERTEX
  5
1CF2
  8
240
  6
CONTINUOUS
 10
24.002479999999991
 20
12.19847900000001
 30
0.0
 70
    32
  0
VERTEX
  5
1CF3
  8
240
  6
CONTINUOUS
 10
24.008109999999991
 20
12.20010900000001
 30
0.0
 70
    32
  0
VERTEX
  5
1CF4
  8
240
  6
CONTINUOUS
 10
24.013749999999991
 20
12.201739000000011
 30
0.0
 70
    32
  0
VERTEX
  5
1CF5
  8
240
  6
CONTINUOUS
 10
24.019379999999991
 20
12.203369000000009
 30
0.0
 70
    32
  0
VERTEX
  5
1CF6
  8
240
  6
CONTINUOUS
 10
24.025019999999991
 20
12.20499900000001
 30
0.0
 70
    32
  0
VERTEX
  5
1CF7
  8
240
  6
CONTINUOUS
 10
24.030649999999991
 20
12.20663900000001
 30
0.0
 70
    32
  0
VERTEX
  5
1CF8
  8
240
  6
CONTINUOUS
 10
24.036279999999991
 20
12.20827900000001
 30
0.0
 70
    32
  0
VERTEX
  5
1CF9
  8
240
  6
CONTINUOUS
 10
24.04191999999999
 20
12.20991900000001
 30
0.0
 70
    32
  0
VERTEX
  5
1CFA
  8
240
  6
CONTINUOUS
 10
24.04754999999999
 20
12.21155900000001
 30
0.0
 70
    32
  0
VERTEX
  5
1CFB
  8
240
  6
CONTINUOUS
 10
24.05317999999999
 20
12.21320900000001
 30
0.0
 70
    32
  0
VERTEX
  5
1CFC
  8
240
  6
CONTINUOUS
 10
24.05880999999999
 20
12.214859000000009
 30
0.0
 70
    32
  0
VERTEX
  5
1CFD
  8
240
  6
CONTINUOUS
 10
24.064439999999991
 20
12.216509000000009
 30
0.0
 70
    32
  0
VERTEX
  5
1CFE
  8
240
  6
CONTINUOUS
 10
24.070069999999991
 20
12.218159000000011
 30
0.0
 70
    32
  0
VERTEX
  5
1CFF
  8
240
  6
CONTINUOUS
 10
24.075689999999991
 20
12.21981900000001
 30
0.0
 70
    32
  0
VERTEX
  5
1D00
  8
240
  6
CONTINUOUS
 10
24.081319999999991
 20
12.221479000000009
 30
0.0
 70
    32
  0
VERTEX
  5
1D01
  8
240
  6
CONTINUOUS
 10
24.086949999999991
 20
12.22313900000001
 30
0.0
 70
    32
  0
VERTEX
  5
1D02
  8
240
  6
CONTINUOUS
 10
24.092579999999991
 20
12.22479900000001
 30
0.0
 70
    32
  0
VERTEX
  5
1D03
  8
240
  6
CONTINUOUS
 10
24.098199999999991
 20
12.226459000000011
 30
0.0
 70
    32
  0
VERTEX
  5
1D04
  8
240
  6
CONTINUOUS
 10
24.103829999999991
 20
12.22811900000001
 30
0.0
 70
    32
  0
VERTEX
  5
1D05
  8
240
  6
CONTINUOUS
 10
24.109449999999988
 20
12.229789000000009
 30
0.0
 70
    32
  0
VERTEX
  5
1D06
  8
240
  6
CONTINUOUS
 10
24.115079999999988
 20
12.23145900000001
 30
0.0
 70
    32
  0
VERTEX
  5
1D07
  8
240
  6
CONTINUOUS
 10
24.120699999999989
 20
12.233129000000011
 30
0.0
 70
    32
  0
VERTEX
  5
1D08
  8
240
  6
CONTINUOUS
 10
24.126329999999989
 20
12.23479900000001
 30
0.0
 70
    32
  0
VERTEX
  5
1D09
  8
240
  6
CONTINUOUS
 10
24.131949999999989
 20
12.23646900000001
 30
0.0
 70
    32
  0
VERTEX
  5
1D0A
  8
240
  6
CONTINUOUS
 10
24.137579999999989
 20
12.238139000000009
 30
0.0
 70
    32
  0
VERTEX
  5
1D0B
  8
240
  6
CONTINUOUS
 10
24.14319999999999
 20
12.23981900000001
 30
0.0
 70
    32
  0
VERTEX
  5
1D0C
  8
240
  6
CONTINUOUS
 10
24.14881999999999
 20
12.24148900000001
 30
0.0
 70
    32
  0
VERTEX
  5
1D0D
  8
240
  6
CONTINUOUS
 10
24.15444999999999
 20
12.243169000000011
 30
0.0
 70
    32
  0
VERTEX
  5
1D0E
  8
240
  6
CONTINUOUS
 10
24.16006999999999
 20
12.244849000000009
 30
0.0
 70
    32
  0
VERTEX
  5
1D0F
  8
240
  6
CONTINUOUS
 10
24.165689999999991
 20
12.24652900000001
 30
0.0
 70
    32
  0
VERTEX
  5
1D10
  8
240
  6
CONTINUOUS
 10
24.171309999999991
 20
12.24820900000001
 30
0.0
 70
    32
  0
VERTEX
  5
1D11
  8
240
  6
CONTINUOUS
 10
24.176929999999992
 20
12.24988900000001
 30
0.0
 70
    32
  0
VERTEX
  5
1D12
  8
240
  6
CONTINUOUS
 10
24.182549999999988
 20
12.251569000000011
 30
0.0
 70
    32
  0
VERTEX
  5
1D13
  8
240
  6
CONTINUOUS
 10
24.188179999999988
 20
12.253259
 30
0.0
 70
    32
  0
VERTEX
  5
1D14
  8
240
  6
CONTINUOUS
 10
24.193799999999989
 20
12.254939000000009
 30
0.0
 70
    32
  0
VERTEX
  5
1D15
  8
240
  6
CONTINUOUS
 10
24.199419999999989
 20
12.256619000000009
 30
0.0
 70
    32
  0
VERTEX
  5
1D16
  8
240
  6
CONTINUOUS
 10
24.20503999999999
 20
12.258309000000009
 30
0.0
 70
    32
  0
VERTEX
  5
1D17
  8
240
  6
CONTINUOUS
 10
24.21065999999999
 20
12.25998900000001
 30
0.0
 70
    32
  0
VERTEX
  5
1D18
  8
240
  6
CONTINUOUS
 10
24.21627999999999
 20
12.26167900000001
 30
0.0
 70
    32
  0
VERTEX
  5
1D19
  8
240
  6
CONTINUOUS
 10
24.221899999999991
 20
12.26336900000001
 30
0.0
 70
    32
  0
VERTEX
  5
1D1A
  8
240
  6
CONTINUOUS
 10
24.227519999999991
 20
12.26504900000001
 30
0.0
 70
    32
  0
VERTEX
  5
1D1B
  8
240
  6
CONTINUOUS
 10
24.233139999999992
 20
12.26673900000001
 30
0.0
 70
    32
  0
VERTEX
  5
1D1C
  8
240
  6
CONTINUOUS
 10
24.238759999999989
 20
12.26842900000001
 30
0.0
 70
    32
  0
VERTEX
  5
1D1D
  8
240
  6
CONTINUOUS
 10
24.244379999999989
 20
12.27010900000001
 30
0.0
 70
    32
  0
VERTEX
  5
1D1E
  8
240
  6
CONTINUOUS
 10
24.249999999999989
 20
12.27179900000001
 30
0.0
 70
    32
  0
SEQEND
  5
1D1F
  8
240
  6
CONTINUOUS
  0
LINE
  5
1D20
  8
240
  6
CONTINUOUS
 10
26.099999999999991
 20
8.3717989999999922
 30
0.0
 11
25.80000000000004
 21
8.3717989999999922
 31
0.0
1001
GRPNAME
1000
PASTMD0F
  0
LINE
  5
1D21
  8
241
  6
CONTINUOUS
 10
20.05060834817327
 20
9.6217989999999922
 30
0.0
 11
22.94939165182668
 21
9.6217989999999922
 31
0.0
1001
GRPNAME
1000
PASTMD2Q
  0
LINE
  5
1D22
  8
241
  6
CONTINUOUS
 10
19.650202782724438
 20
8.3717989999999922
 30
0.0
 11
19.950202782724421
 21
8.6717989999999485
 31
0.0
1001
GRPNAME
1000
PASTMD2Q
  0
LINE
  5
1D23
  8
241
  6
CONTINUOUS
 10
19.95020278272445
 20
8.6717989999999485
 30
0.0
 11
20.05060834817327
 21
9.2717989999999713
 31
0.0
1001
GRPNAME
1000
PASTMD2Q
  0
LINE
  5
1D24
  8
241
  6
CONTINUOUS
 10
20.05060834817327
 20
9.2717989999999713
 30
0.0
 11
20.05060834817327
 21
9.6217989999999922
 31
0.0
1001
GRPNAME
1000
PASTMD2Q
  0
LINE
  5
1D25
  8
241
  6
CONTINUOUS
 10
23.34979721727554
 20
8.3717989999999922
 30
0.0
 11
23.049797217275561
 21
8.6717989999999485
 31
0.0
1001
GRPNAME
1000
PASTMD2Q
  0
LINE
  5
1D26
  8
241
  6
CONTINUOUS
 10
23.049797217275529
 20
8.6717989999999485
 30
0.0
 11
22.94939165182668
 21
9.2717989999999713
 31
0.0
1001
GRPNAME
1000
PASTMD2Q
  0
LINE
  5
1D27
  8
241
  6
CONTINUOUS
 10
22.94939165182668
 20
9.2717989999999713
 30
0.0
 11
22.94939165182668
 21
9.6217989999999922
 31
0.0
1001
GRPNAME
1000
PASTMD2Q
  0
LINE
  5
1DCA
  8
240
  6
CONTINUOUS
 10
20.300000000000001
 20
12.271799000000019
 30
0.0
 11
22.61183650964567
 21
12.27179900000008
 31
0.0
1001
GRPNAME
1000
PASTMD0I
  0
LINE
  5
1DCB
  8
240
  6
CONTINUOUS
 10
20.300000000000001
 20
12.271799000000019
 30
0.0
 11
19.652058928146449
 21
12.035967736286789
 31
0.0
1001
GRPNAME
1000
PASTMD0I
  0
POLYLINE
  5
1DCC
  8
240
  6
CONTINUOUS
 66
     1
 10
0.0
 20
0.0
 30
0.0
 70
     8
  0
VERTEX
  5
1DCD
  8
240
  6
CONTINUOUS
 10
18.749999999999989
 20
12.27179900000001
 30
0.0
 70
    32
  0
VERTEX
  5
1DCE
  8
240
  6
CONTINUOUS
 10
18.75561999999999
 20
12.27010900000001
 30
0.0
 70
    32
  0
VERTEX
  5
1DCF
  8
240
  6
CONTINUOUS
 10
18.76123999999999
 20
12.26842900000001
 30
0.0
 70
    32
  0
VERTEX
  5
1DD0
  8
240
  6
CONTINUOUS
 10
18.766859999999991
 20
12.26673900000001
 30
0.0
 70
    32
  0
VERTEX
  5
1DD1
  8
240
  6
CONTINUOUS
 10
18.772479999999991
 20
12.26504900000001
 30
0.0
 70
    32
  0
VERTEX
  5
1DD2
  8
240
  6
CONTINUOUS
 10
18.778099999999991
 20
12.26336900000001
 30
0.0
 70
    32
  0
VERTEX
  5
1DD3
  8
240
  6
CONTINUOUS
 10
18.783719999999981
 20
12.26167900000001
 30
0.0
 70
    32
  0
VERTEX
  5
1DD4
  8
240
  6
CONTINUOUS
 10
18.789339999999989
 20
12.25998900000001
 30
0.0
 70
    32
  0
VERTEX
  5
1DD5
  8
240
  6
CONTINUOUS
 10
18.794959999999989
 20
12.258309000000009
 30
0.0
 70
    32
  0
VERTEX
  5
1DD6
  8
240
  6
CONTINUOUS
 10
18.800579999999989
 20
12.256619000000009
 30
0.0
 70
    32
  0
VERTEX
  5
1DD7
  8
240
  6
CONTINUOUS
 10
18.80619999999999
 20
12.254939000000009
 30
0.0
 70
    32
  0
VERTEX
  5
1DD8
  8
240
  6
CONTINUOUS
 10
18.81181999999999
 20
12.253259
 30
0.0
 70
    32
  0
VERTEX
  5
1DD9
  8
240
  6
CONTINUOUS
 10
18.81744999999998
 20
12.251569000000011
 30
0.0
 70
    32
  0
VERTEX
  5
1DDA
  8
240
  6
CONTINUOUS
 10
18.823069999999991
 20
12.24988900000001
 30
0.0
 70
    32
  0
VERTEX
  5
1DDB
  8
240
  6
CONTINUOUS
 10
18.828689999999991
 20
12.24820900000001
 30
0.0
 70
    32
  0
VERTEX
  5
1DDC
  8
240
  6
CONTINUOUS
 10
18.834309999999991
 20
12.24652900000001
 30
0.0
 70
    32
  0
VERTEX
  5
1DDD
  8
240
  6
CONTINUOUS
 10
18.839929999999988
 20
12.244849000000009
 30
0.0
 70
    32
  0
VERTEX
  5
1DDE
  8
240
  6
CONTINUOUS
 10
18.845549999999989
 20
12.243169000000011
 30
0.0
 70
    32
  0
VERTEX
  5
1DDF
  8
240
  6
CONTINUOUS
 10
18.851179999999989
 20
12.24148900000001
 30
0.0
 70
    32
  0
VERTEX
  5
1DE0
  8
240
  6
CONTINUOUS
 10
18.856799999999989
 20
12.23981900000001
 30
0.0
 70
    32
  0
VERTEX
  5
1DE1
  8
240
  6
CONTINUOUS
 10
18.86241999999999
 20
12.238139000000009
 30
0.0
 70
    32
  0
VERTEX
  5
1DE2
  8
240
  6
CONTINUOUS
 10
18.86804999999999
 20
12.23646900000001
 30
0.0
 70
    32
  0
VERTEX
  5
1DE3
  8
240
  6
CONTINUOUS
 10
18.873669999999969
 20
12.23479900000001
 30
0.0
 70
    32
  0
VERTEX
  5
1DE4
  8
240
  6
CONTINUOUS
 10
18.879299999999969
 20
12.233129000000011
 30
0.0
 70
    32
  0
VERTEX
  5
1DE5
  8
240
  6
CONTINUOUS
 10
18.88491999999999
 20
12.23145900000001
 30
0.0
 70
    32
  0
VERTEX
  5
1DE6
  8
240
  6
CONTINUOUS
 10
18.89054999999999
 20
12.229789000000009
 30
0.0
 70
    32
  0
VERTEX
  5
1DE7
  8
240
  6
CONTINUOUS
 10
18.896169999999991
 20
12.22811900000001
 30
0.0
 70
    32
  0
VERTEX
  5
1DE8
  8
240
  6
CONTINUOUS
 10
18.901799999999991
 20
12.226459000000011
 30
0.0
 70
    32
  0
VERTEX
  5
1DE9
  8
240
  6
CONTINUOUS
 10
18.907419999999991
 20
12.22479900000001
 30
0.0
 70
    32
  0
VERTEX
  5
1DEA
  8
240
  6
CONTINUOUS
 10
18.913049999999991
 20
12.22313900000001
 30
0.0
 70
    32
  0
VERTEX
  5
1DEB
  8
240
  6
CONTINUOUS
 10
18.918679999999981
 20
12.221479000000009
 30
0.0
 70
    32
  0
VERTEX
  5
1DEC
  8
240
  6
CONTINUOUS
 10
18.924309999999991
 20
12.21981900000001
 30
0.0
 70
    32
  0
VERTEX
  5
1DED
  8
240
  6
CONTINUOUS
 10
18.929929999999981
 20
12.218159000000011
 30
0.0
 70
    32
  0
VERTEX
  5
1DEE
  8
240
  6
CONTINUOUS
 10
18.935559999999992
 20
12.216509000000009
 30
0.0
 70
    32
  0
VERTEX
  5
1DEF
  8
240
  6
CONTINUOUS
 10
18.941189999999992
 20
12.214859000000009
 30
0.0
 70
    32
  0
VERTEX
  5
1DF0
  8
240
  6
CONTINUOUS
 10
18.946819999999988
 20
12.21320900000001
 30
0.0
 70
    32
  0
VERTEX
  5
1DF1
  8
240
  6
CONTINUOUS
 10
18.952449999999988
 20
12.21155900000001
 30
0.0
 70
    32
  0
VERTEX
  5
1DF2
  8
240
  6
CONTINUOUS
 10
18.958079999999988
 20
12.20991900000001
 30
0.0
 70
    32
  0
VERTEX
  5
1DF3
  8
240
  6
CONTINUOUS
 10
18.963719999999991
 20
12.20827900000001
 30
0.0
 70
    32
  0
VERTEX
  5
1DF4
  8
240
  6
CONTINUOUS
 10
18.969349999999991
 20
12.20663900000001
 30
0.0
 70
    32
  0
VERTEX
  5
1DF5
  8
240
  6
CONTINUOUS
 10
18.974979999999981
 20
12.20499900000001
 30
0.0
 70
    32
  0
VERTEX
  5
1DF6
  8
240
  6
CONTINUOUS
 10
18.980619999999991
 20
12.203369000000009
 30
0.0
 70
    32
  0
VERTEX
  5
1DF7
  8
240
  6
CONTINUOUS
 10
18.986249999999991
 20
12.201739000000011
 30
0.0
 70
    32
  0
VERTEX
  5
1DF8
  8
240
  6
CONTINUOUS
 10
18.991889999999991
 20
12.20010900000001
 30
0.0
 70
    32
  0
VERTEX
  5
1DF9
  8
240
  6
CONTINUOUS
 10
18.997519999999991
 20
12.19847900000001
 30
0.0
 70
    32
  0
VERTEX
  5
1DFA
  8
240
  6
CONTINUOUS
 10
19.003159999999991
 20
12.196859000000011
 30
0.0
 70
    32
  0
VERTEX
  5
1DFB
  8
240
  6
CONTINUOUS
 10
19.00879999999999
 20
12.19523900000001
 30
0.0
 70
    32
  0
VERTEX
  5
1DFC
  8
240
  6
CONTINUOUS
 10
19.01442999999998
 20
12.193619000000011
 30
0.0
 70
    32
  0
VERTEX
  5
1DFD
  8
240
  6
CONTINUOUS
 10
19.02006999999999
 20
12.19199900000001
 30
0.0
 70
    32
  0
VERTEX
  5
1DFE
  8
240
  6
CONTINUOUS
 10
19.025709999999989
 20
12.19038900000001
 30
0.0
 70
    32
  0
VERTEX
  5
1DFF
  8
240
  6
CONTINUOUS
 10
19.031349999999989
 20
12.188779
 30
0.0
 70
    32
  0
VERTEX
  5
1E00
  8
240
  6
CONTINUOUS
 10
19.036989999999989
 20
12.187179000000009
 30
0.0
 70
    32
  0
VERTEX
  5
1E01
  8
240
  6
CONTINUOUS
 10
19.042639999999992
 20
12.185579000000009
 30
0.0
 70
    32
  0
VERTEX
  5
1E02
  8
240
  6
CONTINUOUS
 10
19.048279999999991
 20
12.18397900000001
 30
0.0
 70
    32
  0
VERTEX
  5
1E03
  8
240
  6
CONTINUOUS
 10
19.053919999999991
 20
12.18237900000001
 30
0.0
 70
    32
  0
VERTEX
  5
1E04
  8
240
  6
CONTINUOUS
 10
19.05956999999999
 20
12.18078900000001
 30
0.0
 70
    32
  0
VERTEX
  5
1E05
  8
240
  6
CONTINUOUS
 10
19.06520999999999
 20
12.179199000000009
 30
0.0
 70
    32
  0
VERTEX
  5
1E06
  8
240
  6
CONTINUOUS
 10
19.070859999999989
 20
12.177619000000011
 30
0.0
 70
    32
  0
VERTEX
  5
1E07
  8
240
  6
CONTINUOUS
 10
19.076509999999988
 20
12.17603900000001
 30
0.0
 70
    32
  0
VERTEX
  5
1E08
  8
240
  6
CONTINUOUS
 10
19.082159999999991
 20
12.174459000000009
 30
0.0
 70
    32
  0
VERTEX
  5
1E09
  8
240
  6
CONTINUOUS
 10
19.08780999999999
 20
12.17288900000001
 30
0.0
 70
    32
  0
VERTEX
  5
1E0A
  8
240
  6
CONTINUOUS
 10
19.09345999999999
 20
12.171319000000009
 30
0.0
 70
    32
  0
VERTEX
  5
1E0B
  8
240
  6
CONTINUOUS
 10
19.099109999999989
 20
12.16974900000001
 30
0.0
 70
    32
  0
VERTEX
  5
1E0C
  8
240
  6
CONTINUOUS
 10
19.104759999999992
 20
12.168189000000011
 30
0.0
 70
    32
  0
VERTEX
  5
1E0D
  8
240
  6
CONTINUOUS
 10
19.110419999999991
 20
12.166629000000009
 30
0.0
 70
    32
  0
VERTEX
  5
1E0E
  8
240
  6
CONTINUOUS
 10
19.116069999999969
 20
12.165079
 30
0.0
 70
    32
  0
VERTEX
  5
1E0F
  8
240
  6
CONTINUOUS
 10
19.121729999999989
 20
12.163529000000009
 30
0.0
 70
    32
  0
VERTEX
  5
1E10
  8
240
  6
CONTINUOUS
 10
19.127389999999991
 20
12.161989000000011
 30
0.0
 70
    32
  0
VERTEX
  5
1E11
  8
240
  6
CONTINUOUS
 10
19.13303999999999
 20
12.16044900000001
 30
0.0
 70
    32
  0
VERTEX
  5
1E12
  8
240
  6
CONTINUOUS
 10
19.138699999999989
 20
12.15890900000001
 30
0.0
 70
    32
  0
VERTEX
  5
1E13
  8
240
  6
CONTINUOUS
 10
19.144359999999988
 20
12.157379000000009
 30
0.0
 70
    32
  0
VERTEX
  5
1E14
  8
240
  6
CONTINUOUS
 10
19.15002999999998
 20
12.155849000000011
 30
0.0
 70
    32
  0
VERTEX
  5
1E15
  8
240
  6
CONTINUOUS
 10
19.155689999999989
 20
12.154329000000009
 30
0.0
 70
    32
  0
VERTEX
  5
1E16
  8
240
  6
CONTINUOUS
 10
19.161349999999981
 20
12.15280900000001
 30
0.0
 70
    32
  0
VERTEX
  5
1E17
  8
240
  6
CONTINUOUS
 10
19.16701999999999
 20
12.151289000000011
 30
0.0
 70
    32
  0
VERTEX
  5
1E18
  8
240
  6
CONTINUOUS
 10
19.172679999999989
 20
12.149789000000011
 30
0.0
 70
    32
  0
VERTEX
  5
1E19
  8
240
  6
CONTINUOUS
 10
19.178349999999991
 20
12.148279000000009
 30
0.0
 70
    32
  0
VERTEX
  5
1E1A
  8
240
  6
CONTINUOUS
 10
19.18401999999999
 20
12.146779
 30
0.0
 70
    32
  0
VERTEX
  5
1E1B
  8
240
  6
CONTINUOUS
 10
19.189689999999981
 20
12.145289000000011
 30
0.0
 70
    32
  0
VERTEX
  5
1E1C
  8
240
  6
CONTINUOUS
 10
19.19535999999999
 20
12.14379900000001
 30
0.0
 70
    32
  0
VERTEX
  5
1E1D
  8
240
  6
CONTINUOUS
 10
19.201039999999988
 20
12.142319000000009
 30
0.0
 70
    32
  0
VERTEX
  5
1E1E
  8
240
  6
CONTINUOUS
 10
19.20670999999998
 20
12.14083900000001
 30
0.0
 70
    32
  0
VERTEX
  5
1E1F
  8
240
  6
CONTINUOUS
 10
19.212389999999989
 20
12.13935900000001
 30
0.0
 70
    32
  0
VERTEX
  5
1E20
  8
240
  6
CONTINUOUS
 10
19.218059999999991
 20
12.13788900000001
 30
0.0
 70
    32
  0
VERTEX
  5
1E21
  8
240
  6
CONTINUOUS
 10
19.223739999999989
 20
12.13642900000001
 30
0.0
 70
    32
  0
VERTEX
  5
1E22
  8
240
  6
CONTINUOUS
 10
19.22941999999999
 20
12.134969000000011
 30
0.0
 70
    32
  0
VERTEX
  5
1E23
  8
240
  6
CONTINUOUS
 10
19.235099999999989
 20
12.13351900000001
 30
0.0
 70
    32
  0
VERTEX
  5
1E24
  8
240
  6
CONTINUOUS
 10
19.24078999999999
 20
12.13206900000001
 30
0.0
 70
    32
  0
VERTEX
  5
1E25
  8
240
  6
CONTINUOUS
 10
19.246469999999992
 20
12.13061900000001
 30
0.0
 70
    32
  0
VERTEX
  5
1E26
  8
240
  6
CONTINUOUS
 10
19.25214999999999
 20
12.129179000000001
 30
0.0
 70
    32
  0
VERTEX
  5
1E27
  8
240
  6
CONTINUOUS
 10
19.257839999999991
 20
12.12774900000001
 30
0.0
 70
    32
  0
VERTEX
  5
1E28
  8
240
  6
CONTINUOUS
 10
19.263529999999989
 20
12.126319000000001
 30
0.0
 70
    32
  0
VERTEX
  5
1E29
  8
240
  6
CONTINUOUS
 10
19.26920999999999
 20
12.12488900000001
 30
0.0
 70
    32
  0
VERTEX
  5
1E2A
  8
240
  6
CONTINUOUS
 10
19.274899999999981
 20
12.123469000000011
 30
0.0
 70
    32
  0
VERTEX
  5
1E2B
  8
240
  6
CONTINUOUS
 10
19.280589999999989
 20
12.122049000000009
 30
0.0
 70
    32
  0
VERTEX
  5
1E2C
  8
240
  6
CONTINUOUS
 10
19.28628999999999
 20
12.12062900000001
 30
0.0
 70
    32
  0
VERTEX
  5
1E2D
  8
240
  6
CONTINUOUS
 10
19.291979999999992
 20
12.11921900000001
 30
0.0
 70
    32
  0
VERTEX
  5
1E2E
  8
240
  6
CONTINUOUS
 10
19.297669999999989
 20
12.11781900000001
 30
0.0
 70
    32
  0
VERTEX
  5
1E2F
  8
240
  6
CONTINUOUS
 10
19.30336999999999
 20
12.116419000000009
 30
0.0
 70
    32
  0
VERTEX
  5
1E30
  8
240
  6
CONTINUOUS
 10
19.309059999999992
 20
12.115019000000011
 30
0.0
 70
    32
  0
VERTEX
  5
1E31
  8
240
  6
CONTINUOUS
 10
19.314759999999989
 20
12.11362900000001
 30
0.0
 70
    32
  0
VERTEX
  5
1E32
  8
240
  6
CONTINUOUS
 10
19.320459999999969
 20
12.11223900000001
 30
0.0
 70
    32
  0
VERTEX
  5
1E33
  8
240
  6
CONTINUOUS
 10
19.326159999999991
 20
12.110849000000011
 30
0.0
 70
    32
  0
VERTEX
  5
1E34
  8
240
  6
CONTINUOUS
 10
19.331849999999989
 20
12.10946900000001
 30
0.0
 70
    32
  0
VERTEX
  5
1E35
  8
240
  6
CONTINUOUS
 10
19.337559999999989
 20
12.10808900000001
 30
0.0
 70
    32
  0
VERTEX
  5
1E36
  8
240
  6
CONTINUOUS
 10
19.343259999999969
 20
12.106709000000009
 30
0.0
 70
    32
  0
VERTEX
  5
1E37
  8
240
  6
CONTINUOUS
 10
19.348959999999991
 20
12.10533900000001
 30
0.0
 70
    32
  0
VERTEX
  5
1E38
  8
240
  6
CONTINUOUS
 10
19.354659999999988
 20
12.10396900000001
 30
0.0
 70
    32
  0
VERTEX
  5
1E39
  8
240
  6
CONTINUOUS
 10
19.360369999999989
 20
12.10260900000001
 30
0.0
 70
    32
  0
VERTEX
  5
1E3A
  8
240
  6
CONTINUOUS
 10
19.366069999999969
 20
12.10124900000001
 30
0.0
 70
    32
  0
VERTEX
  5
1E3B
  8
240
  6
CONTINUOUS
 10
19.37177999999999
 20
12.09988900000001
 30
0.0
 70
    32
  0
VERTEX
  5
1E3C
  8
240
  6
CONTINUOUS
 10
19.377489999999991
 20
12.098539000000009
 30
0.0
 70
    32
  0
VERTEX
  5
1E3D
  8
240
  6
CONTINUOUS
 10
19.383189999999988
 20
12.097179000000009
 30
0.0
 70
    32
  0
VERTEX
  5
1E3E
  8
240
  6
CONTINUOUS
 10
19.388899999999989
 20
12.095829000000011
 30
0.0
 70
    32
  0
VERTEX
  5
1E3F
  8
240
  6
CONTINUOUS
 10
19.394609999999989
 20
12.09448900000001
 30
0.0
 70
    32
  0
VERTEX
  5
1E40
  8
240
  6
CONTINUOUS
 10
19.400319999999969
 20
12.093149
 30
0.0
 70
    32
  0
VERTEX
  5
1E41
  8
240
  6
CONTINUOUS
 10
19.406029999999991
 20
12.09180900000001
 30
0.0
 70
    32
  0
VERTEX
  5
1E42
  8
240
  6
CONTINUOUS
 10
19.411739999999991
 20
12.090469000000009
 30
0.0
 70
    32
  0
VERTEX
  5
1E43
  8
240
  6
CONTINUOUS
 10
19.417449999999992
 20
12.08912900000001
 30
0.0
 70
    32
  0
VERTEX
  5
1E44
  8
240
  6
CONTINUOUS
 10
19.423169999999988
 20
12.087799000000009
 30
0.0
 70
    32
  0
VERTEX
  5
1E45
  8
240
  6
CONTINUOUS
 10
19.428879999999989
 20
12.08646900000001
 30
0.0
 70
    32
  0
VERTEX
  5
1E46
  8
240
  6
CONTINUOUS
 10
19.434599999999989
 20
12.08514900000001
 30
0.0
 70
    32
  0
VERTEX
  5
1E47
  8
240
  6
CONTINUOUS
 10
19.44030999999999
 20
12.083819000000011
 30
0.0
 70
    32
  0
VERTEX
  5
1E48
  8
240
  6
CONTINUOUS
 10
19.44602999999999
 20
12.082499000000009
 30
0.0
 70
    32
  0
VERTEX
  5
1E49
  8
240
  6
CONTINUOUS
 10
19.45173999999999
 20
12.081179000000009
 30
0.0
 70
    32
  0
VERTEX
  5
1E4A
  8
240
  6
CONTINUOUS
 10
19.45745999999999
 20
12.07985900000001
 30
0.0
 70
    32
  0
VERTEX
  5
1E4B
  8
240
  6
CONTINUOUS
 10
19.463179999999991
 20
12.07854900000001
 30
0.0
 70
    32
  0
VERTEX
  5
1E4C
  8
240
  6
CONTINUOUS
 10
19.46888999999998
 20
12.077239000000009
 30
0.0
 70
    32
  0
VERTEX
  5
1E4D
  8
240
  6
CONTINUOUS
 10
19.474609999999981
 20
12.075929
 30
0.0
 70
    32
  0
VERTEX
  5
1E4E
  8
240
  6
CONTINUOUS
 10
19.480329999999981
 20
12.074619000000011
 30
0.0
 70
    32
  0
VERTEX
  5
1E4F
  8
240
  6
CONTINUOUS
 10
19.486049999999981
 20
12.073309000000011
 30
0.0
 70
    32
  0
VERTEX
  5
1E50
  8
240
  6
CONTINUOUS
 10
19.491769999999988
 20
12.071999000000011
 30
0.0
 70
    32
  0
VERTEX
  5
1E51
  8
240
  6
CONTINUOUS
 10
19.497489999999988
 20
12.07069900000001
 30
0.0
 70
    32
  0
VERTEX
  5
1E52
  8
240
  6
CONTINUOUS
 10
19.503209999999989
 20
12.06939900000001
 30
0.0
 70
    32
  0
VERTEX
  5
1E53
  8
240
  6
CONTINUOUS
 10
19.508929999999989
 20
12.068099
 30
0.0
 70
    32
  0
VERTEX
  5
1E54
  8
240
  6
CONTINUOUS
 10
19.514649999999989
 20
12.06679900000001
 30
0.0
 70
    32
  0
VERTEX
  5
1E55
  8
240
  6
CONTINUOUS
 10
19.520379999999989
 20
12.065509
 30
0.0
 70
    32
  0
VERTEX
  5
1E56
  8
240
  6
CONTINUOUS
 10
19.526099999999989
 20
12.064209000000011
 30
0.0
 70
    32
  0
VERTEX
  5
1E57
  8
240
  6
CONTINUOUS
 10
19.531819999999989
 20
12.06291900000001
 30
0.0
 70
    32
  0
VERTEX
  5
1E58
  8
240
  6
CONTINUOUS
 10
19.537549999999989
 20
12.061629000000011
 30
0.0
 70
    32
  0
VERTEX
  5
1E59
  8
240
  6
CONTINUOUS
 10
19.543269999999989
 20
12.06032900000001
 30
0.0
 70
    32
  0
VERTEX
  5
1E5A
  8
240
  6
CONTINUOUS
 10
19.548989999999989
 20
12.059039000000009
 30
0.0
 70
    32
  0
VERTEX
  5
1E5B
  8
240
  6
CONTINUOUS
 10
19.554719999999989
 20
12.05775900000001
 30
0.0
 70
    32
  0
VERTEX
  5
1E5C
  8
240
  6
CONTINUOUS
 10
19.560439999999989
 20
12.056469
 30
0.0
 70
    32
  0
VERTEX
  5
1E5D
  8
240
  6
CONTINUOUS
 10
19.566169999999989
 20
12.05517900000001
 30
0.0
 70
    32
  0
VERTEX
  5
1E5E
  8
240
  6
CONTINUOUS
 10
19.571889999999989
 20
12.05389900000001
 30
0.0
 70
    32
  0
VERTEX
  5
1E5F
  8
240
  6
CONTINUOUS
 10
19.577619999999989
 20
12.052609
 30
0.0
 70
    32
  0
VERTEX
  5
1E60
  8
240
  6
CONTINUOUS
 10
19.583339999999989
 20
12.05132900000001
 30
0.0
 70
    32
  0
VERTEX
  5
1E61
  8
240
  6
CONTINUOUS
 10
19.589069999999989
 20
12.05004900000001
 30
0.0
 70
    32
  0
VERTEX
  5
1E62
  8
240
  6
CONTINUOUS
 10
19.594789999999989
 20
12.048759000000009
 30
0.0
 70
    32
  0
VERTEX
  5
1E63
  8
240
  6
CONTINUOUS
 10
19.600519999999989
 20
12.04747900000001
 30
0.0
 70
    32
  0
VERTEX
  5
1E64
  8
240
  6
CONTINUOUS
 10
19.606249999999989
 20
12.04619900000001
 30
0.0
 70
    32
  0
VERTEX
  5
1E65
  8
240
  6
CONTINUOUS
 10
19.611969999999989
 20
12.044919
 30
0.0
 70
    32
  0
VERTEX
  5
1E66
  8
240
  6
CONTINUOUS
 10
19.617699999999989
 20
12.04363900000001
 30
0.0
 70
    32
  0
VERTEX
  5
1E67
  8
240
  6
CONTINUOUS
 10
19.623429999999988
 20
12.04235900000001
 30
0.0
 70
    32
  0
VERTEX
  5
1E68
  8
240
  6
CONTINUOUS
 10
19.629149999999989
 20
12.041079000000011
 30
0.0
 70
    32
  0
VERTEX
  5
1E69
  8
240
  6
CONTINUOUS
 10
19.634879999999988
 20
12.039799000000009
 30
0.0
 70
    32
  0
VERTEX
  5
1E6A
  8
240
  6
CONTINUOUS
 10
19.640609999999992
 20
12.038529000000009
 30
0.0
 70
    32
  0
VERTEX
  5
1E6B
  8
240
  6
CONTINUOUS
 10
19.646329999999988
 20
12.03724900000001
 30
0.0
 70
    32
  0
VERTEX
  5
1E6C
  8
240
  6
CONTINUOUS
 10
19.652059999999992
 20
12.03596900000001
 30
0.0
 70
    32
  0
SEQEND
  5
1E6D
  8
240
  6
CONTINUOUS
  0
LINE
  5
1E6E
  8
240
  6
CONTINUOUS
 10
18.300000000000001
 20
12.271799000000019
 30
0.0
 11
18.749999999999989
 21
12.271799000000019
 31
0.0
1001
GRPNAME
1000
PASTMD0F
  0
ARC
  5
1E6F
  8
240
  6
CONTINUOUS
 10
22.61183650964567
 20
11.77179900000008
 30
0.0
 40
0.5000000000000157
 50
70.000000050553723
 51
90.000000050556665
1001
GRPNAME
1000
PASTMD0I
  0
LINE
  5
1E70
  8
240
  6
CONTINUOUS
 10
22.78284658130854
 20
12.24164531039302
 30
0.0
 11
23.34794107185359
 21
12.035967736286789
 31
0.0
1001
GRPNAME
1000
PASTMD0I
  0
LINE
  5
1E71
  8
241
  6
CONTINUOUS
 10
25.69999999999942
 20
9.4965280734552255
 30
0.0
 11
25.699999999997988
 21
11.271799000000019
 31
0.0
1001
GRPNAME
1000
PASTMD0F
  0
LINE
  5
1E73
  8
241
  6
CONTINUOUS
 10
25.700000000000038
 20
8.3717989999999922
 30
0.0
 11
25.699999999999608
 21
9.2902321065444262
 31
0.0
1001
GRPNAME
1000
PASTMD0F
  0
ARC
  5
1E76
  8
241
  6
CONTINUOUS
 10
24.700000000000038
 20
11.271799000000019
 30
0.0
 40
0.9999999999999616
 50
0.0
 51
89.999999888622554
1001
GRPNAME
1000
PASTMD0F
  0
LINE
  5
1EF9
  8
241
  6
CONTINUOUS
 10
25.780550939999991
 20
9.5715813999999924
 30
0.0
 11
32.509201899124633
 21
13.000000301717989
 31
0.0
1001
GRPNAME
1000
PASTMD01
  0
LINE
  5
1EFA
  8
240
  6
CONTINUOUS
 10
31.362429649999989
 20
5.2645185199999922
 30
0.0
 11
26.099999999999991
 21
7.7184297699999931
 31
0.0
  0
LINE
  5
1EFC
  8
240
  6
CONTINUOUS
 10
26.334573989999988
 20
12.638170459999991
 30
0.0
 11
31.799070849999989
 21
12.638170459999991
 31
0.0
1001
GRPNAME
1000
PASTMD01
  0
LINE
  5
1EFD
  8
240
  6
CONTINUOUS
 10
24.249999999999989
 20
12.271798999999991
 30
0.0
 11
25.699999999999989
 21
12.271798999999991
 31
0.0
  0
LINE
  5
1EFE
  8
240
  6
CONTINUOUS
 10
25.699999999999989
 20
12.271798999999991
 30
0.0
 11
26.334573989999988
 21
12.638170459999991
 31
0.0
  0
LINE
  5
1EFF
  8
240
  6
CONTINUOUS
 10
26.099999999999991
 20
7.7184297699999931
 30
0.0
 11
26.099999999999991
 21
8.3717989999999922
 31
0.0
  0
ARC
  5
1F00
  8
241
  6
CONTINUOUS
 10
25.871349039999991
 20
9.3933800899999902
 30
0.0
 40
0.1999999999999927
 50
117.0000000600002
 51
237.0000000600001
1001
GRPNAME
1000
PASTMD01
  0
LINE
  5
1F01
  8
241
  6
CONTINUOUS
 10
32.799725909999992
 20
12.81133180999999
 30
0.0
 11
32.404498289999992
 21
5.2699396899999922
 31
0.0
1001
GRPNAME
1000
PASTMD01
  0
ARC
  5
1F02
  8
240
  6
CONTINUOUS
 10
31.573738779999999
 20
5.7176724099999907
 30
0.0
 40
0.4999999999999939
 50
244.9999999999998
 51
300.50801137000002
  0
LINE
  5
1F03
  8
241
  6
CONTINUOUS
 10
32.095844579999991
 20
5.1126727599999882
 30
0.0
 11
25.762381113866631
 21
9.2256721719358872
 31
0.0
1001
GRPNAME
1000
PASTMD01
  0
ARC
  5
1F04
  8
241
  6
CONTINUOUS
 10
32.204772389999988
 20
5.2804068799999921
 30
0.0
 40
0.1999999999999987
 50
236.9999999800003
 51
356.99999997999993
1001
GRPNAME
1000
PASTMD01
  0
ARC
  5
1F06
  8
241
  6
CONTINUOUS
 10
32.600000000000001
 20
12.82179899999999
 30
0.0
 40
0.1999999999999948
 50
356.99999992000011
 51
116.99999991999979
1001
GRPNAME
1000
PASTMD01
  0
CIRCLE
  5
1F14
  8
246
  6
PHANTOM2
 10
30.22537382849772
 20
9.1651953553011367
 30
0.0
 40
2.379999980356382
  0
LINE
  5
1F87
  8
250
  6
CONTINUOUS
 10
0.0
 20
8.6999999999999869
 30
0.0
 11
0.0000000000000013
 21
29.0
 31
0.0
  0
LINE
  5
1F88
  8
250
  6
CONTINUOUS
 10
32.79999999999999
 20
13.32179899999999
 30
0.0
 11
32.79999999999999
 21
29.0
 31
0.0
  0
LINE
  5
1F89
  8
250
  6
CONTINUOUS
 10
2.2299999999999991
 20
28.0
 30
0.0
 11
30.56999999999999
 21
28.0
 31
0.0
  0
TEXT
  5
1F8D
  8
250
  6
CONTINUOUS
 10
11.39999999999999
 20
29.0
 30
0.0
 40
3.0
  1
32.8
  0
LINE
  5
1F8E
  8
250
  6
CONTINUOUS
 10
30.56999999999999
 20
28.371666666666659
 30
0.0
 11
32.79999999999999
 21
28.0
 31
0.0
  0
LINE
  5
1F8F
  8
250
  6
CONTINUOUS
 10
30.56999999999999
 20
27.62833333333333
 30
0.0
 11
32.79999999999999
 21
28.0
 31
0.0
  0
LINE
  5
1F90
  8
250
  6
CONTINUOUS
 10
32.79999999999999
 20
28.0
 30
0.0
 11
30.56999999999999
 21
28.0
 31
0.0
  0
LINE
  5
1F91
  8
250
  6
CONTINUOUS
 10
2.2299999999999991
 20
27.62833333333333
 30
0.0
 11
0.0000000000000012
 21
28.0
 31
0.0
  0
LINE
  5
1F92
  8
250
  6
CONTINUOUS
 10
2.2299999999999991
 20
28.371666666666659
 30
0.0
 11
0.0000000000000012
 21
28.0
 31
0.0
  0
LINE
  5
1F93
  8
250
  6
CONTINUOUS
 10
0.0000000000000012
 20
28.0
 30
0.0
 11
2.2299999999999991
 21
28.0
 31
0.0
  0
LINE
  5
2210
  8
241
  6
CONTINUOUS
 10
-5.5416875959565743
 20
-5.4999999999997282
 30
0.0
 11
-1.4583114040434251
 21
-5.4999999999997282
 31
0.0
  0
LINE
  5
2211
  8
240
  6
CONTINUOUS
 10
-4.8199999696979683
 20
-6.75
 30
0.0
 11
-2.1799990303020471
 21
-6.75
 31
0.0
  0
CIRCLE
  5
2212
  8
241
  6
CONTINUOUS
 10
-5.0000000000001661
 20
0.0
 30
0.0
 40
1.978
  0
LINE
  5
2213
  8
241
  6
CONTINUOUS
 10
-5.5416875959564571
 20
5.500000000000079
 30
0.0
 11
-1.4583114040435361
 21
5.500000000000079
 31
0.0
  0
LINE
  5
2214
  8
240
  6
CONTINUOUS
 10
-4.8199999696979372
 20
6.75
 30
0.0
 11
-2.1799990303020751
 21
6.75
 31
0.0
  0
LINE
  5
2215
  8
240
  6
CONTINUOUS
 10
-13.0
 20
-5.5000000000000844
 30
0.0
 11
-13.0
 21
5.4999999999999591
 31
0.0
  0
LINE
  5
2216
  8
245
  6
CENTER2
 10
-5.0000000000001661
 20
2.7973150000000202
 30
0.0
 11
-5.0000000000001661
 21
-2.7973139999999681
 31
0.0
  0
LINE
  5
2217
  8
240
  6
CONTINUOUS
 10
-13.0
 20
-5.5000000000000844
 30
0.0
 11
-5.5416875959565282
 21
-5.499999999999801
 31
0.0
  0
LINE
  5
2218
  8
240
  6
CONTINUOUS
 10
-5.5416875959565282
 20
-5.499999999999801
 30
0.0
 11
-4.8199999696979683
 21
-6.75
 31
0.0
  0
CIRCLE
  5
2219
  8
241
  6
CONTINUOUS
 10
-5.0000000000001661
 20
0.0
 30
0.0
 40
1.5
  0
LINE
  5
221A
  8
240
  6
CONTINUOUS
 10
-13.0
 20
5.4999999999999591
 30
0.0
 11
-5.5416875959564491
 21
5.5000000000000924
 31
0.0
  0
LINE
  5
221B
  8
240
  6
CONTINUOUS
 10
-5.5416875959564491
 20
5.5000000000000924
 30
0.0
 11
-4.8199999696979372
 21
6.75
 31
0.0
  0
LINE
  5
221D
  8
241
  6
CONTINUOUS
 10
0.0
 20
-5.5035879999999731
 30
0.0
 11
0.0
 21
5.5035890000000292
 31
0.0
  0
LINE
  5
221E
  8
240
  6
CONTINUOUS
 10
-1.4583114040434351
 20
-5.4999999999997451
 30
0.0
 11
0.0000000000001137
 21
-5.499999999999857
 31
0.0
  0
LINE
  5
221F
  8
240
  6
CONTINUOUS
 10
-1.4583114040434351
 20
-5.4999999999997451
 30
0.0
 11
-2.1799990303020471
 21
-6.75
 31
0.0
  0
LINE
  5
2220
  8
240
  6
CONTINUOUS
 10
-1.4583114040435361
 20
5.5000000000000764
 30
0.0
 11
-2.1799990303020751
 21
6.75
 31
0.0
  0
LINE
  5
2221
  8
240
  6
CONTINUOUS
 10
-1.4583114040435361
 20
5.5000000000000764
 30
0.0
 11
0.000000000000469
 21
5.4999999999999831
 31
0.0
  0
LINE
  5
2222
  8
250
  6
CONTINUOUS
 10
-19.943800126328519
 20
-13.53248687487581
 30
0.0
 11
-11.9550296317052
 21
-13.53248687487581
 31
0.0
  0
LINE
  5
2223
  8
250
  6
CONTINUOUS
 10
-11.9550296317052
 20
-13.53248687487581
 30
0.0
 11
-8.6368502156753095
 21
-7.4571187910718351
 31
0.0
  0
LINE
  5
2224
  8
250
  6
CONTINUOUS
 10
-8.6368502156753095
 20
-7.4571187910718351
 30
0.0
 11
-7.5679320534042063
 21
-5.4999999999998792
 31
0.0
  0
LINE
  5
2225
  8
250
  6
CONTINUOUS
 10
-8.3791906399050671
 20
-7.5978445362234801
 30
0.0
 11
-7.5679320534042063
 21
-5.4999999999998792
 31
0.0
  0
LINE
  5
2226
  8
250
  6
CONTINUOUS
 10
-7.5679320534042063
 20
-5.4999999999998792
 30
0.0
 11
-8.8945097914455555
 21
-7.3163930459201953
 31
0.0
  0
TEXT
  5
2227
  8
250
  6
CONTINUOUS
 10
-20.343800126328521
 20
-12.1324868748758
 30
0.0
 40
2.799999999999998
  1
CK1
  7
YOKO
  0
LINE
  5
2228
  8
247
  6
CONTINUOUS
 10
3.9999999999999512
 20
-6.5000000000006271
 30
0.0
 11
4.0
 21
-2.792307692536645
 31
0.0
  0
LINE
  5
2229
  8
247
  6
CONTINUOUS
 10
2.0
 20
-5.8639147999909804
 30
0.0
 11
3.679999999932805
 21
-6.3456470480465121
 31
0.0
  0
LINE
  5
222A
  8
247
  6
CONTINUOUS
 10
2.796923076891197
 20
-5.3601211228158521
 30
0.0
 11
2.796923076891197
 21
-6.0924288150942543
 31
0.0
  0
ARC
  5
222B
  8
247
  6
CONTINUOUS
 10
2.307775253835278
 20
-5.1698107215580684
 30
0.0
 40
0.3101372647461394
 50
72.997889675292015
 51
172.92416621851231
  0
ARC
  5
222C
  8
247
  6
CONTINUOUS
 10
2.2441785048224121
 20
-5.4059820454439107
 30
0.0
 40
0.5546438372287014
 50
4.7429368522013924
 51
73.849226273266339
1001
GENIUS_GENOBJ-N-FIL_13
1002
{
1000
OWNER
1000
GEN
1002
}
1001
GENIUS_GENODEF_13
1002
{
1000
HIER
1070
     0
1002
}
1002
{
1000
MANEDIT
1070
     0
1002
}
1002
{
1000
NOSEL
1070
     0
1002
}
1002
{
1000
BEHIND
1070
     0
1002
}
1002
{
1000
OTHER
1070
     0
1002
}
1002
{
1000
REACTOR
1002
}
  0
LINE
  5
222D
  8
247
  6
CONTINUOUS
 10
3.679999999932805
 20
-5.6133393557681091
 30
0.0
 11
3.679999999932805
 21
-6.3456470480465121
 31
0.0
  0
LINE
  5
222E
  8
247
  6
CONTINUOUS
 10
2.0
 20
-5.8639147999909831
 30
0.0
 11
2.0
 21
-5.1316071077125844
 31
0.0
  0
ARC
  5
222F
  8
247
  6
CONTINUOUS
 10
3.1099335702142992
 20
-5.4026451810140861
 30
0.0
 40
0.3158858408603088
 50
65.990941652528861
 51
172.26344345906949
  0
ARC
  5
2230
  8
247
  6
CONTINUOUS
 10
3.1129602618660561
 20
-5.6699572883421521
 30
0.0
 40
0.5698593289889349
 50
5.701985164258085
 51
77.277338436822262
1001
GENIUS_GENOBJ-N-FIL_13
1002
{
1000
OWNER
1000
GEN
1002
}
1001
GENIUS_GENODEF_13
1002
{
1000
HIER
1070
     0
1002
}
1002
{
1000
MANEDIT
1070
     0
1002
}
1002
{
1000
NOSEL
1070
     0
1002
}
1002
{
1000
BEHIND
1070
     0
1002
}
1002
{
1000
OTHER
1070
     0
1002
}
1002
{
1000
REACTOR
1002
}
  0
LINE
  5
2231
  8
247
  6
CONTINUOUS
 10
3.679999999932805
 20
-4.8471855096513181
 30
0.0
 11
2.0
 21
-4.3654532615957962
 31
0.0
  0
LINE
  5
2232
  8
247
  6
CONTINUOUS
 10
2.0
 20
-3.1685301847269911
 30
0.0
 11
2.0
 21
-3.4853426914434902
 31
0.0
  0
LINE
  5
2233
  8
247
  6
CONTINUOUS
 10
3.679999999932805
 20
-3.9869917231557901
 30
0.0
 11
3.679999999932805
 21
-3.6423763385541981
 31
0.0
  0
ARC
  5
2234
  8
247
  6
CONTINUOUS
 10
3.1666396760666871
 20
-3.0054532616565921
 30
0.0
 40
1.261484046111637
 50
202.35948814152729
 51
254.993248542846
  0
ARC
  5
2235
  8
247
  6
CONTINUOUS
 10
2.452655086830509
 20
-3.3780090929072002
 30
0.0
 40
0.4987765437607558
 50
94.994589319075374
 51
155.16632895730359
1001
GENIUS_GENOBJ-N-FIL_13
1002
{
1000
OWNER
1000
GEN
1002
}
1001
GENIUS_GENODEF_13
1002
{
1000
HIER
1070
     0
1002
}
1002
{
1000
MANEDIT
1070
     0
1002
}
1002
{
1000
NOSEL
1070
     0
1002
}
1002
{
1000
BEHIND
1070
     0
1002
}
1002
{
1000
OTHER
1070
     0
1002
}
1002
{
1000
REACTOR
1002
}
  0
ARC
  5
2236
  8
247
  6
CONTINUOUS
 10
2.9296816975755511
 20
-3.855347160826843
 30
0.0
 40
0.7799577719285588
 50
15.846096555779919
 51
82.325137004169164
  0
ARC
  5
2237
  8
247
  6
CONTINUOUS
 10
3.0971763215768542
 20
-3.528169311018396
 30
0.0
 40
0.7417556510953607
 50
249.71360167049701
 51
321.78874565640962
1001
GENIUS_GENOBJ-N-FIL_13
1002
{
1000
OWNER
1000
GEN
1002
}
1001
GENIUS_GENODEF_13
1002
{
1000
HIER
1070
     0
1002
}
1002
{
1000
MANEDIT
1070
     0
1002
}
1002
{
1000
NOSEL
1070
     0
1002
}
1002
{
1000
BEHIND
1070
     0
1002
}
1002
{
1000
OTHER
1070
     0
1002
}
1002
{
1000
REACTOR
1002
}
  0
LINE
  5
2238
  8
247
  6
CONTINUOUS
 10
3.0338461538047801
 20
-3.470068646253393
 30
0.0
 11
3.0338461538047801
 21
-3.082376338576593
 31
0.0
  0
ARC
  5
2239
  8
247
  6
CONTINUOUS
 10
3.0
 20
-6.5000000000006271
 30
0.0
 40
1.0
 50
180.0
 51
0.0
  0
LINE
  5
223A
  8
247
  6
CONTINUOUS
 10
2.0
 20
-6.5000000000006271
 30
0.0
 11
2.0
 21
-6.1430769231318232
 31
0.0
  0
ARC
  5
223B
  8
247
  6
CONTINUOUS
 10
3.0
 20
-2.792307692536633
 30
0.0
 40
1.0
 50
0.0
 51
180.0
  0
ARC
  5
2243
  8
241
  6
CONTINUOUS
 10
21.499999999999989
 20
20.752742516609111
 30
0.0
 40
8.9105007032970835
 50
258.03061418127049
 51
281.96938581872951
  0
LINE
  5
23CD
  8
241
  6
CONTINUOUS
 10
25.80000000000004
 20
8.3717989999999922
 30
0.0
 11
23.099999999999991
 21
8.3717990000000082
 31
0.0
  0
LINE
  5
23CE
  8
240
  6
CONTINUOUS
 10
17.300000000000001
 20
8.3717989999999922
 30
0.0
 11
17.199999999999971
 21
8.3717989999999922
 31
0.0
  0
VIEWPORT
  5
22
 67
     1
  8
0
 10
261.51769911504419
 20
148.5
 30
0.0
 40
523.0353982300885
 41
297.0
 68
     1
 69
     1
1001
ACAD
1000
MVIEW
1002
{
1070
    16
1010
0.0
1020
0.0
1030
0.0
1010
0.0
1020
0.0
1030
1.0
1040
0.0
1040
297.0
1040
261.51769911504419
1040
148.5
1040
50.0
1040
0.0
1040
0.0
1070
     0
1070
   100
1070
     1
1070
     1
1070
     0
1070
     0
1070
     0
1070
     0
1040
0.0
1040
0.0
1040
0.0
1040
1.0
1040
1.0
1040
10.0
1040
10.0
1070
     0
1002
{
1002
}
1002
}
1001
GENIUS_GENOBJ-N-SDF_13
1002
{
1000
OWNER
1000
GEN
1002
}
1001
GENIUS_GENODEF_13
1002
{
1000
HIER
1070
     0
1002
}
1002
{
1000
MANEDIT
1070
     0
1002
}
1002
{
1000
NOSEL
1070
     0
1002
}
1002
{
1000
BEHIND
1070
     0
1002
}
1002
{
1000
OTHER
1070
     0
1002
}
1002
{
1000
REACTOR
1002
}
1001
GENIUS_GENSCREG_15
1000
PF
1040
1.0
1000
DF
1040
1.0
1000
MIN
1011
0.0
1021
0.0
1031
0.0
1021
0.0
1031
0.0
1000
MAX
1011
523.0353982300885
1021
0.0
1031
0.0
1021
297.0
1031
0.0
1000
FLAGS
1070
     4
  0
ENDSEC
  0
EOF
