  0
SECTION
  2
HEADER
  9
$ACADVER
  1
AC1009
  9
$INSBASE
 10
0.0
 20
0.0
 30
0.0
  9
$EXTMIN
 10
-46.752583035866223
 20
-35.304410928814761
 30
0.0
  9
$EXTMAX
 10
64.0
 20
68.000000000000028
 30
0.0
  9
$LIMMIN
 10
0.0
 20
0.0
  9
$LIMMAX
 10
297.0
 20
210.0
  9
$ORTHOMODE
 70
     1
  9
$REGENMODE
 70
     1
  9
$FILLMODE
 70
     1
  9
$QTEXTMODE
 70
     0
  9
$MIRRTEXT
 70
     1
  9
$DRAGMODE
 70
     2
  9
$LTSCALE
 40
10.0
  9
$OSMODE
 70
    33
  9
$ATTMODE
 70
     1
  9
$TEXTSIZE
 40
3.0
  9
$TRACEWID
 40
1.0
  9
$TEXTSTYLE
  7
YOKO
  9
$CLAYER
  8
241
  9
$CELTYPE
  6
BYLAYER
  9
$CECOLOR
 62
   256
  9
$DIMSCALE
 40
1.0
  9
$DIMASZ
 40
2.2299999999999991
  9
$DIMEXO
 40
0.5
  9
$DIMDLI
 40
7.0
  9
$DIMRND
 40
0.0
  9
$DIMDLE
 40
0.0
  9
$DIMEXE
 40
1.0
  9
$DIMTP
 40
0.0
  9
$DIMTM
 40
0.01
  9
$DIMTXT
 40
2.7999999999999989
  9
$DIMCEN
 40
0.0
  9
$DIMTSZ
 40
0.0
  9
$DIMTOL
 70
     0
  9
$DIMLIM
 70
     0
  9
$DIMTIH
 70
     0
  9
$DIMTOH
 70
     0
  9
$DIMSE1
 70
     0
  9
$DIMSE2
 70
     0
  9
$DIMTAD
 70
     3
  9
$DIMZIN
 70
     9
  9
$DIMBLK
  1
OPEN
  9
$DIMASO
 70
     1
  9
$DIMSHO
 70
     1
  9
$DIMPOST
  1

  9
$DIMAPOST
  1

  9
$DIMALT
 70
     0
  9
$DIMALTD
 70
     2
  9
$DIMALTF
 40
25.399999999999999
  9
$DIMLFAC
 40
1.0
  9
$DIMTOFL
 70
     1
  9
$DIMTVP
 40
0.0
  9
$DIMTIX
 70
     1
  9
$DIMSOXD
 70
     0
  9
$DIMSAH
 70
     0
  9
$DIMBLK1
  1

  9
$DIMBLK2
  1

  9
$DIMSTYLE
  2
BIGT
  9
$DIMCLRD
 70
   256
  9
$DIMCLRE
 70
   256
  9
$DIMCLRT
 70
    40
  9
$DIMTFAC
 40
1.0
  9
$DIMGAP
 40
1.0
  9
$LUNITS
 70
     2
  9
$LUPREC
 70
     6
  9
$SKETCHINC
 40
1.0
  9
$FILLETRAD
 40
0.0
  9
$AUNITS
 70
     0
  9
$AUPREC
 70
     6
  9
$MENU
  1
.
  9
$ELEVATION
 40
0.0
  9
$PELEVATION
 40
0.0
  9
$THICKNESS
 40
0.0
  9
$LIMCHECK
 70
     0
  9
$BLIPMODE
 70
     0
  9
$CHAMFERA
 40
0.2
  9
$CHAMFERB
 40
0.2
  9
$SKPOLY
 70
     0
  9
$TDCREATE
 40
2460690.4614377888
  9
$TDUPDATE
 40
2460690.4760732059
  9
$TDINDWG
 40
0.0143265856
  9
$TDUSRTIMER
 40
0.0143264583
  9
$USRTIMER
 70
     1
  9
$ANGBASE
 50
0.0
  9
$ANGDIR
 70
     0
  9
$PDMODE
 70
     1
  9
$PDSIZE
 40
0.0
  9
$PLINEWID
 40
0.0
  9
$COORDS
 70
     1
  9
$SPLFRAME
 70
     0
  9
$SPLINETYPE
 70
     6
  9
$SPLINESEGS
 70
     4
  9
$ATTDIA
 70
     1
  9
$ATTREQ
 70
     1
  9
$HANDLING
 70
     1
  9
$HANDSEED
  5
47B4
  9
$SURFTAB1
 70
     6
  9
$SURFTAB2
 70
     6
  9
$SURFTYPE
 70
     6
  9
$SURFU
 70
     6
  9
$SURFV
 70
     6
  9
$UCSNAME
  2

  9
$UCSORG
 10
0.0
 20
0.0
 30
0.0
  9
$UCSXDIR
 10
1.0
 20
0.0
 30
0.0
  9
$UCSYDIR
 10
0.0
 20
1.0
 30
0.0
  9
$PUCSNAME
  2

  9
$PUCSORG
 10
0.0
 20
0.0
 30
0.0
  9
$PUCSXDIR
 10
1.0
 20
0.0
 30
0.0
  9
$PUCSYDIR
 10
0.0
 20
1.0
 30
0.0
  9
$USERI1
 70
     1
  9
$USERI2
 70
     0
  9
$USERI3
 70
     0
  9
$USERI4
 70
     0
  9
$USERI5
 70
     0
  9
$USERR1
 40
0.0
  9
$USERR2
 40
0.0
  9
$USERR3
 40
0.0
  9
$USERR4
 40
0.0
  9
$USERR5
 40
0.0
  9
$WORLDVIEW
 70
     1
  9
$SHADEDGE
 70
     3
  9
$SHADEDIF
 70
    70
  9
$TILEMODE
 70
     1
  9
$MAXACTVP
 70
    16
  9
$PLIMCHECK
 70
     0
  9
$PEXTMIN
 10
1.0000000000000000E+020
 20
1.0000000000000000E+020
 30
1.0000000000000000E+020
  9
$PEXTMAX
 10
-1.0000000000000000E+020
 20
-1.0000000000000000E+020
 30
-1.0000000000000000E+020
  9
$PLIMMIN
 10
0.0
 20
0.0
  9
$PLIMMAX
 10
420.0
 20
297.0
  9
$UNITMODE
 70
     0
  9
$VISRETAIN
 70
     1
  9
$PLINEGEN
 70
     0
  9
$PSLTSCALE
 70
     1
  0
ENDSEC
  0
SECTION
  2
TABLES
  0
TABLE
  2
VPORT
 70
     1
  0
VPORT
  2
*ACTIVE
 70
     0
 10
0.0
 20
0.0
 11
1.0
 21
1.0
 12
-22.419778858257789
 22
8.6843620026241979
 13
0.0
 23
0.0
 14
7.0
 24
7.0
 15
7.0
 25
7.0
 16
0.0
 26
0.0
 36
1.0
 17
0.0
 27
0.0
 37
0.0
 40
224.549596218891
 41
1.9810298102981021
 42
50.0
 43
0.0
 44
0.0
 50
0.0
 51
0.0
 71
     0
 72
  2000
 73
     1
 74
     0
 75
     0
 76
     1
 77
     0
 78
     0
  0
ENDTAB
  0
TABLE
  2
LTYPE
 70
    21
  0
LTYPE
  2
CONTINUOUS
 70
     0
  3
Solid line
 72
    65
 73
     0
 40
0.0
  0
LTYPE
  2
CENTER2
 70
     0
  3
___ _ ___ _ ___ _ ___ _ ___ _ ___ _ ___ _ ___ _
 72
    65
 73
     4
 40
1.125
 49
0.75
 49
-0.125
 49
0.125
 49
-0.125
  0
LTYPE
  2
HIDDEN2
 70
     0
  3
_ _ _ _ _ _ _ _ _ _ _ _ _ _ _ _ _ _ _ _ _ _ _ _
 72
    65
 73
     2
 40
0.1875
 49
0.125
 49
-0.0625
  0
LTYPE
  2
PHANTOM2
 70
     0
  3
___ _ _ ___ _ _ ___ _ _ ___ _ _ ___ _ _ ___ _ _
 72
    65
 73
     6
 40
1.25
 49
0.625
 49
-0.125
 49
0.125
 49
-0.125
 49
0.125
 49
-0.125
  0
LTYPE
  2
AM_ISO02W050
 70
     0
  3
__ __ __ __ __ __ __ __ __ __ __ __ __ __ __
 72
    65
 73
     2
 40
7.5
 49
6.0
 49
-1.5
  0
LTYPE
  2
AMCONSTR
 70
     0
  3
_______________________
 72
    65
 73
     2
 40
9999.0
 49
9999.0
 49
0.0
  0
LTYPE
  2
ACISOWELD
 70
     0
  3
_ _ _ _ _
 72
    65
 73
     2
 40
2.0
 49
2.0
 49
-1.0
  0
LTYPE
  2
ACISOTGB
 70
     0
  3
__ . . __ . .
 72
    65
 73
     6
 40
9.0
 49
4.0
 49
-1.0
 49
1.0
 49
-1.0
 49
1.0
 49
-1.0
  0
LTYPE
  2
ACISOTGL
 70
     0
  3
_ _ _ _ _
 72
    65
 73
     2
 40
3.0
 49
2.0
 49
-1.0
  0
LTYPE
  2
ACJISTGB
 70
     0
  3
__ . . __ . .
 72
    65
 73
     6
 40
9.0
 49
4.0
 49
-1.0
 49
1.0
 49
-1.0
 49
1.0
 49
-1.0
  0
LTYPE
  2
ACJISTGL
 70
     0
  3
_ _ _ _ _
 72
    65
 73
     2
 40
3.0
 49
2.0
 49
-1.0
  0
ENDTAB
  0
TABLE
  2
LAYER
 70
    16
  0
LAYER
  2
0
 70
     0
 62
     7
  6
CONTINUOUS
  0
LAYER
  2
DEFPOINTS
 70
     0
 62
     7
  6
CONTINUOUS
  0
LAYER
  2
245
 70
     0
 62
     2
  6
CENTER2
  0
LAYER
  2
240
 70
     0
 62
     4
  6
CONTINUOUS
  0
LAYER
  2
241
 70
     0
 62
   211
  6
CONTINUOUS
  0
LAYER
  2
242
 70
     0
 62
     3
  6
CONTINUOUS
  0
LAYER
  2
243
 70
     0
 62
   211
  6
HIDDEN2
  0
LAYER
  2
247
 70
     0
 62
    60
  6
CONTINUOUS
  0
LAYER
  2
250
 70
     0
 62
     3
  6
CONTINUOUS
  0
ENDTAB
  0
TABLE
  2
STYLE
 70
     8
  0
STYLE
  2
STANDARD
 70
     0
 40
0.0
 41
1.0
 50
0.0
 71
     0
 42
3.0
  3
romans.shx
  4
extfont.shx
  0
STYLE
  2
ACISOTS
 70
     0
 40
1.0
 41
1.0
 50
0.0
 71
     0
 42
3.0
  3
amgdt.shx
  4
extfont.shx
  0
STYLE
  2
ACISOGDT
 70
     0
 40
0.0
 41
1.0
 50
0.0
 71
     0
 42
3.0
  3
amgdt.shx
  4
extfont.shx
  0
STYLE
  2
ACJISTS
 70
     0
 40
1.0
 41
1.0
 50
0.0
 71
     0
 42
3.0
  3
amgdt.shx
  4
extfont.shx
  0
STYLE
  2
ACJISGDT
 70
     0
 40
0.0
 41
1.0
 50
0.0
 71
     0
 42
3.0
  3
amgdt.shx
  4
extfont.shx
  0
STYLE
  2
YOKO
 70
     0
 40
0.0
 41
1.0
 50
0.0
 71
     0
 42
3.0
  3
romans.shx
  4
extfont.shx
  0
ENDTAB
  0
TABLE
  2
VIEW
 70
     0
  0
ENDTAB
  0
TABLE
  2
UCS
 70
     0
  0
ENDTAB
  0
TABLE
  2
APPID
 70
    40
  0
APPID
  2
ACAD
 70
     0
  0
APPID
  2
GLOBAL
 70
     0
  0
APPID
  2
DETAIL
 70
     0
  0
APPID
  2
GRPNAME
 70
     0
  0
APPID
  2
GPARA
 70
     0
  0
APPID
  2
MCAD_NO_VIS
 70
     0
  0
APPID
  2
ACAD_TEMP_GRAPHIC
 70
     0
  0
APPID
  2
ACATTRIBSERVICES
 70
     0
  0
APPID
  2
GENIUS_GENSCREG_15
 70
     0
  0
APPID
  2
GENIUS_GENODEF_13
 70
     0
  0
APPID
  2
GENIUS_GENOBJ-N-SDF_13
 70
     0
  0
APPID
  2
GENIUS_GENREC_14
 70
     0
  0
APPID
  2
GENIUS_GENOBJ-N-REC_13
 70
     0
  0
APPID
  2
GENIUS_GENDIMSH_14
 70
     0
  0
APPID
  2
GENIUS_GENOBJ-N-DIM_13
 70
     0
  0
APPID
  2
GENIUS_GENDIM_13
 70
     0
  0
APPID
  2
GENIUS_GENDTOL_13
 70
     0
  0
APPID
  2
GENIUS_GENOLIS_13
 70
     0
  0
APPID
  2
GENIUS_GENOENT_13
 70
     0
  0
APPID
  2
GENIUS_GENOBJ-F-FEM_13
 70
     0
  0
APPID
  2
GENIUS_GENOREF_13
 70
     0
  0
APPID
  2
GENIUS_GEFFEM_13
 70
     0
  0
APPID
  2
GENIUS_GEFFEMP_13
 70
     0
  0
APPID
  2
AD_DRAW
 70
     0
  0
APPID
  2
DESIGNERASSEMBLIES
 70
     0
  0
APPID
  2
ACADM_DIM_EDIT
 70
     0
  0
APPID
  2
AMDT_DM_ADJ
 70
     0
  0
APPID
  2
ITEMNAME
 70
     0
  0
APPID
  2
GENIUS_GENOBJ-N-FIL_13
 70
     0
  0
APPID
  2
GENIUS_GENFIL_13
 70
     0
  0
APPID
  2
GENIUS_GENOBJ-N-CHA_13
 70
     0
  0
APPID
  2
ACAD_NAV_VCDISPLAY
 70
     0
  0
APPID
  2
ACAD_DSTYLE_DIMJAG
 70
     0
  0
APPID
  2
ACAD_DSTYLE_DIMTALN
 70
     0
  0
APPID
  2
ACAD_DSTYLE_DIMBREAK
 70
     0
  0
APPID
  2
ACAD_PSEXT
 70
     0
  0
APPID
  2
PLOTTRANSPARENCY
 70
     0
  0
APPID
  2
ACAECLAYERSTANDARD
 70
     0
  0
APPID
  2
ACAD_EXEMPT_FROM_CAD_STANDARDS
 70
     0
  0
APPID
  2
ACAD_MLEADERVER
 70
     0
  0
ENDTAB
  0
TABLE
  2
DIMSTYLE
 70
    32
  0
DIMSTYLE
  2
BIGT
 70
     0
  3

  4

  5
OPEN
  6

  7

 40
1.0
 41
2.2299999999999991
 42
0.5
 43
7.0
 44
1.0
 45
0.0
 46
0.0
 47
0.0
 48
0.01
140
2.7999999999999989
141
0.0
142
0.0
143
25.399999999999999
144
1.0
145
0.0
146
1.0
147
1.0
 71
     0
 72
     0
 73
     0
 74
     0
 75
     0
 76
     0
 77
     3
 78
     9
170
     0
171
     2
172
     1
173
     0
174
     1
175
     0
176
   256
177
   256
178
    40
  0
DIMSTYLE
  2
AM_ISO
 70
     0
  3

  4
"
  5

  6

  7

 40
1.0
 41
2.5
 42
1.0
 43
10.0
 44
1.0
 45
0.0
 46
0.0
 47
0.1
 48
0.1
140
3.5
141
0.0
142
0.0
143
0.0393701
144
1.0
145
0.0
146
0.71
147
1.5
 71
     0
 72
     0
 73
     0
 74
     0
 75
     0
 76
     0
 77
     1
 78
     8
170
     0
171
     2
172
     1
173
     0
174
     0
175
     0
176
   256
177
   256
178
     2
  0
DIMSTYLE
  2
AM_ISO$3
 70
     0
  3

  4
"
  5

  6

  7

 40
1.0
 41
2.5
 42
1.0
 43
10.0
 44
1.0
 45
0.0
 46
0.0
 47
0.1
 48
0.1
140
3.5
141
0.0
142
0.0
143
0.0393701
144
1.0
145
0.0
146
0.71
147
1.5
 71
     0
 72
     0
 73
     0
 74
     1
 75
     0
 76
     0
 77
     1
 78
     8
170
     0
171
     2
172
     0
173
     0
174
     0
175
     0
176
   256
177
   256
178
     2
  0
DIMSTYLE
  2
AM_ISO$4
 70
     0
  3

  4
"
  5

  6

  7

 40
1.0
 41
2.5
 42
1.0
 43
10.0
 44
1.0
 45
0.0
 46
0.0
 47
0.1
 48
0.1
140
3.5
141
0.0
142
0.0
143
0.0393701
144
1.0
145
0.0
146
0.71
147
1.5
 71
     0
 72
     0
 73
     0
 74
     1
 75
     0
 76
     0
 77
     1
 78
     8
170
     0
171
     2
172
     0
173
     0
174
     0
175
     0
176
   256
177
   256
178
     2
  0
DIMSTYLE
  2
AM_ISO$6
 70
     0
  3

  4
"
  5

  6

  7

 40
1.0
 41
2.5
 42
1.0
 43
10.0
 44
1.0
 45
0.0
 46
0.0
 47
0.1
 48
0.1
140
3.5
141
0.0
142
0.0
143
0.0393701
144
1.0
145
0.0
146
0.71
147
1.5
 71
     0
 72
     0
 73
     0
 74
     0
 75
     0
 76
     0
 77
     0
 78
     8
170
     0
171
     2
172
     1
173
     0
174
     0
175
     0
176
   256
177
   256
178
     2
  0
DIMSTYLE
  2
AM_ISO$7
 70
     0
  3

  4
"
  5

  6

  7

 40
1.0
 41
2.5
 42
1.0
 43
10.0
 44
1.0
 45
0.0
 46
0.0
 47
0.1
 48
0.1
140
5.0
141
0.0
142
0.0
143
0.0393701
144
1.0
145
0.0
146
0.71
147
1.5
 71
     0
 72
     0
 73
     0
 74
     0
 75
     0
 76
     0
 77
     1
 78
     8
170
     0
171
     2
172
     1
173
     0
174
     0
175
     0
176
   256
177
   256
178
     2
  0
DIMSTYLE
  2
AM_ISO$SF
 70
     0
  3

  4
"
  5

  6

  7

 40
1.0
 41
2.5
 42
1.0
 43
10.0
 44
1.0
 45
0.0
 46
0.0
 47
0.1
 48
0.1
140
3.5
141
0.0
142
0.0
143
0.0393701
144
1.0
145
0.0
146
0.71
147
1.5
 71
     0
 72
     0
 73
     0
 74
     0
 75
     1
 76
     1
 77
     1
 78
     8
170
     0
171
     2
172
     1
173
     0
174
     0
175
     0
176
   256
177
   256
178
     2
  0
DIMSTYLE
  2
AM_ISO$SH
 70
     0
  3

  4
"
  5

  6
GENAXEH
  7

 40
1.0
 41
2.5
 42
1.0
 43
10.0
 44
1.0
 45
0.0
 46
0.0
 47
0.1
 48
0.1
140
3.5
141
0.0
142
0.0
143
0.0393701
144
2.0
145
0.0
146
0.71
147
1.5
 71
     0
 72
     0
 73
     0
 74
     0
 75
     1
 76
     1
 77
     1
 78
     8
170
     0
171
     2
172
     1
173
     1
174
     0
175
     0
176
   256
177
   256
178
     2
  0
DIMSTYLE
  2
BIGT$2
 70
     0
  3

  4

  5
OPEN
  6

  7

 40
1.0
 41
2.2299999999999991
 42
0.5
 43
7.0
 44
1.0
 45
0.0
 46
0.0
 47
0.0
 48
0.01
140
2.7999999999999989
141
0.0
142
0.0
143
25.399999999999999
144
1.0
145
0.0
146
1.0
147
1.0
 71
     0
 72
     0
 73
     0
 74
     0
 75
     0
 76
     0
 77
     3
 78
     9
170
     0
171
     2
172
     1
173
     0
174
     0
175
     0
176
   256
177
   256
178
    40
  0
DIMSTYLE
  2
BIGT$3
 70
     0
  3

  4

  5
OPEN
  6

  7

 40
1.0
 41
2.2299999999999991
 42
0.5
 43
2.5
 44
1.0
 45
0.0
 46
0.0
 47
0.0
 48
0.01
140
2.7999999999999989
141
0.0
142
0.0
143
25.399999999999999
144
1.0
145
0.0
146
1.0
147
1.0
 71
     0
 72
     0
 73
     0
 74
     0
 75
     0
 76
     0
 77
     3
 78
     9
170
     0
171
     2
172
     1
173
     0
174
     0
175
     0
176
   256
177
   256
178
    40
  0
DIMSTYLE
  2
BIGT$7
 70
     0
  3

  4

  5
OPEN
  6

  7

 40
0.0
 41
2.2299999999999991
 42
0.5
 43
7.0
 44
1.0
 45
0.0
 46
0.0
 47
0.0
 48
0.01
140
2.7999999999999989
141
0.0
142
0.0
143
25.399999999999999
144
1.0
145
0.0
146
1.0
147
1.0
 71
     0
 72
     0
 73
     0
 74
     0
 75
     0
 76
     0
 77
     3
 78
     9
170
     0
171
     2
172
     0
173
     0
174
     0
175
     0
176
   256
177
   256
178
    40
  0
DIMSTYLE
  2
BIGT$6
 70
     0
  3

  4

  5
OPEN
  6

  7

 40
1.0
 41
2.2299999999999991
 42
0.5
 43
2.5
 44
1.0
 45
0.0
 46
0.0
 47
0.0
 48
0.01
140
2.7999999999999989
141
0.0
142
0.0
143
25.399999999999999
144
1.0
145
0.0
146
1.0
147
1.0
 71
     0
 72
     0
 73
     0
 74
     0
 75
     0
 76
     0
 77
     3
 78
     9
170
     0
171
     2
172
     1
173
     0
174
     0
175
     0
176
   256
177
   256
178
    40
  0
DIMSTYLE
  2
BIGT$0
 70
     0
  3

  4

  5
OPEN
  6

  7

 40
1.0
 41
2.2299999999999991
 42
0.5
 43
7.0
 44
1.0
 45
0.0
 46
0.0
 47
0.0
 48
0.01
140
2.7999999999999989
141
0.0
142
0.0
143
25.399999999999999
144
1.0
145
0.0
146
1.0
147
1.0
 71
     0
 72
     0
 73
     0
 74
     0
 75
     0
 76
     0
 77
     3
 78
     9
170
     0
171
     2
172
     1
173
     0
174
     1
175
     0
176
   256
177
   256
178
    40
  0
DIMSTYLE
  2
BIGT$4
 70
     0
  3

  4

  5
OPEN
  6

  7

 40
1.0
 41
2.2299999999999991
 42
0.5
 43
2.5
 44
1.0
 45
0.0
 46
0.0
 47
0.0
 48
0.01
140
2.7999999999999989
141
0.0
142
0.0
143
25.399999999999999
144
1.0
145
0.0
146
1.0
147
1.0
 71
     0
 72
     0
 73
     0
 74
     0
 75
     0
 76
     0
 77
     3
 78
     9
170
     0
171
     2
172
     1
173
     0
174
     0
175
     0
176
   256
177
   256
178
    40
  0
DIMSTYLE
  2
BIGT$SH
 70
     0
  3

  4

  5
OPEN
  6

  7

 40
1.0
 41
2.2299999999999991
 42
0.5
 43
7.0
 44
1.0
 45
0.0
 46
0.0
 47
0.0
 48
0.0
140
2.7999999999999989
141
0.0
142
0.0
143
25.399999999999999
144
1.0
145
0.0
146
1.0
147
1.0
 71
     0
 72
     0
 73
     0
 74
     0
 75
     0
 76
     0
 77
     3
 78
     9
170
     0
171
     2
172
     1
173
     0
174
     0
175
     0
176
   256
177
   256
178
    40
  0
DIMSTYLE
  2
BIGT$SF
 70
     0
  3

  4

  5
OPEN
  6

  7

 40
1.0
 41
2.2299999999999991
 42
0.5
 43
7.0
 44
1.0
 45
0.0
 46
0.0
 47
0.0
 48
0.0
140
2.7999999999999989
141
0.0
142
0.0
143
25.399999999999999
144
1.0
145
0.0
146
1.0
147
1.0
 71
     0
 72
     0
 73
     0
 74
     0
 75
     0
 76
     0
 77
     3
 78
     9
170
     0
171
     2
172
     1
173
     0
174
     0
175
     0
176
   256
177
   256
178
    40
  0
DIMSTYLE
  2
TECHNICAL_OSAKA
 70
     0
  3

  4
"
  5
OPEN30
  6

  7

 40
1.0
 41
2.5
 42
1.0
 43
10.0
 44
1.0
 45
0.0
 46
0.0
 47
0.1
 48
0.1
140
2.7999999999999989
141
0.0
142
0.0
143
0.0393701
144
1.0
145
0.0
146
0.71
147
1.5
 71
     0
 72
     0
 73
     0
 74
     0
 75
     0
 76
     0
 77
     3
 78
     8
170
     0
171
     2
172
     1
173
     0
174
     0
175
     0
176
   256
177
   256
178
    40
  0
DIMSTYLE
  2
TECHNICAL_OSAKA$3
 70
     0
  3

  4
"
  5
OPEN30
  6

  7

 40
1.0
 41
2.5
 42
1.0
 43
10.0
 44
1.0
 45
0.0
 46
0.0
 47
0.1
 48
0.1
140
2.7999999999999989
141
0.0
142
0.0
143
0.0393701
144
1.0
145
0.0
146
0.71
147
1.5
 71
     0
 72
     0
 73
     0
 74
     1
 75
     0
 76
     0
 77
     3
 78
     8
170
     0
171
     2
172
     0
173
     0
174
     0
175
     0
176
   256
177
   256
178
    40
  0
DIMSTYLE
  2
TECHNICAL_OSAKA$4
 70
     0
  3

  4
"
  5
OPEN30
  6

  7

 40
1.0
 41
2.5
 42
1.0
 43
10.0
 44
1.0
 45
0.0
 46
0.0
 47
0.1
 48
0.1
140
2.7999999999999989
141
0.0
142
0.0
143
0.0393701
144
1.0
145
0.0
146
0.71
147
1.5
 71
     0
 72
     0
 73
     0
 74
     1
 75
     0
 76
     0
 77
     3
 78
     8
170
     0
171
     2
172
     0
173
     0
174
     0
175
     0
176
   256
177
   256
178
    40
  0
DIMSTYLE
  2
TECHNICAL_OSAKA$6
 70
     0
  3

  4
"
  5
OPEN30
  6

  7

 40
1.0
 41
2.5
 42
1.0
 43
10.0
 44
1.0
 45
0.0
 46
0.0
 47
0.1
 48
0.1
140
2.7999999999999989
141
0.0
142
0.0
143
0.0393701
144
1.0
145
0.0
146
0.71
147
1.5
 71
     0
 72
     0
 73
     0
 74
     0
 75
     0
 76
     0
 77
     0
 78
     8
170
     0
171
     2
172
     1
173
     0
174
     0
175
     0
176
   256
177
   256
178
    40
  0
DIMSTYLE
  2
TECHNICAL_OSAKA$7
 70
     0
  3

  4
"
  5
OPEN30
  6

  7

 40
1.0
 41
2.5
 42
1.0
 43
10.0
 44
1.0
 45
0.0
 46
0.0
 47
0.1
 48
0.1
140
2.7999999999999989
141
0.0
142
0.0
143
0.0393701
144
1.0
145
0.0
146
0.71
147
1.5
 71
     0
 72
     0
 73
     0
 74
     0
 75
     0
 76
     0
 77
     3
 78
     8
170
     0
171
     2
172
     1
173
     0
174
     0
175
     0
176
   256
177
   256
178
    40
  0
DIMSTYLE
  2
TECHNICAL_OSAKA$SF
 70
     0
  3

  4
"
  5
OPEN30
  6
OPEN30
  7
OPEN30
 40
1.0
 41
2.5
 42
1.0
 43
10.0
 44
1.0
 45
0.0
 46
0.0
 47
0.1
 48
0.1
140
3.5
141
0.0
142
0.0
143
0.0393701
144
1.0
145
0.0
146
0.71
147
1.5
 71
     0
 72
     0
 73
     0
 74
     0
 75
     1
 76
     1
 77
     3
 78
     8
170
     0
171
     2
172
     1
173
     0
174
     0
175
     0
176
   256
177
   256
178
    40
  0
DIMSTYLE
  2
TECHNICAL_OSAKA$SH
 70
     0
  3

  4
"
  5
OPEN30
  6
GENAXEH
  7
OPEN30
 40
1.0
 41
2.5
 42
1.0
 43
10.0
 44
1.0
 45
0.0
 46
0.0
 47
0.1
 48
0.1
140
3.5
141
0.0
142
0.0
143
0.0393701
144
2.0
145
0.0
146
0.71
147
1.5
 71
     0
 72
     0
 73
     0
 74
     0
 75
     1
 76
     1
 77
     3
 78
     8
170
     0
171
     2
172
     1
173
     1
174
     0
175
     0
176
   256
177
   256
178
    40
  0
ENDTAB
  0
ENDSEC
  0
SECTION
  2
BLOCKS
  0
BLOCK
  8
0
  2
$MODEL_SPACE
 70
     0
 10
0.0
 20
0.0
 30
0.0
  3
$MODEL_SPACE
  1

  0
ENDBLK
  5
1C
  8
0
  0
BLOCK
 67
     1
  8
0
  2
$PAPER_SPACE
 70
     0
 10
0.0
 20
0.0
 30
0.0
  3
$PAPER_SPACE
  1

  0
ENDBLK
  5
19
 67
     1
  8
0
  0
BLOCK
  8
0
  2
_OPEN
 70
     0
 10
0.0
 20
0.0
 30
0.0
  3
_OPEN
  1

  0
LINE
  5
4693
  8
0
  6
BYBLOCK
 62
     0
 10
-1.0
 20
0.1666666666666666
 30
0.0
 11
0.0
 21
0.0
 31
0.0
  0
LINE
  5
4694
  8
0
  6
BYBLOCK
 62
     0
 10
-1.0
 20
-0.1666666666666666
 30
0.0
 11
0.0
 21
0.0
 31
0.0
  0
LINE
  5
4695
  8
0
  6
BYBLOCK
 62
     0
 10
0.0
 20
0.0
 30
0.0
 11
-1.0
 21
0.0
 31
0.0
  0
ENDBLK
  5
4696
  8
0
  0
BLOCK
  8
0
  2
GENAXEH
 70
     0
 10
0.0
 20
0.0
 30
0.0
  3
GENAXEH
  1

  0
LINE
  5
46CE
  8
0
 10
-1.0
 20
0.0
 30
0.0
 11
1.0
 21
0.0
 31
0.0
  0
ENDBLK
  5
46CF
  8
0
  0
BLOCK
  8
0
  2
_OPEN30
 70
     0
 10
0.0
 20
0.0
 30
0.0
  3
_OPEN30
  1

  0
LINE
  5
470A
  8
0
  6
BYBLOCK
 62
     0
 10
-1.0
 20
0.26794919
 30
0.0
 11
0.0
 21
0.0
 31
0.0
  0
LINE
  5
470B
  8
0
  6
BYBLOCK
 62
     0
 10
0.0
 20
0.0
 30
0.0
 11
-1.0
 21
-0.26794919
 31
0.0
  0
LINE
  5
470C
  8
0
  6
BYBLOCK
 62
     0
 10
0.0
 20
0.0
 30
0.0
 11
-1.0
 21
0.0
 31
0.0
  0
ENDBLK
  5
470D
  8
0
  0
BLOCK
  8
0
  2
*U28
 70
     1
 10
0.0
 20
0.0
 30
0.0
  3
*U28
  1

  0
TEXT
  5
4789
  8
250
 62
    40
 10
187.33333333333059
 20
105.9999999999841
 30
0.0
 40
2.7999999999999989
  1
40
  7
YOKO
  0
ENDBLK
  5
478B
  8
0
  0
BLOCK
  8
0
  2
*U29
 70
     1
 10
0.0
 20
0.0
 30
0.0
  3
*U29
  1

  0
TEXT
  5
478D
  8
250
 62
    40
 10
229.8333333333324
 20
105.9999999999841
 30
0.0
 40
2.7999999999999989
  1
45
  7
YOKO
  0
ENDBLK
  5
478F
  8
0
  0
BLOCK
  8
0
  2
*U30
 70
     1
 10
0.0
 20
0.0
 30
0.0
  3
*U30
  1

  0
TEXT
  5
4791
  8
250
 62
    40
 10
272.04529632917212
 20
144.53000000002041
 30
0.0
 40
2.7999999999999989
  1
ストローク4.5
 50
90.0
  7
YOKO
  0
ENDBLK
  5
4793
  8
0
  0
BLOCK
  8
0
  2
*U31
 70
     1
 10
0.0
 20
0.0
 30
0.0
  3
*U31
  1

  0
TEXT
  5
4795
  8
250
 62
    40
 10
279.0
 20
150.06666666666661
 30
0.0
 40
2.7999999999999989
  1
\U+220516
 50
90.0
  7
YOKO
  0
ENDBLK
  5
4797
  8
0
  0
BLOCK
  8
0
  2
*U32
 70
     1
 10
0.0
 20
0.0
 30
0.0
  3
*U32
  1

  0
TEXT
  5
4799
  8
250
 62
    40
 10
160.0
 20
148.06666666666661
 30
0.0
 40
2.7999999999999989
  1
\U+220563.5
 50
90.0
  7
YOKO
  0
ENDBLK
  5
479B
  8
0
  0
BLOCK
  8
0
  2
*U33
 70
     1
 10
0.0
 20
0.0
 30
0.0
  3
*U33
  1

  0
TEXT
  5
479D
  8
250
 62
    40
 10
19.833333333332419
 20
-48.000000000015859
 30
0.0
 40
2.7999999999999989
  1
45
  0
ENDBLK
  5
479F
  8
0
  0
BLOCK
  8
0
  2
*U34
 70
     1
 10
0.0
 20
0.0
 30
0.0
  3
*U34
  1

  0
TEXT
  5
47A1
  8
250
 62
    40
 10
62.045296329172061
 20
-9.4699999999795708
 30
0.0
 40
2.7999999999999989
  1
ストローク4.5
 50
90.0
  0
ENDBLK
  5
47A3
  8
0
  0
BLOCK
  8
0
  2
*U35
 70
     1
 10
0.0
 20
0.0
 30
0.0
  3
*U35
  1

  0
TEXT
  5
47A5
  8
250
 62
    40
 10
68.999999999999986
 20
-3.9333333333333611
 30
0.0
 40
2.7999999999999989
  1
\U+220516
 50
90.0
  0
ENDBLK
  5
47A7
  8
0
  0
BLOCK
  8
0
  2
*U36
 70
     1
 10
0.0
 20
0.0
 30
0.0
  3
*U36
  1

  0
TEXT
  5
47A9
  8
250
 62
    40
 10
-49.999999999999972
 20
-5.9333333333333602
 30
0.0
 40
2.7999999999999989
  1
\U+220563.5
 50
90.0
  0
ENDBLK
  5
47AB
  8
0
  0
BLOCK
  8
0
  2
*U37
 70
     1
 10
0.0
 20
0.0
 30
0.0
  3
*U37
  1

  0
TEXT
  5
47AD
  8
250
 62
    40
 10
-22.666666666669389
 20
-48.000000000015859
 30
0.0
 40
2.7999999999999989
  1
40
  0
ENDBLK
  5
47AF
  8
0
  0
ENDSEC
  0
SECTION
  2
ENTITIES
  0
LINE
  5
44CE
  8
250
  6
CONTINUOUS
 10
-32.752583035866223
 20
-35.304410928814761
 30
0.0
 11
-46.752583035866223
 21
-35.304410928814761
 31
0.0
1001
ITEMNAME
1000
LNSP2
  0
TEXT
  5
44CF
  8
241
  6
CONTINUOUS
 62
   211
 10
-35.0
 20
63.0
 30
0.0
 40
5.0
  1
EWN2-54CK6
  7
YOKO
 11
-35.0
 21
63.0
 31
0.0
 73
     1
  0
LINE
  5
44D0
  8
250
  6
CONTINUOUS
 10
45.499999999990898
 20
-7.9999999999821503
 30
0.0
 11
64.0
 21
-7.9999999999821529
 31
0.0
  0
LINE
  5
44D1
  8
250
  6
CONTINUOUS
 10
45.499999999984588
 20
8.0000000000178488
 30
0.0
 11
64.0
 21
8.0000000000178435
 31
0.0
  0
LINE
  5
44D2
  8
250
  6
CONTINUOUS
 10
63.0
 20
-5.7699999999821561
 30
0.0
 11
63.0
 21
5.7700000000178431
 31
0.0
  0
LINE
  5
44D3
  8
250
  6
CONTINUOUS
 10
-0.0000000000244995
 20
32.24350977651779
 30
0.0
 11
-0.0000000000244995
 21
50.0
 31
0.0
  0
LINE
  5
44D4
  8
250
  6
CONTINUOUS
 10
44.999999999977142
 20
27.350000000017811
 30
0.0
 11
44.999999999977142
 21
50.0
 31
0.0
  0
LINE
  5
44D5
  8
250
  6
CONTINUOUS
 10
2.2299999999754898
 20
49.0
 30
0.0
 11
42.769999999977131
 21
49.0
 31
0.0
  0
TEXT
  5
44D6
  8
250
  6
CONTINUOUS
 10
-44.181154464437633
 20
-34.304410928814761
 30
0.0
 40
3.0
  1
CK6
  7
YOKO
1001
ITEMNAME
1000
LNSP3
1001
ACAD
1000
MTEXTBEGIN
1070
    73
1070
     1
1070
    44
1040
1.0
1070
    74
1070
     0
1000
MTEXTEND
  0
LINE
  5
44D7
  8
250
  6
CONTINUOUS
 10
-23.876876727947121
 20
-19.931236650439281
 30
0.0
 11
-32.752583035866223
 21
-35.304410928814761
 31
0.0
1001
ACAD
1000
DSTYLE
1002
{
1070
     6
1000
OPEN
1070
    78
1070
     8
1070
   140
1040
3.0
1070
   173
1070
     1
1002
}
  0
LINE
  5
44D8
  8
250
  6
CONTINUOUS
 10
-24.198749503020341
 20
-19.745403317105922
 30
0.0
 11
-22.761876727947111
 21
-17.999999999999979
 31
0.0
  0
LINE
  5
44D9
  8
250
  6
CONTINUOUS
 10
-23.5550039528739
 20
-20.117069983772609
 30
0.0
 11
-22.761876727947111
 21
-17.999999999999979
 31
0.0
  0
LINE
  5
44DA
  8
250
  6
CONTINUOUS
 10
-22.761876727947111
 20
-17.999999999999979
 30
0.0
 11
-23.876876727947121
 21
-19.931236650439281
 31
0.0
  0
TEXT
  5
44DB
  8
250
  6
CONTINUOUS
 10
19.64285714283346
 20
50.0
 30
0.0
 40
3.0
  1
45
1001
ACAD
1000
MTEXTBEGIN
1070
    73
1070
     1
1070
    44
1040
1.0
1070
    74
1070
     0
1000
MTEXTEND
  0
LINE
  5
44DC
  8
250
  6
CONTINUOUS
 10
42.769999999977131
 20
49.37166666666667
 30
0.0
 11
44.999999999977142
 21
49.0
 31
0.0
  0
LINE
  5
44DD
  8
250
  6
CONTINUOUS
 10
42.769999999977131
 20
48.62833333333333
 30
0.0
 11
44.999999999977142
 21
49.0
 31
0.0
  0
LINE
  5
44DE
  8
250
  6
CONTINUOUS
 10
44.999999999977142
 20
49.0
 30
0.0
 11
42.769999999977131
 21
49.0
 31
0.0
  0
LINE
  5
44DF
  8
250
  6
CONTINUOUS
 10
2.2299999999754898
 20
48.62833333333333
 30
0.0
 11
-0.0000000000244995
 21
49.0
 31
0.0
  0
LINE
  5
44E0
  8
250
  6
CONTINUOUS
 10
2.2299999999754898
 20
49.371666666666663
 30
0.0
 11
-0.0000000000244995
 21
49.0
 31
0.0
  0
LINE
  5
44E1
  8
250
  6
CONTINUOUS
 10
-0.0000000000244995
 20
49.0
 30
0.0
 11
2.2299999999754898
 21
49.0
 31
0.0
  0
TEXT
  5
44E2
  8
250
  6
CONTINUOUS
 10
62.0
 20
-4.071428571410717
 30
0.0
 40
3.0
  1
\U+2205
 50
90.0
1001
ACAD
1000
MTEXTBEGIN
1070
    73
1070
     1
1070
    44
1040
1.0
1070
    74
1070
     0
1000
MTEXTEND
  0
TEXT
  5
44E3
  8
250
  6
CONTINUOUS
 10
62.0
 20
-1.357142857125003
 30
0.0
 40
3.0
  1
16
 50
90.0
1001
ACAD
1000
MTEXTBEGIN
1070
    73
1070
     1
1070
    44
1040
1.0
1070
    74
1070
     0
1000
MTEXTEND
  0
LINE
  5
44E4
  8
250
  6
CONTINUOUS
 10
62.62833333333333
 20
5.7700000000178431
 30
0.0
 11
63.0
 21
8.0000000000178435
 31
0.0
  0
LINE
  5
44E5
  8
250
  6
CONTINUOUS
 10
63.37166666666667
 20
5.7700000000178431
 30
0.0
 11
63.0
 21
8.0000000000178435
 31
0.0
  0
LINE
  5
44E6
  8
250
  6
CONTINUOUS
 10
63.0
 20
8.0000000000178435
 30
0.0
 11
63.0
 21
5.7700000000178431
 31
0.0
  0
LINE
  5
44E7
  8
250
  6
CONTINUOUS
 10
63.37166666666667
 20
-5.7699999999821561
 30
0.0
 11
63.0
 21
-7.9999999999821529
 31
0.0
  0
LINE
  5
44E8
  8
250
  6
CONTINUOUS
 10
62.62833333333333
 20
-5.7699999999821561
 30
0.0
 11
63.0
 21
-7.9999999999821529
 31
0.0
  0
LINE
  5
44E9
  8
250
  6
CONTINUOUS
 10
63.0
 20
-7.9999999999821529
 30
0.0
 11
63.0
 21
-5.7699999999821561
 31
0.0
  0
LINE
  5
44EA
  8
245
  6
CENTER2
 10
48.944771692631662
 20
0.000000000019412
 30
0.0
 11
-43.319756660357662
 21
-0.0000000000171667
 31
0.0
1001
GRPNAME
1000
PASTMD0B
  0
LINE
  5
44EB
  8
240
  6
CONTINUOUS
 10
42.170983680945703
 20
31.750000000016811
 30
0.0
 11
-0.0000000000248122
 21
31.749999999999702
 31
0.0
1001
GRPNAME
1000
PASTMD0B
  0
LINE
  5
44EC
  8
240
  6
CONTINUOUS
 10
27.499999999990049
 20
-29.449999999978498
 30
0.0
 11
18.499999999990049
 21
-29.449999999985689
 31
0.0
1001
GRPNAME
1000
PASTMD0E
  0
LINE
  5
44ED
  8
241
  6
CONTINUOUS
 10
5.549999999868362
 20
-26.449999999968298
 30
0.0
 11
40.449999999987647
 21
-26.449999999968298
 31
0.0
1001
GRPNAME
1000
PASTMD0E
  0
LINE
  5
44EE
  8
241
  6
CONTINUOUS
 10
-0.0000000000000284
 20
17.99999999999994
 30
0.0
 11
0.0000000000000284
 21
-18.000000000000021
 31
0.0
  0
LINE
  5
44EF
  8
245
  6
CENTER2
 10
-15.99999999999997
 20
9.4657429999999447
 30
0.0
 11
-15.99999999999997
 21
-9.8178660000000235
 31
0.0
  0
LINE
  5
44F0
  8
240
  6
CONTINUOUS
 10
-40.0
 20
-18.0
 30
0.0
 11
-40.0
 21
18.000000000000011
 31
0.0
  0
LINE
  5
44F1
  8
240
  6
CONTINUOUS
 10
-40.0
 20
-18.0
 30
0.0
 11
0.0000000000000284
 21
-18.000000000000021
 31
0.0
  0
LINE
  5
44F2
  8
240
  6
CONTINUOUS
 10
18.499999999990049
 20
-29.449999999985689
 30
0.0
 11
5.5499999999877607
 21
-26.449999999995889
 31
0.0
1001
GRPNAME
1000
PASTMD0E
  0
LINE
  5
44F3
  8
240
  6
CONTINUOUS
 10
-0.0000000000000284
 20
-31.749999999999911
 30
0.0
 11
0.0
 21
-18.000000000000021
 31
0.0
1001
GRPNAME
1000
PASTMD0B
  0
LINE
  5
44F4
  8
240
  6
CONTINUOUS
 10
4.5000000000140403
 20
-26.449999999968298
 30
0.0
 11
1.6819400121945021
 21
-31.7499999999994
 31
0.0
1001
GRPNAME
1000
PASTMD0B
  0
LINE
  5
44F5
  8
240
  6
CONTINUOUS
 10
1.6819400121945021
 20
-31.7499999999994
 30
0.0
 11
-0.0000000000000284
 21
-31.749999999999911
 31
0.0
1001
GRPNAME
1000
PASTMD0B
  0
LINE
  5
44F6
  8
240
  6
CONTINUOUS
 10
4.5000000000140403
 20
-26.449999999968298
 30
0.0
 11
5.549999999868362
 21
-26.449999999968298
 31
0.0
1001
GRPNAME
1000
PASTMD0E
  0
LINE
  5
44F7
  8
240
  6
CONTINUOUS
 10
-40.0
 20
18.000000000000011
 30
0.0
 11
0.0
 21
17.99999999999994
 31
0.0
  0
CIRCLE
  5
44F8
  8
241
  6
CONTINUOUS
 10
-15.99999999999997
 20
-0.0000000000000284
 30
0.0
 40
5.9835000000000003
  0
CIRCLE
  5
44F9
  8
241
  6
CONTINUOUS
 10
-15.99999999999997
 20
-0.0000000000000284
 30
0.0
 40
4.5
  0
LINE
  5
44FA
  8
240
  6
CONTINUOUS
 10
-0.0000000000192699
 20
17.999999999999911
 30
0.0
 11
-0.0000000000248122
 21
31.749999999999702
 31
0.0
1001
GRPNAME
1000
PASTMD0B
  0
LINE
  5
44FB
  8
241
  6
CONTINUOUS
 10
42.113248654027302
 20
31.750000000016779
 30
0.0
 11
42.113248654027302
 21
-26.449999999982079
 31
0.0
  0
LINE
  5
44FC
  8
240
  6
CONTINUOUS
 10
40.449999999987647
 20
-26.449999999968298
 30
0.0
 11
44.999999999987772
 21
-26.449999999968298
 31
0.0
1001
GRPNAME
1000
PASTMD0E
  0
LINE
  5
44FD
  8
240
  6
CONTINUOUS
 10
27.499999999990049
 20
-29.449999999978498
 30
0.0
 11
40.449999999987647
 21
-26.449999999968298
 31
0.0
1001
GRPNAME
1000
PASTMD0E
  0
LINE
  5
44FE
  8
240
  6
CONTINUOUS
 10
44.999999999998238
 20
-26.449999999982079
 30
0.0
 11
44.999999999977142
 21
26.850000000017811
 31
0.0
1001
GRPNAME
1000
PASTMD0B
  0
LINE
  5
44FF
  8
240
  6
CONTINUOUS
 10
42.170983680945703
 20
31.750000000016811
 30
0.0
 11
44.999999999977142
 21
26.850000000017811
 31
0.0
1001
GRPNAME
1000
PASTMD0B
  0
LINE
  5
4500
  8
245
  6
CENTER2
 10
22.999999999987779
 20
-6.1805127508722544
 30
0.0
 11
22.999999999987779
 21
6.264115214367731
 31
0.0
  0
LINE
  5
4501
  8
241
  6
CONTINUOUS
 10
25.499999999987779
 20
1.443375672991918
 30
0.0
 11
25.499999999987779
 21
-1.4433756729562199
 31
0.0
  0
LINE
  5
4502
  8
241
  6
CONTINUOUS
 10
20.499999999987828
 20
1.443375672991918
 30
0.0
 11
20.499999999987828
 21
-1.4433756729562199
 31
0.0
  0
CIRCLE
  5
4503
  8
242
  6
CONTINUOUS
 10
22.999999999987779
 20
0.0000000000178481
 30
0.0
 40
4.25
  0
CIRCLE
  5
4504
  8
241
  6
CONTINUOUS
 10
22.999999999987779
 20
0.0000000000178481
 30
0.0
 40
5.0
  0
LINE
  5
4505
  8
241
  6
CONTINUOUS
 10
22.999999999987779
 20
-2.8867513459302341
 30
0.0
 11
20.499999999987828
 21
-1.4433756729562199
 31
0.0
  0
LINE
  5
4506
  8
241
  6
CONTINUOUS
 10
22.999999999987779
 20
-2.8867513459302341
 30
0.0
 11
25.499999999987779
 21
-1.4433756729562199
 31
0.0
  0
LINE
  5
4507
  8
241
  6
CONTINUOUS
 10
20.499999999987828
 20
1.443375672991918
 30
0.0
 11
22.999999999987779
 21
2.88675134596593
 31
0.0
  0
LINE
  5
4508
  8
241
  6
CONTINUOUS
 10
25.499999999987779
 20
1.443375672991918
 30
0.0
 11
22.999999999987779
 21
2.88675134596593
 31
0.0
  0
LINE
  5
4509
  8
243
  6
HIDDEN2
 10
44.999999999987772
 20
-7.9999999999821521
 30
0.0
 11
14.16017212215632
 21
-7.9999999999822071
 31
0.0
1001
GRPNAME
1000
00000003
  0
LINE
  5
450A
  8
243
  6
HIDDEN2
 10
44.999999999987772
 20
8.0000000000178488
 30
0.0
 11
14.16017212215632
 21
8.0000000000177902
 31
0.0
1001
GRPNAME
1000
00000003
  0
LINE
  5
450B
  8
247
  6
CONTINUOUS
 10
6.999999999999317
 20
-19.700000000038301
 30
0.0
 11
6.9999999999966738
 21
-13.00769230799829
 31
0.0
  0
ARC
  5
450C
  8
247
  6
CONTINUOUS
 10
5.2500000000693197
 20
-19.70000000003899
 30
0.0
 40
1.7499999999299991
 50
180.00000000002271
 51
0.0000000000227982
  0
ARC
  5
450D
  8
247
  6
CONTINUOUS
 10
5.2500000000666773
 20
-13.00769230799899
 30
0.0
 40
1.7499999999299991
 50
0.0000000000227982
 51
180.00000000002271
  0
LINE
  5
450E
  8
247
  6
CONTINUOUS
 10
3.5000000001389822
 20
-18.83461538468968
 30
0.0
 11
6.5000000000193259
 21
-19.6948515419305
 31
0.0
  0
LINE
  5
450F
  8
247
  6
CONTINUOUS
 10
4.9230769231586464
 20
-17.934983818304939
 30
0.0
 11
4.923076923159158
 21
-19.242676125944929
 31
0.0
  0
ARC
  5
4510
  8
247
  6
CONTINUOUS
 10
4.0495986677014741
 20
-17.595143816059242
 30
0.0
 40
0.5538165441895349
 50
72.997889675314141
 51
172.92416621853491
  0
ARC
  5
4511
  8
247
  6
CONTINUOUS
 10
3.9360330444644371
 20
-18.016878322998291
 30
0.0
 40
0.9904354236226808
 50
4.7429368522240338
 51
73.849226273290185
1001
GENIUS_GENOBJ-N-FIL_13
1002
{
1000
OWNER
1000
GEN
1002
}
1001
GENIUS_GENODEF_13
1002
{
1000
HIER
1070
     0
1002
}
1002
{
1000
MANEDIT
1070
     0
1002
}
1002
{
1000
NOSEL
1070
     0
1002
}
1002
{
1000
BEHIND
1070
     0
1002
}
1002
{
1000
OTHER
1070
     0
1002
}
1002
{
1000
REACTOR
1002
}
  0
LINE
  5
4512
  8
247
  6
CONTINUOUS
 10
6.5000000000188152
 20
-18.3871592342905
 30
0.0
 11
6.5000000000193259
 21
-19.6948515419305
 31
0.0
  0
LINE
  5
4513
  8
247
  6
CONTINUOUS
 10
3.5000000001389822
 20
-18.83461538468968
 30
0.0
 11
3.5000000001384701
 21
-17.52692307704968
 31
0.0
  0
ARC
  5
4514
  8
247
  6
CONTINUOUS
 10
5.4820242326642301
 20
-18.010919636515862
 30
0.0
 40
0.5640818586791229
 50
65.990941652553744
 51
172.26344345909229
  0
ARC
  5
4515
  8
247
  6
CONTINUOUS
 10
5.4874290391854279
 20
-18.488262685315959
 30
0.0
 40
1.0176059446230981
 50
5.7019851642809334
 51
77.277338436843934
1001
GENIUS_GENOBJ-N-FIL_13
1002
{
1000
OWNER
1000
GEN
1002
}
1001
GENIUS_GENODEF_13
1002
{
1000
HIER
1070
     0
1002
}
1002
{
1000
MANEDIT
1070
     0
1002
}
1002
{
1000
NOSEL
1070
     0
1002
}
1002
{
1000
BEHIND
1070
     0
1002
}
1002
{
1000
OTHER
1070
     0
1002
}
1002
{
1000
REACTOR
1002
}
  0
LINE
  5
4516
  8
247
  6
CONTINUOUS
 10
6.5000000000181606
 20
-16.733313080510499
 30
0.0
 11
3.500000000137816
 21
-15.87307692326968
 31
0.0
  0
LINE
  5
4517
  8
247
  6
CONTINUOUS
 10
3.5000000001368501
 20
-13.45000000028968
 30
0.0
 11
3.500000000137077
 21
-14.015736619426271
 31
0.0
  0
LINE
  5
4518
  8
247
  6
CONTINUOUS
 10
6.5000000000174216
 20
-14.91153846176849
 30
0.0
 11
6.5000000000171951
 21
-14.29615384640849
 31
0.0
  0
ARC
  5
4519
  8
247
  6
CONTINUOUS
 10
5.5832851359701294
 20
-13.15879120909171
 30
0.0
 40
2.2526500823422122
 50
202.3594881415496
 51
254.99324854286971
  0
ARC
  5
451A
  8
247
  6
CONTINUOUS
 10
4.3083126551915143
 20
-13.82406947918259
 30
0.0
 40
0.8906723995727782
 50
94.994589319098253
 51
155.1663289573263
1001
GENIUS_GENOBJ-N-FIL_13
1002
{
1000
OWNER
1000
GEN
1002
}
1001
GENIUS_GENODEF_13
1002
{
1000
HIER
1070
     0
1002
}
1002
{
1000
MANEDIT
1070
     0
1002
}
1002
{
1000
NOSEL
1070
     0
1002
}
1002
{
1000
BEHIND
1070
     0
1002
}
1002
{
1000
OTHER
1070
     0
1002
}
1002
{
1000
REACTOR
1002
}
  0
ARC
  5
451B
  8
247
  6
CONTINUOUS
 10
5.160145888665113
 20
-14.67645888618161
 30
0.0
 40
1.392781735586712
 50
15.84609655580174
 51
82.325137004193763
  0
ARC
  5
451C
  8
247
  6
CONTINUOUS
 10
5.4592434315243841
 20
-14.09221272580927
 30
0.0
 40
1.324563662670287
 50
249.71360167052131
 51
321.78874565643059
1001
GENIUS_GENOBJ-N-FIL_13
1002
{
1000
OWNER
1000
GEN
1002
}
1001
GENIUS_GENODEF_13
1002
{
1000
HIER
1070
     0
1002
}
1002
{
1000
MANEDIT
1070
     0
1002
}
1002
{
1000
NOSEL
1070
     0
1002
}
1002
{
1000
BEHIND
1070
     0
1002
}
1002
{
1000
OTHER
1070
     0
1002
}
1002
{
1000
REACTOR
1002
}
  0
LINE
  5
451D
  8
247
  6
CONTINUOUS
 10
5.346153846217077
 20
-13.98846153872895
 30
0.0
 11
5.3461538462167928
 21
-13.29615384644895
 31
0.0
  0
LINE
  5
451E
  8
247
  6
CONTINUOUS
 10
3.5000000001393232
 20
-19.70000000003969
 30
0.0
 11
3.500000000139067
 21
-19.026923076989679
 31
0.0
  0
CIRCLE
  5
45C8
  8
241
  6
CONTINUOUS
 10
10.49999999998772
 20
0.0000000000041567
 30
0.0
 40
3.1000000000000001
1001
GRPNAME
1000
PASTMD0B
  0
VIEWPORT
  5
22
 67
     1
  8
0
 10
261.51769911504419
 20
148.5
 30
0.0
 40
523.0353982300885
 41
297.0
 68
     1
 69
     1
1001
ACAD
1000
MVIEW
1002
{
1070
    16
1010
0.0
1020
0.0
1030
0.0
1010
0.0
1020
0.0
1030
1.0
1040
0.0
1040
297.0
1040
261.51769911504419
1040
148.5
1040
50.0
1040
0.0
1040
0.0
1070
     0
1070
   100
1070
     1
1070
     1
1070
     0
1070
     0
1070
     0
1070
     0
1040
0.0
1040
0.0
1040
0.0
1040
1.0
1040
1.0
1040
10.0
1040
10.0
1070
     0
1002
{
1002
}
1002
}
1001
GENIUS_GENODEF_13
1002
{
1000
HIER
1070
     0
1002
}
1002
{
1000
MANEDIT
1070
     0
1002
}
1002
{
1000
NOSEL
1070
     0
1002
}
1002
{
1000
BEHIND
1070
     0
1002
}
1002
{
1000
OTHER
1070
     0
1002
}
1002
{
1000
REACTOR
1002
}
1001
GENIUS_GENOBJ-N-SDF_13
1002
{
1000
OWNER
1000
GEN
1002
}
1001
GENIUS_GENSCREG_15
1000
PF
1040
1.0
1000
DF
1040
1.0
1000
MIN
1011
0.0
1021
0.0
1031
0.0
1021
0.0
1031
0.0
1000
MAX
1011
523.0353982300885
1021
0.0
1031
0.0
1021
297.0
1031
0.0
1000
FLAGS
1070
     4
  0
ENDSEC
  0
EOF
