  0
SECTION
  2
HEADER
  9
$ACADVER
  1
AC1009
  9
$INSBASE
 10
0.0
 20
0.0
 30
0.0
  9
$EXTMIN
 10
-22.800000000000018
 20
-23.034747812637011
 30
0.0
  9
$EXTMAX
 10
64.000000000000014
 20
60.000000000000028
 30
0.0
  9
$LIMMIN
 10
0.0
 20
0.0
  9
$LIMMAX
 10
297.0
 20
210.0
  9
$ORTHOMODE
 70
     1
  9
$REGENMODE
 70
     1
  9
$FILLMODE
 70
     1
  9
$QTEXTMODE
 70
     0
  9
$MIRRTEXT
 70
     1
  9
$DRAGMODE
 70
     2
  9
$LTSCALE
 40
10.0
  9
$OSMODE
 70
  3071
  9
$ATTMODE
 70
     1
  9
$TEXTSIZE
 40
3.0
  9
$TRACEWID
 40
1.0
  9
$TEXTSTYLE
  7
YOKO
  9
$CLAYER
  8
240
  9
$CELTYPE
  6
BYLAYER
  9
$CECOLOR
 62
   256
  9
$DIMSCALE
 40
1.0
  9
$DIMASZ
 40
2.2299999999999991
  9
$DIMEXO
 40
0.5
  9
$DIMDLI
 40
7.0
  9
$DIMRND
 40
0.0
  9
$DIMDLE
 40
0.0
  9
$DIMEXE
 40
1.0
  9
$DIMTP
 40
0.0
  9
$DIMTM
 40
0.01
  9
$DIMTXT
 40
2.799999999999998
  9
$DIMCEN
 40
0.0
  9
$DIMTSZ
 40
0.0
  9
$DIMTOL
 70
     0
  9
$DIMLIM
 70
     0
  9
$DIMTIH
 70
     0
  9
$DIMTOH
 70
     0
  9
$DIMSE1
 70
     0
  9
$DIMSE2
 70
     0
  9
$DIMTAD
 70
     3
  9
$DIMZIN
 70
     9
  9
$DIMBLK
  1
OPEN
  9
$DIMASO
 70
     1
  9
$DIMSHO
 70
     1
  9
$DIMPOST
  1

  9
$DIMAPOST
  1

  9
$DIMALT
 70
     0
  9
$DIMALTD
 70
     2
  9
$DIMALTF
 40
25.399999999999999
  9
$DIMLFAC
 40
1.0
  9
$DIMTOFL
 70
     1
  9
$DIMTVP
 40
0.0
  9
$DIMTIX
 70
     1
  9
$DIMSOXD
 70
     0
  9
$DIMSAH
 70
     0
  9
$DIMBLK1
  1

  9
$DIMBLK2
  1

  9
$DIMSTYLE
  2
BIGT
  9
$DIMCLRD
 70
   256
  9
$DIMCLRE
 70
   256
  9
$DIMCLRT
 70
    40
  9
$DIMTFAC
 40
1.0
  9
$DIMGAP
 40
1.0
  9
$LUNITS
 70
     2
  9
$LUPREC
 70
     3
  9
$SKETCHINC
 40
1.0
  9
$FILLETRAD
 40
0.0
  9
$AUNITS
 70
     0
  9
$AUPREC
 70
     3
  9
$MENU
  1
.
  9
$ELEVATION
 40
0.0
  9
$PELEVATION
 40
0.0
  9
$THICKNESS
 40
0.0
  9
$LIMCHECK
 70
     0
  9
$BLIPMODE
 70
     0
  9
$CHAMFERA
 40
0.25
  9
$CHAMFERB
 40
0.25
  9
$SKPOLY
 70
     0
  9
$TDCREATE
 40
2456827.6345132291
  9
$TDUPDATE
 40
2457367.6019910881
  9
$TDINDWG
 40
0.0308136574
  9
$TDUSRTIMER
 40
0.0308136227
  9
$USRTIMER
 70
     1
  9
$ANGBASE
 50
0.0
  9
$ANGDIR
 70
     0
  9
$PDMODE
 70
     1
  9
$PDSIZE
 40
0.0
  9
$PLINEWID
 40
0.0
  9
$COORDS
 70
     1
  9
$SPLFRAME
 70
     0
  9
$SPLINETYPE
 70
     6
  9
$SPLINESEGS
 70
     4
  9
$ATTDIA
 70
     1
  9
$ATTREQ
 70
     1
  9
$HANDLING
 70
     1
  9
$HANDSEED
  5
1E5D
  9
$SURFTAB1
 70
     6
  9
$SURFTAB2
 70
     6
  9
$SURFTYPE
 70
     6
  9
$SURFU
 70
     6
  9
$SURFV
 70
     6
  9
$UCSNAME
  2

  9
$UCSORG
 10
0.0
 20
0.0
 30
0.0
  9
$UCSXDIR
 10
1.0
 20
0.0
 30
0.0
  9
$UCSYDIR
 10
0.0
 20
1.0
 30
0.0
  9
$PUCSNAME
  2

  9
$PUCSORG
 10
0.0
 20
0.0
 30
0.0
  9
$PUCSXDIR
 10
1.0
 20
0.0
 30
0.0
  9
$PUCSYDIR
 10
0.0
 20
1.0
 30
0.0
  9
$USERI1
 70
     1
  9
$USERI2
 70
     0
  9
$USERI3
 70
     0
  9
$USERI4
 70
     0
  9
$USERI5
 70
     0
  9
$USERR1
 40
0.0
  9
$USERR2
 40
0.0
  9
$USERR3
 40
0.0
  9
$USERR4
 40
0.0
  9
$USERR5
 40
0.0
  9
$WORLDVIEW
 70
     1
  9
$SHADEDGE
 70
     3
  9
$SHADEDIF
 70
    70
  9
$TILEMODE
 70
     1
  9
$MAXACTVP
 70
    16
  9
$PLIMCHECK
 70
     0
  9
$PEXTMIN
 10
1.0000000000000000E+020
 20
1.0000000000000000E+020
 30
1.0000000000000000E+020
  9
$PEXTMAX
 10
-1.0000000000000000E+020
 20
-1.0000000000000000E+020
 30
-1.0000000000000000E+020
  9
$PLIMMIN
 10
0.0
 20
0.0
  9
$PLIMMAX
 10
420.0
 20
297.0
  9
$UNITMODE
 70
     0
  9
$VISRETAIN
 70
     1
  9
$PLINEGEN
 70
     0
  9
$PSLTSCALE
 70
     1
  0
ENDSEC
  0
SECTION
  2
TABLES
  0
TABLE
  2
VPORT
 70
     1
  0
VPORT
  2
*ACTIVE
 70
     0
 10
0.0
 20
0.0
 11
1.0
 21
1.0
 12
32.325470508638929
 22
18.068127968672648
 13
0.0
 23
0.0
 14
7.0
 24
7.0
 15
7.0
 25
7.0
 16
0.0
 26
0.0
 36
1.0
 17
0.0
 27
0.0
 37
0.0
 40
133.96286947975671
 41
1.3814102564102559
 42
50.0
 43
0.0
 44
0.0
 50
0.0
 51
0.0
 71
     0
 72
  2000
 73
     1
 74
     0
 75
     0
 76
     1
 77
     0
 78
     0
  0
ENDTAB
  0
TABLE
  2
LTYPE
 70
    16
  0
LTYPE
  2
CONTINUOUS
 70
     0
  3
Solid line
 72
    65
 73
     0
 40
0.0
  0
LTYPE
  2
CENTER2
 70
     0
  3
___ _ ___ _ ___ _ ___ _ ___ _ ___ _ ___ _ ___ _
 72
    65
 73
     4
 40
1.125
 49
0.75
 49
-0.125
 49
0.125
 49
-0.125
  0
LTYPE
  2
HIDDEN2
 70
     0
  3
_ _ _ _ _ _ _ _ _ _ _ _ _ _ _ _ _ _ _ _ _ _ _ _
 72
    65
 73
     2
 40
0.1875
 49
0.125
 49
-0.0625
  0
LTYPE
  2
PHANTOM2
 70
     0
  3
___ _ _ ___ _ _ ___ _ _ ___ _ _ ___ _ _ ___ _ _
 72
    65
 73
     6
 40
1.25
 49
0.625
 49
-0.125
 49
0.125
 49
-0.125
 49
0.125
 49
-0.125
  0
LTYPE
  2
CENTER
 70
     0
  3
____ _ ____ _ ____ _ ____ _ ____ _ ____ _ ____ 
 72
    65
 73
     4
 40
2.0
 49
1.25
 49
-0.25
 49
0.25
 49
-0.25
  0
LTYPE
  2
AMCONSTR
 70
     0
  3
_______________________
 72
    65
 73
     2
 40
9999.0
 49
9999.0
 49
0.0
  0
LTYPE
  2
HIDDEN
 70
     0
  3
Hidden __ __ __ __ __ __ __ __ __ __ __ __ __ _
 72
    65
 73
     2
 40
9.5249999999999986
 49
6.349999999999997
 49
-3.174999999999998
  0
LTYPE
  2
AMZIGZAG2
 70
     0
  3
/\/-/\/-/\/-/\/-/\/-/\/
 72
    65
 73
     2
 40
0.4401
 49
0.0001
 49
-0.4400000000000002
  0
LTYPE
  2
ACANSTGB
 70
     0
  3
__ . . __ . .
 72
    65
 73
     6
 40
0.35433070866
 49
0.15748031496
 49
-0.03937007874
 49
0.03937007874
 49
-0.03937007874
 49
0.03937007874
 49
-0.03937007874
  0
LTYPE
  2
ACANSTGL
 70
     0
  3
_ _ _ _ _
 72
    65
 73
     2
 40
0.11811023622
 49
0.07874015748
 49
-0.03937007874
  0
ENDTAB
  0
TABLE
  2
LAYER
 70
     8
  0
LAYER
  2
0
 70
     0
 62
     7
  6
CONTINUOUS
  0
LAYER
  2
240
 70
     0
 62
     4
  6
CONTINUOUS
  0
LAYER
  2
DEFPOINTS
 70
     0
 62
     7
  6
CONTINUOUS
  0
LAYER
  2
245
 70
     0
 62
     2
  6
CENTER2
  0
LAYER
  2
241
 70
     0
 62
   211
  6
CONTINUOUS
  0
LAYER
  2
244
 70
     0
 62
     3
  6
HIDDEN2
  0
LAYER
  2
250
 70
     0
 62
     3
  6
CONTINUOUS
  0
LAYER
  2
247
 70
     0
 62
    60
  6
CONTINUOUS
  0
ENDTAB
  0
TABLE
  2
STYLE
 70
     6
  0
STYLE
  2
STANDARD
 70
     0
 40
0.0
 41
1.0
 50
0.0
 71
     0
 42
3.0
  3
romans.shx
  4
extfont.shx
  0
STYLE
  2
YOKO
 70
     0
 40
0.0
 41
1.0
 50
0.0
 71
     0
 42
3.0
  3
romans.shx
  4
extfont.shx
  0
STYLE
  2
ACANSGDT
 70
     0
 40
0.0
 41
1.0
 50
0.0
 71
     0
 42
3.0
  3
amgdt.shx
  4

  0
ENDTAB
  0
TABLE
  2
VIEW
 70
     0
  0
ENDTAB
  0
TABLE
  2
UCS
 70
     0
  0
ENDTAB
  0
TABLE
  2
APPID
 70
    36
  0
APPID
  2
ACAD
 70
     0
  0
APPID
  2
ACADANNOTATIVE
 70
     0
  0
APPID
  2
GLOBAL
 70
     0
  0
APPID
  2
DETAIL
 70
     0
  0
APPID
  2
GRPNAME
 70
     0
  0
APPID
  2
GPARA
 70
     0
  0
APPID
  2
MCAD_NO_VIS
 70
     0
  0
APPID
  2
ACAD_TEMP_GRAPHIC
 70
     0
  0
APPID
  2
ACATTRIBSERVICES
 70
     0
  0
APPID
  2
GENIUS_GENSCREG_15
 70
     0
  0
APPID
  2
GENIUS_GENODEF_13
 70
     0
  0
APPID
  2
GENIUS_GENOBJ-N-SDF_13
 70
     0
  0
APPID
  2
GENIUS_GENREC_14
 70
     0
  0
APPID
  2
GENIUS_GENOBJ-N-REC_13
 70
     0
  0
APPID
  2
GENIUS_GENDIMSH_14
 70
     0
  0
APPID
  2
GENIUS_GENOBJ-N-DIM_13
 70
     0
  0
APPID
  2
GENIUS_GENDIM_13
 70
     0
  0
APPID
  2
GENIUS_GENDTOL_13
 70
     0
  0
APPID
  2
GENIUS_GENOLIS_13
 70
     0
  0
APPID
  2
GENIUS_GENOENT_13
 70
     0
  0
APPID
  2
GENIUS_GENOBJ-F-FEM_13
 70
     0
  0
APPID
  2
GENIUS_GENOREF_13
 70
     0
  0
APPID
  2
GENIUS_GEFFEM_13
 70
     0
  0
APPID
  2
GENIUS_GEFFEMP_13
 70
     0
  0
APPID
  2
AD_DRAW
 70
     0
  0
APPID
  2
DESIGNERASSEMBLIES
 70
     0
  0
APPID
  2
ACADM_DIM_EDIT
 70
     0
  0
APPID
  2
AMDT_DM_ADJ
 70
     0
  0
APPID
  2
HATCH_TYPE
 70
     0
  0
APPID
  2
HATCH_DISPLAY
 70
     0
  0
APPID
  2
HATCH_DISTANCE
 70
     0
  0
APPID
  2
ACAD_DSTYLE_DIMJAG
 70
     0
  0
APPID
  2
ACAD_DSTYLE_DIMBREAK
 70
     0
  0
APPID
  2
ACAD_NAV_VCDISPLAY
 70
     0
  0
APPID
  2
GENIUS_GENOBJ-N-FIL_13
 70
     0
  0
APPID
  2
ACAD_MLEADERVER
 70
     0
  0
ENDTAB
  0
TABLE
  2
DIMSTYLE
 70
     9
  0
DIMSTYLE
  2
STANDARD
 70
     0
  3

  4

  5

  6

  7

 40
1.0
 41
0.18
 42
0.0625
 43
0.38
 44
0.18
 45
0.0
 46
0.0
 47
0.0
 48
0.0
140
0.18
141
0.09
142
0.0
143
25.399999999999999
144
1.0
145
0.0
146
1.0
147
0.09
 71
     0
 72
     0
 73
     1
 74
     1
 75
     0
 76
     0
 77
     0
 78
     0
170
     0
171
     2
172
     0
173
     0
174
     0
175
     0
176
     0
177
     0
178
     0
  0
DIMSTYLE
  2
BIGT
 70
     0
  3

  4

  5

  6

  7

 40
1.0
 41
2.2299999999999991
 42
0.5
 43
7.0
 44
1.0
 45
0.0
 46
0.0
 47
0.0
 48
0.01
140
2.799999999999998
141
0.0
142
0.0
143
25.399999999999999
144
1.0
145
0.0
146
1.0
147
1.0
 71
     0
 72
     0
 73
     0
 74
     0
 75
     0
 76
     0
 77
     3
 78
     9
170
     0
171
     2
172
     1
173
     0
174
     1
175
     0
176
   256
177
   256
178
    40
  0
DIMSTYLE
  2
AM_ANSI
 70
     0
  3

  4
mm
  5

  6

  7

 40
1.0
 41
0.12
 42
0.05
 43
0.5
 44
0.1
 45
0.0
 46
0.0
 47
0.1
 48
0.1
140
0.12
141
0.0
142
0.0
143
25.399999999999999
144
1.0
145
0.0
146
0.71
147
0.06
 71
     0
 72
     0
 73
     1
 74
     1
 75
     0
 76
     0
 77
     0
 78
     7
170
     0
171
     2
172
     0
173
     0
174
     0
175
     0
176
   256
177
   256
178
     2
  0
DIMSTYLE
  2
AM_ANSI$3
 70
     0
  3

  4
mm
  5

  6

  7

 40
1.0
 41
0.12
 42
0.05
 43
0.5
 44
0.1
 45
0.0
 46
0.0
 47
0.1
 48
0.1
140
0.12
141
0.0
142
0.0
143
25.399999999999999
144
1.0
145
0.0
146
0.71
147
0.06
 71
     0
 72
     0
 73
     1
 74
     1
 75
     0
 76
     0
 77
     0
 78
     7
170
     0
171
     2
172
     0
173
     0
174
     0
175
     0
176
   256
177
   256
178
     2
  0
DIMSTYLE
  2
AM_ANSI$4
 70
     0
  3

  4
mm
  5

  6

  7

 40
1.0
 41
0.12
 42
0.05
 43
0.5
 44
0.1
 45
0.0
 46
0.0
 47
0.1
 48
0.1
140
0.12
141
0.0
142
0.0
143
25.399999999999999
144
1.0
145
0.0
146
0.71
147
0.06
 71
     0
 72
     0
 73
     1
 74
     1
 75
     0
 76
     0
 77
     0
 78
     7
170
     0
171
     2
172
     0
173
     0
174
     0
175
     0
176
   256
177
   256
178
     2
  0
DIMSTYLE
  2
AM_ANSI$7
 70
     0
  3

  4
mm
  5

  6

  7

 40
1.0
 41
0.12
 42
0.05
 43
0.5
 44
0.1
 45
0.0
 46
0.0
 47
0.1
 48
0.1
140
0.12
141
0.0
142
0.0
143
25.399999999999999
144
1.0
145
0.0
146
0.71
147
0.06
 71
     0
 72
     0
 73
     1
 74
     1
 75
     0
 76
     0
 77
     0
 78
     7
170
     0
171
     2
172
     0
173
     0
174
     0
175
     0
176
   256
177
   256
178
     2
  0
DIMSTYLE
  2
AM_ANSI$SF
 70
     0
  3

  4
mm
  5

  6

  7

 40
1.0
 41
0.12
 42
0.05
 43
0.5
 44
0.1
 45
0.0
 46
0.0
 47
0.1
 48
0.1
140
0.12
141
0.0
142
0.0
143
25.399999999999999
144
1.0
145
0.0
146
0.71
147
0.06
 71
     0
 72
     0
 73
     1
 74
     1
 75
     1
 76
     1
 77
     0
 78
     7
170
     0
171
     2
172
     0
173
     0
174
     0
175
     0
176
   256
177
   256
178
     2
  0
DIMSTYLE
  2
AM_ANSI$SH
 70
     0
  3

  4
mm
  5

  6

  7

 40
1.0
 41
0.12
 42
0.05
 43
0.5
 44
0.1
 45
0.0
 46
0.0
 47
0.1
 48
0.1
140
0.12
141
0.0
142
0.0
143
25.399999999999999
144
1.0
145
0.0
146
0.71
147
0.06
 71
     0
 72
     0
 73
     1
 74
     1
 75
     1
 76
     1
 77
     0
 78
     7
170
     0
171
     2
172
     0
173
     1
174
     0
175
     0
176
   256
177
   256
178
     2
  0
ENDTAB
  0
ENDSEC
  0
SECTION
  2
BLOCKS
  0
BLOCK
  8
0
  2
$MODEL_SPACE
 70
     0
 10
0.0
 20
0.0
 30
0.0
  3
$MODEL_SPACE
  1

  0
ENDBLK
  5
1D47
  8
0
  0
BLOCK
 67
     1
  8
0
  2
$PAPER_SPACE
 70
     0
 10
0.0
 20
0.0
 30
0.0
  3
$PAPER_SPACE
  1

  0
ENDBLK
  5
1D43
 67
     1
  8
0
  0
BLOCK
  8
0
  2
_OPEN
 70
     0
 10
0.0
 20
0.0
 30
0.0
  3
_OPEN
  1

  0
LINE
  5
1A92
  8
0
  6
BYBLOCK
 62
     0
 10
-1.0
 20
0.1666666666666666
 30
0.0
 11
0.0
 21
0.0
 31
0.0
  0
LINE
  5
1A93
  8
0
  6
BYBLOCK
 62
     0
 10
-1.0
 20
-0.1666666666666666
 30
0.0
 11
0.0
 21
0.0
 31
0.0
  0
LINE
  5
1A94
  8
0
  6
BYBLOCK
 62
     0
 10
0.0
 20
0.0
 30
0.0
 11
-1.0
 21
0.0
 31
0.0
  0
ENDBLK
  5
1A95
  8
0
  0
BLOCK
  8
0
  2
_ACMFILLEDHALF
 70
     0
 10
0.0
 20
0.0
 30
0.0
  3
_ACMFILLEDHALF
  1

  0
TRACE
  5
1C27
  8
240
 62
     0
 10
-0.8
 20
0.0
 30
0.0
 11
-1.0
 21
0.166666666
 31
0.0
 12
0.0
 22
0.0
 32
0.0
 13
0.0
 23
0.0
 33
0.0
  0
LINE
  5
1C28
  8
240
 62
     0
 10
-1.0
 20
0.0
 30
0.0
 11
-0.8
 21
0.0
 31
0.0
  0
ENDBLK
  5
1C26
  8
0
  0
ENDSEC
  0
SECTION
  2
ENTITIES
  0
LINE
  5
14A8
  8
240
  6
CONTINUOUS
 10
33.50000000000005
 20
-23.034747812637011
 30
0.0
 11
38.500000000000007
 21
-23.034747812637011
 31
0.0
  0
LINE
  5
1548
  8
240
  6
CONTINUOUS
 10
17.000000476837151
 20
25.0
 30
0.0
 11
15.0
 21
22.999999523162838
 31
0.0
  0
LINE
  5
1549
  8
240
  6
CONTINUOUS
 10
15.0
 20
23.0
 30
0.0
 11
0.0
 21
23.0
 31
0.0
  0
LINE
  5
1598
  8
240
  6
CONTINUOUS
 10
0.0
 20
23.0
 30
0.0
 11
0.0
 21
-23.0
 31
0.0
  0
LINE
  5
1599
  8
240
  6
CONTINUOUS
 10
0.0
 20
-23.000000000000021
 30
0.0
 11
17.64322686740439
 21
-23.000000000000021
 31
0.0
  0
LINE
  5
15B5
  8
240
  6
CONTINUOUS
 10
19.000355217602461
 20
-20.650000000000009
 30
0.0
 11
19.599999999999991
 21
-20.650000000000009
 31
0.0
  0
LINE
  5
15B6
  8
240
  6
CONTINUOUS
 10
51.000000000000021
 20
20.0
 30
0.0
 11
51.000000000000021
 21
-20.65000057220459
 31
0.0
  0
LINE
  5
15B7
  8
240
  6
CONTINUOUS
 10
51.000000000000021
 20
-20.65000057220459
 30
0.0
 11
47.399997864503433
 21
-20.65000057220459
 31
0.0
  0
LINE
  5
15B8
  8
240
  6
CONTINUOUS
 10
28.500000000000028
 20
-23.034747812637011
 30
0.0
 11
33.50000000000005
 21
-23.034747812637011
 31
0.0
  0
LINE
  5
15BA
  8
240
  6
CONTINUOUS
 10
38.500000000000007
 20
-23.034747812637011
 30
0.0
 11
47.399997864503433
 21
-20.65000057220459
 31
0.0
  0
ARC
  5
15BB
  8
240
  6
CONTINUOUS
 10
46.958548115672571
 20
23.0
 30
0.0
 40
2.0
 50
29.999999999999719
 51
90.0
  0
LINE
  5
15BC
  8
240
  6
CONTINUOUS
 10
51.000000000000021
 20
20.0
 30
0.0
 11
48.69059892324146
 21
24.0
 31
0.0
  0
LINE
  5
15BE
  8
240
  6
CONTINUOUS
 10
20.999999988442429
 20
25.0
 30
0.0
 11
17.0
 21
25.0
 31
0.0
  0
LINE
  5
15C0
  8
240
  6
CONTINUOUS
 10
28.500000000000028
 20
-23.034747812637011
 30
0.0
 11
19.599999999999991
 21
-20.650000000000009
 31
0.0
  0
LINE
  5
15C1
  8
245
  6
CENTER2
 10
-1.637625007965539
 20
0.0
 30
0.0
 11
53.167178919417672
 21
0.0
 31
0.0
  0
ARC
  5
15C2
  8
240
  6
CONTINUOUS
 10
33.4999999720524
 20
46.650643255343219
 30
0.0
 40
25.000007059206769
 50
240.00000938403841
 51
299.99999061596168
  0
LINE
  5
15C3
  8
240
  6
CONTINUOUS
 10
46.958548115672571
 20
25.0
 30
0.0
 11
45.999999955662346
 21
25.000000000000011
 31
0.0
  0
LINE
  5
15C4
  8
240
  6
CONTINUOUS
 10
17.64322686740439
 20
-23.000000000000021
 30
0.0
 11
19.000355217602461
 21
-20.650000000000009
 31
0.0
  0
LINE
  5
15CE
  8
241
  6
CONTINUOUS
 10
19.599999999999991
 20
-20.650000000000009
 30
0.0
 11
47.399997864503433
 21
-20.65000057220459
 31
0.0
  0
LINE
  5
1653
  8
244
  6
HIDDEN2
 10
0.0
 20
-20.0
 30
0.0
 11
15.0
 21
-20.0
 31
0.0
  0
LINE
  5
165A
  8
244
  6
HIDDEN2
 10
0.0
 20
20.0
 30
0.0
 11
15.0
 21
20.0
 31
0.0
  0
LINE
  5
1679
  8
244
  6
HIDDEN2
 10
22.43216653040793
 20
-6.0
 30
0.0
 11
51.000000000000021
 21
-6.0
 31
0.0
  0
LINE
  5
167F
  8
244
  6
HIDDEN2
 10
22.43216653040793
 20
6.0
 30
0.0
 11
51.000000000000021
 21
6.0
 31
0.0
  0
TEXT
  5
1759
  8
241
  6
CONTINUOUS
 10
-14.0
 20
56.0
 30
0.0
 40
4.0
  1
EWN2-32ER32
  7
YOKO
  0
LINE
  5
175A
  8
250
  6
CONTINUOUS
 10
0.0
 20
23.5
 30
0.0
 11
0.0000000000000012
 21
43.0
 31
0.0
  0
LINE
  5
175B
  8
250
  6
CONTINUOUS
 10
51.000000000000021
 20
20.5
 30
0.0
 11
51.000000000000021
 21
43.0
 31
0.0
  0
LINE
  5
175C
  8
250
  6
CONTINUOUS
 10
2.2299999999999991
 20
42.0
 30
0.0
 11
48.770000000000032
 21
42.0
 31
0.0
  0
LINE
  5
1760
  8
250
  6
CONTINUOUS
 10
16.5
 20
25.0
 30
0.0
 11
-20.000000000000028
 21
25.000000000000011
 31
0.0
  0
LINE
  5
1761
  8
250
  6
CONTINUOUS
 10
-19.000000000000021
 20
22.77000000000001
 30
0.0
 11
-19.000000000000021
 21
-4.5333333333333243
 31
0.0
  0
LINE
  5
1764
  8
250
  6
CONTINUOUS
 10
-0.5
 20
20.0
 30
0.0
 11
-13.0
 21
20.0
 31
0.0
  0
LINE
  5
1765
  8
250
  6
CONTINUOUS
 10
-0.5
 20
-20.0
 30
0.0
 11
-13.000000000000011
 21
-20.0
 31
0.0
  0
LINE
  5
1766
  8
250
  6
CONTINUOUS
 10
-12.0
 20
17.77
 30
0.0
 11
-12.000000000000011
 21
-17.769999999999989
 31
0.0
  0
LINE
  5
176A
  8
250
  6
CONTINUOUS
 10
51.500000000000021
 20
6.0
 30
0.0
 11
64.000000000000014
 21
5.9999999999999938
 31
0.0
  0
LINE
  5
176B
  8
250
  6
CONTINUOUS
 10
51.500000000000021
 20
-6.0
 30
0.0
 11
64.000000000000014
 21
-6.0000000000000009
 31
0.0
  0
LINE
  5
176C
  8
250
  6
CONTINUOUS
 10
63.000000000000021
 20
3.769999999999996
 30
0.0
 11
63.000000000000021
 21
-3.7700000000000031
 31
0.0
  0
TEXT
  5
1770
  8
250
  6
CONTINUOUS
 10
23.233333333333348
 20
43.0
 30
0.0
 40
2.799999999999998
  1
51
  0
LINE
  5
1771
  8
250
  6
CONTINUOUS
 10
48.770000000000032
 20
42.371666666666663
 30
0.0
 11
51.000000000000021
 21
42.0
 31
0.0
  0
LINE
  5
1772
  8
250
  6
CONTINUOUS
 10
48.770000000000032
 20
41.62833333333333
 30
0.0
 11
51.000000000000021
 21
42.0
 31
0.0
  0
LINE
  5
1773
  8
250
  6
CONTINUOUS
 10
51.000000000000021
 20
42.0
 30
0.0
 11
48.770000000000032
 21
42.0
 31
0.0
  0
LINE
  5
1774
  8
250
  6
CONTINUOUS
 10
2.2299999999999991
 20
41.62833333333333
 30
0.0
 11
0.0000000000000012
 21
42.0
 31
0.0
  0
LINE
  5
1775
  8
250
  6
CONTINUOUS
 10
2.2299999999999991
 20
42.371666666666663
 30
0.0
 11
0.0000000000000012
 21
42.0
 31
0.0
  0
LINE
  5
1776
  8
250
  6
CONTINUOUS
 10
0.0000000000000012
 20
42.0
 30
0.0
 11
2.2299999999999991
 21
42.0
 31
0.0
  0
TEXT
  5
1777
  8
250
  6
CONTINUOUS
 10
-20.000000000000028
 20
-3.7999999999999918
 30
0.0
 40
2.799999999999998
  1
\U+220550
 50
90.0
  0
LINE
  5
1778
  8
250
  6
CONTINUOUS
 10
-19.371666666666691
 20
22.77000000000001
 30
0.0
 11
-19.000000000000021
 21
25.000000000000011
 31
0.0
  0
LINE
  5
1779
  8
250
  6
CONTINUOUS
 10
-18.628333333333359
 20
22.77000000000001
 30
0.0
 11
-19.000000000000021
 21
25.000000000000011
 31
0.0
  0
LINE
  5
177A
  8
250
  6
CONTINUOUS
 10
-19.000000000000021
 20
25.000000000000011
 30
0.0
 11
-19.000000000000021
 21
22.77000000000001
 31
0.0
  0
TEXT
  5
177B
  8
250
  6
CONTINUOUS
 10
-13.0
 20
-10.679999999999991
 30
0.0
 40
2.799999999999998
  1
M40 X 1.5
 50
90.0
  0
LINE
  5
177C
  8
250
  6
CONTINUOUS
 10
-11.628333333333339
 20
-17.769999999999989
 30
0.0
 11
-12.000000000000011
 21
-20.0
 31
0.0
  0
LINE
  5
177D
  8
250
  6
CONTINUOUS
 10
-12.37166666666668
 20
-17.769999999999989
 30
0.0
 11
-12.000000000000011
 21
-20.0
 31
0.0
  0
LINE
  5
177E
  8
250
  6
CONTINUOUS
 10
-12.000000000000011
 20
-20.0
 30
0.0
 11
-12.000000000000011
 21
-17.769999999999989
 31
0.0
  0
LINE
  5
177F
  8
250
  6
CONTINUOUS
 10
-12.37166666666667
 20
17.77
 30
0.0
 11
-12.0
 21
20.0
 31
0.0
  0
LINE
  5
1780
  8
250
  6
CONTINUOUS
 10
-11.628333333333339
 20
17.77
 30
0.0
 11
-12.0
 21
20.0
 31
0.0
  0
LINE
  5
1781
  8
250
  6
CONTINUOUS
 10
-12.0
 20
20.0
 30
0.0
 11
-12.0
 21
17.77
 31
0.0
  0
TEXT
  5
1782
  8
250
  6
CONTINUOUS
 10
62.000000000000021
 20
-3.7999999999999901
 30
0.0
 40
2.799999999999998
  1
\U+220512
 50
90.0
  0
LINE
  5
1783
  8
250
  6
CONTINUOUS
 10
63.371666666666698
 20
-3.7700000000000031
 30
0.0
 11
63.000000000000021
 21
-6.0000000000000009
 31
0.0
  0
LINE
  5
1784
  8
250
  6
CONTINUOUS
 10
62.628333333333359
 20
-3.7700000000000031
 30
0.0
 11
63.000000000000021
 21
-6.0000000000000009
 31
0.0
  0
LINE
  5
1785
  8
250
  6
CONTINUOUS
 10
63.000000000000021
 20
-6.0000000000000009
 30
0.0
 11
63.000000000000021
 21
-3.7700000000000031
 31
0.0
  0
LINE
  5
1786
  8
250
  6
CONTINUOUS
 10
62.628333333333359
 20
3.769999999999996
 30
0.0
 11
63.000000000000021
 21
5.9999999999999938
 31
0.0
  0
LINE
  5
1787
  8
250
  6
CONTINUOUS
 10
63.371666666666698
 20
3.769999999999996
 30
0.0
 11
63.000000000000021
 21
5.9999999999999938
 31
0.0
  0
LINE
  5
1788
  8
250
  6
CONTINUOUS
 10
63.000000000000021
 20
5.9999999999999938
 30
0.0
 11
63.000000000000021
 21
3.769999999999996
 31
0.0
  0
LINE
  5
1C65
  8
247
  6
CONTINUOUS
 10
8.0
 20
-16.25000000007002
 30
0.0
 11
8.0
 21
-9.5576923080300151
 31
0.0
  0
ARC
  5
1C66
  8
247
  6
CONTINUOUS
 10
6.2500000000699991
 20
-16.25000000007002
 30
0.0
 40
1.7499999999299991
 50
180.0
 51
0.0
  0
ARC
  5
1C67
  8
247
  6
CONTINUOUS
 10
6.2500000000699991
 20
-9.5576923080300151
 30
0.0
 40
1.7499999999299991
 50
0.0
 51
180.0
  0
LINE
  5
1C68
  8
247
  6
CONTINUOUS
 10
4.50000000014
 20
-15.38461538472002
 30
0.0
 11
7.5000000000200009
 21
-16.244851541962031
 31
0.0
  0
LINE
  5
1C69
  8
247
  6
CONTINUOUS
 10
5.92307692316
 20
-14.48498381833584
 30
0.0
 11
5.92307692316
 21
-15.79267612597584
 31
0.0
  0
ARC
  5
1C6A
  8
247
  6
CONTINUOUS
 10
5.0495986677029761
 20
-14.145143816089799
 30
0.0
 40
0.5538165441895349
 50
72.99788967529156
 51
172.92416621851231
  0
ARC
  5
1C6B
  8
247
  6
CONTINUOUS
 10
4.9360330444657761
 20
-14.566878323028799
 30
0.0
 40
0.9904354236226808
 50
4.7429368522014004
 51
73.849226273267703
1001
GENIUS_GENOBJ-N-FIL_13
1002
{
1000
OWNER
1000
GEN
1002
}
1001
GENIUS_GENODEF_13
1002
{
1000
HIER
1070
     0
1002
}
1002
{
1000
MANEDIT
1070
     0
1002
}
1002
{
1000
NOSEL
1070
     0
1002
}
1002
{
1000
BEHIND
1070
     0
1002
}
1002
{
1000
OTHER
1070
     0
1002
}
1002
{
1000
REACTOR
1002
}
  0
LINE
  5
1C6C
  8
247
  6
CONTINUOUS
 10
7.5000000000199982
 20
-14.937159234322021
 30
0.0
 11
7.5000000000199982
 21
-16.244851541962031
 31
0.0
  0
LINE
  5
1C6D
  8
247
  6
CONTINUOUS
 10
4.50000000014
 20
-15.38461538472002
 30
0.0
 11
4.50000000014
 21
-14.07692307708002
 31
0.0
  0
ARC
  5
1C6E
  8
247
  6
CONTINUOUS
 10
6.4820242326655553
 20
-14.56091963654699
 30
0.0
 40
0.5640818586791229
 50
65.990941652530594
 51
172.26344345906949
  0
ARC
  5
1C6F
  8
247
  6
CONTINUOUS
 10
6.4874290391865888
 20
-15.038262685347091
 30
0.0
 40
1.0176059446230981
 50
5.7019851642579331
 51
77.277338436820941
1001
GENIUS_GENOBJ-N-FIL_13
1002
{
1000
OWNER
1000
GEN
1002
}
1001
GENIUS_GENODEF_13
1002
{
1000
HIER
1070
     0
1002
}
1002
{
1000
MANEDIT
1070
     0
1002
}
1002
{
1000
NOSEL
1070
     0
1002
}
1002
{
1000
BEHIND
1070
     0
1002
}
1002
{
1000
OTHER
1070
     0
1002
}
1002
{
1000
REACTOR
1002
}
  0
LINE
  5
1C70
  8
247
  6
CONTINUOUS
 10
7.5000000000200009
 20
-13.28331308054203
 30
0.0
 11
4.50000000014
 21
-12.42307692330002
 31
0.0
  0
LINE
  5
1C71
  8
247
  6
CONTINUOUS
 10
4.5000000001400018
 20
-10.000000000320011
 30
0.0
 11
4.5000000001400018
 21
-10.56573661945661
 31
0.0
  0
LINE
  5
1C72
  8
247
  6
CONTINUOUS
 10
7.5000000000199982
 20
-11.46153846180002
 30
0.0
 11
7.5000000000199982
 21
-10.84615384644002
 31
0.0
  0
ARC
  5
1C73
  8
247
  6
CONTINUOUS
 10
6.5832851359733819
 20
-9.7087912091228752
 30
0.0
 40
2.2526500823422122
 50
202.3594881415269
 51
254.9932485428466
  0
ARC
  5
1C74
  8
247
  6
CONTINUOUS
 10
5.3083126551945181
 20
-10.37406947921324
 30
0.0
 40
0.8906723995727782
 50
94.994589319075175
 51
155.16632895730359
1001
GENIUS_GENOBJ-N-FIL_13
1002
{
1000
OWNER
1000
GEN
1002
}
1001
GENIUS_GENODEF_13
1002
{
1000
HIER
1070
     0
1002
}
1002
{
1000
MANEDIT
1070
     0
1002
}
1002
{
1000
NOSEL
1070
     0
1002
}
1002
{
1000
BEHIND
1070
     0
1002
}
1002
{
1000
OTHER
1070
     0
1002
}
1002
{
1000
REACTOR
1002
}
  0
ARC
  5
1C75
  8
247
  6
CONTINUOUS
 10
6.160145888667758
 20
-11.226458886212599
 30
0.0
 40
1.392781735586712
 50
15.84609655577923
 51
82.325137004170557
  0
ARC
  5
1C76
  8
247
  6
CONTINUOUS
 10
6.4592434315272866
 20
-10.64221272584038
 30
0.0
 40
1.324563662670287
 50
249.71360167049809
 51
321.78874565640768
1001
GENIUS_GENOBJ-N-FIL_13
1002
{
1000
OWNER
1000
GEN
1002
}
1001
GENIUS_GENODEF_13
1002
{
1000
HIER
1070
     0
1002
}
1002
{
1000
MANEDIT
1070
     0
1002
}
1002
{
1000
NOSEL
1070
     0
1002
}
1002
{
1000
BEHIND
1070
     0
1002
}
1002
{
1000
OTHER
1070
     0
1002
}
1002
{
1000
REACTOR
1002
}
  0
LINE
  5
1C77
  8
247
  6
CONTINUOUS
 10
6.34615384622
 20
-10.53846153876002
 30
0.0
 11
6.34615384622
 21
-9.846153846480016
 31
0.0
  0
LINE
  5
1C78
  8
247
  6
CONTINUOUS
 10
4.50000000014
 20
-16.25000000007001
 30
0.0
 11
4.50000000014
 21
-15.57692307702002
 31
0.0
  0
VIEWPORT
  5
22
 67
     1
  8
0
 10
261.51769911504419
 20
148.5
 30
0.0
 40
523.0353982300885
 41
297.0
 68
     1
 69
     1
1001
ACAD
1000
MVIEW
1002
{
1070
    16
1010
0.0
1020
0.0
1030
0.0
1010
0.0
1020
0.0
1030
1.0
1040
0.0
1040
297.0
1040
261.51769911504419
1040
148.5
1040
50.0
1040
0.0
1040
0.0
1070
     0
1070
   100
1070
     1
1070
     1
1070
     0
1070
     0
1070
     0
1070
     0
1040
0.0
1040
0.0
1040
0.0
1040
1.0
1040
1.0
1040
10.0
1040
10.0
1070
     0
1002
{
1002
}
1002
}
1001
GENIUS_GENODEF_13
1002
{
1000
HIER
1070
     0
1002
}
1002
{
1000
MANEDIT
1070
     0
1002
}
1002
{
1000
NOSEL
1070
     0
1002
}
1002
{
1000
BEHIND
1070
     0
1002
}
1002
{
1000
OTHER
1070
     0
1002
}
1002
{
1000
REACTOR
1002
}
1001
GENIUS_GENOBJ-N-SDF_13
1002
{
1000
OWNER
1000
GEN
1002
}
1001
GENIUS_GENSCREG_15
1000
PF
1040
1.0
1000
DF
1040
1.0
1000
MIN
1011
0.0
1021
0.0
1031
0.0
1021
0.0
1031
0.0
1000
MAX
1011
523.0353982300885
1021
0.0
1031
0.0
1021
297.0
1031
0.0
1000
FLAGS
1070
     4
  0
ENDSEC
  0
EOF
