  0
SECTION
  2
HEADER
  9
$ACADVER
  1
AC1009
  9
$INSBASE
 10
0.0
 20
0.0
 30
0.0
  9
$EXTMIN
 10
-43.397129550940569
 20
-28.593714274512539
 30
-0.0000000349181948
  9
$EXTMAX
 10
50.014972899298407
 20
61.018179270826117
 30
0.0000000814935747
  9
$LIMMIN
 10
0.0
 20
0.0
  9
$LIMMAX
 10
297.0
 20
210.0
  9
$ORTHOMODE
 70
     1
  9
$REGENMODE
 70
     1
  9
$FILLMODE
 70
     1
  9
$QTEXTMODE
 70
     0
  9
$MIRRTEXT
 70
     1
  9
$DRAGMODE
 70
     2
  9
$LTSCALE
 40
10.0
  9
$OSMODE
 70
  3071
  9
$ATTMODE
 70
     1
  9
$TEXTSIZE
 40
3.0
  9
$TRACEWID
 40
1.0
  9
$TEXTSTYLE
  7
YOKO
  9
$CLAYER
  8
240
  9
$CELTYPE
  6
BYLAYER
  9
$CECOLOR
 62
   256
  9
$DIMSCALE
 40
1.0
  9
$DIMASZ
 40
2.2299999999999991
  9
$DIMEXO
 40
0.5
  9
$DIMDLI
 40
2.5
  9
$DIMRND
 40
0.0
  9
$DIMDLE
 40
0.0
  9
$DIMEXE
 40
1.0
  9
$DIMTP
 40
0.0
  9
$DIMTM
 40
0.0
  9
$DIMTXT
 40
3.0
  9
$DIMCEN
 40
0.0
  9
$DIMTSZ
 40
0.0
  9
$DIMTOL
 70
     0
  9
$DIMLIM
 70
     0
  9
$DIMTIH
 70
     0
  9
$DIMTOH
 70
     0
  9
$DIMSE1
 70
     0
  9
$DIMSE2
 70
     0
  9
$DIMTAD
 70
     3
  9
$DIMZIN
 70
     8
  9
$DIMBLK
  1
OPEN
  9
$DIMASO
 70
     1
  9
$DIMSHO
 70
     1
  9
$DIMPOST
  1

  9
$DIMAPOST
  1

  9
$DIMALT
 70
     0
  9
$DIMALTD
 70
     2
  9
$DIMALTF
 40
25.399999999999999
  9
$DIMLFAC
 40
1.0
  9
$DIMTOFL
 70
     1
  9
$DIMTVP
 40
0.0
  9
$DIMTIX
 70
     0
  9
$DIMSOXD
 70
     0
  9
$DIMSAH
 70
     0
  9
$DIMBLK1
  1

  9
$DIMBLK2
  1

  9
$DIMSTYLE
  2
BIGT
  9
$DIMCLRD
 70
   256
  9
$DIMCLRE
 70
   256
  9
$DIMCLRT
 70
    40
  9
$DIMTFAC
 40
1.0
  9
$DIMGAP
 40
1.0
  9
$LUNITS
 70
     2
  9
$LUPREC
 70
     2
  9
$SKETCHINC
 40
1.0
  9
$FILLETRAD
 40
0.0
  9
$AUNITS
 70
     0
  9
$AUPREC
 70
     3
  9
$MENU
  1
.
  9
$ELEVATION
 40
0.0
  9
$PELEVATION
 40
0.0
  9
$THICKNESS
 40
0.0
  9
$LIMCHECK
 70
     0
  9
$BLIPMODE
 70
     0
  9
$CHAMFERA
 40
10.0
  9
$CHAMFERB
 40
10.0
  9
$SKPOLY
 70
     0
  9
$TDCREATE
 40
2452418.3883637148
  9
$TDUPDATE
 40
2457367.7573080091
  9
$TDINDWG
 40
0.0314126389
  9
$TDUSRTIMER
 40
0.0314124421
  9
$USRTIMER
 70
     1
  9
$ANGBASE
 50
0.0
  9
$ANGDIR
 70
     0
  9
$PDMODE
 70
    35
  9
$PDSIZE
 40
-5.0
  9
$PLINEWID
 40
0.0
  9
$COORDS
 70
     1
  9
$SPLFRAME
 70
     0
  9
$SPLINETYPE
 70
     6
  9
$SPLINESEGS
 70
     8
  9
$ATTDIA
 70
     1
  9
$ATTREQ
 70
     1
  9
$HANDLING
 70
     1
  9
$HANDSEED
  5
D44
  9
$SURFTAB1
 70
     6
  9
$SURFTAB2
 70
     6
  9
$SURFTYPE
 70
     6
  9
$SURFU
 70
     6
  9
$SURFV
 70
     6
  9
$UCSNAME
  2

  9
$UCSORG
 10
0.0
 20
0.0
 30
0.0
  9
$UCSXDIR
 10
1.0
 20
0.0
 30
0.0
  9
$UCSYDIR
 10
0.0
 20
1.0
 30
0.0
  9
$PUCSNAME
  2

  9
$PUCSORG
 10
0.0
 20
0.0
 30
0.0
  9
$PUCSXDIR
 10
1.0
 20
0.0
 30
0.0
  9
$PUCSYDIR
 10
0.0
 20
1.0
 30
0.0
  9
$USERI1
 70
     1
  9
$USERI2
 70
     0
  9
$USERI3
 70
     0
  9
$USERI4
 70
     0
  9
$USERI5
 70
     0
  9
$USERR1
 40
0.0
  9
$USERR2
 40
0.0
  9
$USERR3
 40
0.0
  9
$USERR4
 40
0.0
  9
$USERR5
 40
0.0
  9
$WORLDVIEW
 70
     1
  9
$SHADEDGE
 70
     3
  9
$SHADEDIF
 70
    70
  9
$TILEMODE
 70
     1
  9
$MAXACTVP
 70
    16
  9
$PLIMCHECK
 70
     0
  9
$PEXTMIN
 10
1.0000000000000000E+020
 20
1.0000000000000000E+020
 30
1.0000000000000000E+020
  9
$PEXTMAX
 10
-1.0000000000000000E+020
 20
-1.0000000000000000E+020
 30
-1.0000000000000000E+020
  9
$PLIMMIN
 10
0.0
 20
0.0
  9
$PLIMMAX
 10
420.0
 20
297.0
  9
$UNITMODE
 70
     0
  9
$VISRETAIN
 70
     0
  9
$PLINEGEN
 70
     0
  9
$PSLTSCALE
 70
     1
  0
ENDSEC
  0
SECTION
  2
TABLES
  0
TABLE
  2
VPORT
 70
     1
  0
VPORT
  2
*ACTIVE
 70
     0
 10
0.0
 20
0.0
 11
1.0
 21
1.0
 12
6.820129513801489
 22
10.438789869030259
 13
0.0
 23
0.0
 14
7.0
 24
7.0
 15
7.0
 25
7.0
 16
0.0
 26
0.0
 36
1.0
 17
0.0
 27
0.0
 37
0.0
 40
145.0952779365081
 41
1.3814102564102559
 42
50.0
 43
0.0
 44
0.0
 50
0.0
 51
0.0
 71
     0
 72
  2000
 73
     1
 74
     0
 75
     0
 76
     1
 77
     0
 78
     0
  0
ENDTAB
  0
TABLE
  2
LTYPE
 70
    22
  0
LTYPE
  2
CONTINUOUS
 70
     0
  3
Solid line
 72
    65
 73
     0
 40
0.0
  0
LTYPE
  2
CENTER2
 70
     0
  3
___ _ ___ _ ___ _ ___ _ ___ _ ___ _ ___ _ ___ _
 72
    65
 73
     4
 40
1.125
 49
0.75
 49
-0.125
 49
0.125
 49
-0.125
  0
LTYPE
  2
HIDDEN2
 70
     0
  3
_ _ _ _ _ _ _ _ _ _ _ _ _ _ _ _ _ _ _ _ _ _ _ _
 72
    65
 73
     2
 40
0.1875
 49
0.125
 49
-0.0625
  0
LTYPE
  2
HIDDEN
 70
     0
  3
Hidden __ __ __ __ __ __ __ __ __ __ __ __ __ _
 72
    65
 73
     2
 40
9.5249999999999986
 49
6.3499999999999979
 49
-3.174999999999998
  0
LTYPE
  2
PHANTOM2
 70
     0
  3
Phantom (.5x) ___ _ _ ___ _ _ ___ _ _ ___ _ _
 72
    65
 73
     6
 40
31.75
 49
15.875
 49
-3.174999999999998
 49
3.174999999999998
 49
-3.174999999999998
 49
3.174999999999998
 49
-3.174999999999998
  0
LTYPE
  2
CENTER
 70
     0
  3
Center ____ _ ____ _ ____ _ ____ _ ____ _ ____
 72
    65
 73
     4
 40
50.799999999999997
 49
31.75
 49
-6.3499999999999979
 49
6.3499999999999979
 49
-6.3499999999999979
  0
LTYPE
  2
AM_ISO02W050
 70
     0
  3
__ __ __ __ __ __ __ __ __ __ __ __ __ __ __
 72
    65
 73
     2
 40
7.5
 49
6.0
 49
-1.5
  0
LTYPE
  2
AMCONSTR
 70
     0
  3
_______________________
 72
    65
 73
     2
 40
9999.0
 49
9999.0
 49
0.0
  0
LTYPE
  2
AMZIGZAG2
 70
     0
  3
/\/-/\/-/\/-/\/-/\/-/\/
 72
    65
 73
     2
 40
0.4401
 49
0.0001
 49
-0.4400000000000001
  0
LTYPE
  2
ACANSTGB
 70
     0
  3
__ . . __ . .
 72
    65
 73
     6
 40
0.35433070866
 49
0.15748031496
 49
-0.03937007874
 49
0.03937007874
 49
-0.03937007874
 49
0.03937007874
 49
-0.03937007874
  0
LTYPE
  2
ACANSTGL
 70
     0
  3
_ _ _ _ _
 72
    65
 73
     2
 40
0.11811023622
 49
0.07874015748
 49
-0.03937007874
  0
LTYPE
  2
ACJISTGB
 70
     0
  3
__ . . __ . .
 72
    65
 73
     6
 40
9.0
 49
4.0
 49
-1.0
 49
1.0
 49
-1.0
 49
1.0
 49
-1.0
  0
LTYPE
  2
ACJISTGL
 70
     0
  3
_ _ _ _ _
 72
    65
 73
     2
 40
3.0
 49
2.0
 49
-1.0
  0
ENDTAB
  0
TABLE
  2
LAYER
 70
    11
  0
LAYER
  2
0
 70
     0
 62
     7
  6
CONTINUOUS
  0
LAYER
  2
240
 70
     0
 62
     4
  6
CONTINUOUS
  0
LAYER
  2
241
 70
     0
 62
   211
  6
CONTINUOUS
  0
LAYER
  2
242
 70
     0
 62
     3
  6
CONTINUOUS
  0
LAYER
  2
245
 70
     0
 62
     2
  6
CENTER2
  0
LAYER
  2
247
 70
     0
 62
    60
  6
CONTINUOUS
  0
LAYER
  2
250
 70
     0
 62
     3
  6
CONTINUOUS
  0
LAYER
  2
DEFPOINTS
 70
     0
 62
     7
  6
CONTINUOUS
  0
LAYER
  2
243
 70
     0
 62
   211
  6
HIDDEN2
  0
ENDTAB
  0
TABLE
  2
STYLE
 70
    11
  0
STYLE
  2
STANDARD
 70
     0
 40
0.0
 41
1.0
 50
0.0
 71
     0
 42
3.0
  3
romans.shx
  4
BIGFONT.SHX
  0
STYLE
  2
YOKO
 70
     0
 40
0.0
 41
1.0
 50
0.0
 71
     0
 42
3.0
  3
romans.shx
  4
extfont.shx
  0
STYLE
  2

 70
     1
 40
0.0
 41
1.0
 50
0.0
 71
     0
 42
3.0
  3
genltshp.shx
  4

  0
STYLE
  2
ACANSGDT
 70
     0
 40
0.0
 41
1.0
 50
0.0
 71
     0
 42
3.0
  3
amgdt.shx
  4

  0
STYLE
  2
ACJISTS
 70
     0
 40
1.0
 41
1.0
 50
0.0
 71
     0
 42
3.0
  3
amgdt.shx
  4
extfont.shx
  0
STYLE
  2
ACJISGDT
 70
     0
 40
0.0
 41
1.0
 50
0.0
 71
     0
 42
3.0
  3
amgdt.shx
  4
extfont.shx
  0
ENDTAB
  0
TABLE
  2
VIEW
 70
     0
  0
ENDTAB
  0
TABLE
  2
UCS
 70
     0
  0
ENDTAB
  0
TABLE
  2
APPID
 70
    26
  0
APPID
  2
ACAD
 70
     0
  0
APPID
  2
ACADANNOTATIVE
 70
     0
  0
APPID
  2
GLOBAL
 70
     0
  0
APPID
  2
DETAIL
 70
     0
  0
APPID
  2
GRPNAME
 70
     0
  0
APPID
  2
GPARA
 70
     0
  0
APPID
  2
ITEMNAME
 70
     0
  0
APPID
  2
HATCH_TYPE
 70
     0
  0
APPID
  2
HATCH_DISPLAY
 70
     0
  0
APPID
  2
HATCH_DISTANCE
 70
     0
  0
APPID
  2
MCAD_NO_VIS
 70
     0
  0
APPID
  2
ACAD_TEMP_GRAPHIC
 70
     0
  0
APPID
  2
AD_DRAW
 70
     0
  0
APPID
  2
ACATTRIBSERVICES
 70
     0
  0
APPID
  2
DESIGNERASSEMBLIES
 70
     0
  0
APPID
  2
ACADM_DIM_EDIT
 70
     0
  0
APPID
  2
AMDT_DM_ADJ
 70
     0
  0
APPID
  2
GENIUS_GENSCREG_15
 70
     0
  0
APPID
  2
GENIUS_GENOBJ-N-SDF_13
 70
     0
  0
APPID
  2
GENIUS_GENODEF_13
 70
     0
  0
APPID
  2
ACAD_DSTYLE_DIMJAG
 70
     0
  0
APPID
  2
ACAD_DSTYLE_DIMBREAK
 70
     0
  0
APPID
  2
ACAD_NAV_VCDISPLAY
 70
     0
  0
APPID
  2
ACAECLAYERSTANDARD
 70
     0
  0
APPID
  2
GENIUS_GENOBJ-N-FIL_13
 70
     0
  0
APPID
  2
ACAD_MLEADERVER
 70
     0
  0
ENDTAB
  0
TABLE
  2
DIMSTYLE
 70
    26
  0
DIMSTYLE
  2
STANDARD
 70
     0
  3

  4

  5

  6

  7

 40
1.0
 41
0.18
 42
0.0625
 43
0.38
 44
0.18
 45
0.0
 46
0.0
 47
0.0
 48
0.0
140
0.18
141
0.09
142
0.0
143
25.399999999999999
144
1.0
145
0.0
146
1.0
147
0.09
 71
     0
 72
     0
 73
     1
 74
     1
 75
     0
 76
     0
 77
     0
 78
     0
170
     0
171
     2
172
     0
173
     0
174
     0
175
     0
176
     0
177
     0
178
     0
  0
DIMSTYLE
  2
BIGT
 70
     0
  3

  4

  5

  6

  7

 40
1.0
 41
2.2299999999999991
 42
0.5
 43
2.5
 44
1.0
 45
0.0
 46
0.0
 47
0.0
 48
0.0
140
3.5
141
0.0
142
0.0
143
25.399999999999999
144
1.0
145
0.0
146
1.0
147
1.0
 71
     0
 72
     0
 73
     0
 74
     0
 75
     0
 76
     0
 77
     3
 78
     9
170
     0
171
     2
172
     1
173
     0
174
     0
175
     0
176
   256
177
   256
178
    40
  0
DIMSTYLE
  2
AM_ANSI
 70
     0
  3

  4
mm
  5

  6

  7

 40
1.0
 41
0.12
 42
0.05
 43
0.5
 44
0.1
 45
0.0
 46
0.0
 47
0.1
 48
0.1
140
0.12
141
0.0
142
0.0
143
25.399999999999999
144
1.0
145
0.0
146
0.71
147
0.06
 71
     0
 72
     0
 73
     1
 74
     1
 75
     0
 76
     0
 77
     0
 78
     7
170
     0
171
     2
172
     0
173
     0
174
     0
175
     0
176
   256
177
   256
178
     2
  0
DIMSTYLE
  2
AM_ANSI$3
 70
     0
  3

  4
mm
  5

  6

  7

 40
1.0
 41
0.12
 42
0.05
 43
0.5
 44
0.1
 45
0.0
 46
0.0
 47
0.1
 48
0.1
140
0.12
141
0.0
142
0.0
143
25.399999999999999
144
1.0
145
0.0
146
0.71
147
0.06
 71
     0
 72
     0
 73
     1
 74
     1
 75
     0
 76
     0
 77
     0
 78
     7
170
     0
171
     2
172
     0
173
     0
174
     0
175
     0
176
   256
177
   256
178
     2
  0
DIMSTYLE
  2
AM_ANSI$4
 70
     0
  3

  4
mm
  5

  6

  7

 40
1.0
 41
0.12
 42
0.05
 43
0.5
 44
0.1
 45
0.0
 46
0.0
 47
0.1
 48
0.1
140
0.12
141
0.0
142
0.0
143
25.399999999999999
144
1.0
145
0.0
146
0.71
147
0.06
 71
     0
 72
     0
 73
     1
 74
     1
 75
     0
 76
     0
 77
     0
 78
     7
170
     0
171
     2
172
     0
173
     0
174
     0
175
     0
176
   256
177
   256
178
     2
  0
DIMSTYLE
  2
AM_ANSI$7
 70
     0
  3

  4
mm
  5

  6

  7

 40
1.0
 41
0.12
 42
0.05
 43
0.5
 44
0.1
 45
0.0
 46
0.0
 47
0.1
 48
0.1
140
0.12
141
0.0
142
0.0
143
25.399999999999999
144
1.0
145
0.0
146
0.71
147
0.06
 71
     0
 72
     0
 73
     1
 74
     1
 75
     0
 76
     0
 77
     0
 78
     7
170
     0
171
     2
172
     0
173
     0
174
     0
175
     0
176
   256
177
   256
178
     2
  0
DIMSTYLE
  2
AM_ANSI$SF
 70
     0
  3

  4
mm
  5

  6

  7

 40
1.0
 41
0.12
 42
0.05
 43
0.5
 44
0.1
 45
0.0
 46
0.0
 47
0.1
 48
0.1
140
0.12
141
0.0
142
0.0
143
25.399999999999999
144
1.0
145
0.0
146
0.71
147
0.06
 71
     0
 72
     0
 73
     1
 74
     1
 75
     1
 76
     1
 77
     0
 78
     7
170
     0
171
     2
172
     0
173
     0
174
     0
175
     0
176
   256
177
   256
178
     2
  0
DIMSTYLE
  2
AM_ANSI$SH
 70
     0
  3

  4
mm
  5

  6
GENAXEH
  7

 40
1.0
 41
0.12
 42
0.05
 43
0.5
 44
0.1
 45
0.0
 46
0.0
 47
0.1
 48
0.1
140
0.12
141
0.0
142
0.0
143
25.399999999999999
144
1.0
145
0.0
146
0.71
147
0.06
 71
     0
 72
     0
 73
     1
 74
     1
 75
     1
 76
     1
 77
     0
 78
     7
170
     0
171
     2
172
     0
173
     1
174
     0
175
     0
176
   256
177
   256
178
     2
  0
DIMSTYLE
  2
BIGT$2
 70
     0
  3

  4

  5
OPEN
  6

  7

 40
1.0
 41
2.2299999999999991
 42
0.5
 43
7.0
 44
1.0
 45
0.0
 46
0.0
 47
0.0
 48
0.01
140
2.7999999999999989
141
0.0
142
0.0
143
25.399999999999999
144
1.0
145
0.0
146
1.0
147
1.0
 71
     0
 72
     0
 73
     0
 74
     0
 75
     0
 76
     0
 77
     3
 78
     9
170
     0
171
     2
172
     1
173
     0
174
     0
175
     0
176
   256
177
   256
178
    40
  0
DIMSTYLE
  2
BIGT$3
 70
     0
  3

  4

  5
OPEN
  6

  7

 40
1.0
 41
2.2299999999999991
 42
0.5
 43
2.5
 44
1.0
 45
0.0
 46
0.0
 47
0.0
 48
0.01
140
2.7999999999999989
141
0.0
142
0.0
143
25.399999999999999
144
1.0
145
0.0
146
1.0
147
1.0
 71
     0
 72
     0
 73
     0
 74
     0
 75
     0
 76
     0
 77
     3
 78
     9
170
     0
171
     2
172
     1
173
     0
174
     0
175
     0
176
   256
177
   256
178
    40
  0
DIMSTYLE
  2
BIGT$7
 70
     0
  3

  4

  5
OPEN
  6

  7

 40
0.0
 41
2.2299999999999991
 42
0.5
 43
7.0
 44
1.0
 45
0.0
 46
0.0
 47
0.0
 48
0.01
140
2.7999999999999989
141
0.0
142
0.0
143
25.399999999999999
144
1.0
145
0.0
146
1.0
147
1.0
 71
     0
 72
     0
 73
     0
 74
     0
 75
     0
 76
     0
 77
     3
 78
     9
170
     0
171
     2
172
     0
173
     0
174
     0
175
     0
176
   256
177
   256
178
    40
  0
DIMSTYLE
  2
BIGT$6
 70
     0
  3

  4

  5
OPEN
  6

  7

 40
1.0
 41
2.2299999999999991
 42
0.5
 43
2.5
 44
1.0
 45
0.0
 46
0.0
 47
0.0
 48
0.01
140
2.7999999999999989
141
0.0
142
0.0
143
25.399999999999999
144
1.0
145
0.0
146
1.0
147
1.0
 71
     0
 72
     0
 73
     0
 74
     0
 75
     0
 76
     0
 77
     3
 78
     9
170
     0
171
     2
172
     1
173
     0
174
     0
175
     0
176
   256
177
   256
178
    40
  0
DIMSTYLE
  2
BIGT$0
 70
     0
  3

  4

  5
OPEN
  6

  7

 40
1.0
 41
2.2299999999999991
 42
0.5
 43
7.0
 44
1.0
 45
0.0
 46
0.0
 47
0.0
 48
0.01
140
2.7999999999999989
141
0.0
142
0.0
143
25.399999999999999
144
1.0
145
0.0
146
1.0
147
1.0
 71
     0
 72
     0
 73
     0
 74
     0
 75
     0
 76
     0
 77
     3
 78
     9
170
     0
171
     2
172
     1
173
     0
174
     1
175
     0
176
   256
177
   256
178
    40
  0
DIMSTYLE
  2
BIGT$4
 70
     0
  3

  4

  5
OPEN
  6

  7

 40
1.0
 41
2.2299999999999991
 42
0.5
 43
2.5
 44
1.0
 45
0.0
 46
0.0
 47
0.0
 48
0.01
140
2.7999999999999989
141
0.0
142
0.0
143
25.399999999999999
144
1.0
145
0.0
146
1.0
147
1.0
 71
     0
 72
     0
 73
     0
 74
     0
 75
     0
 76
     0
 77
     3
 78
     9
170
     0
171
     2
172
     1
173
     0
174
     0
175
     0
176
   256
177
   256
178
    40
  0
DIMSTYLE
  2
BIGT$SH
 70
     0
  3

  4

  5
OPEN
  6

  7

 40
1.0
 41
2.2299999999999991
 42
0.5
 43
7.0
 44
1.0
 45
0.0
 46
0.0
 47
0.0
 48
0.0
140
2.7999999999999989
141
0.0
142
0.0
143
25.399999999999999
144
1.0
145
0.0
146
1.0
147
1.0
 71
     0
 72
     0
 73
     0
 74
     0
 75
     0
 76
     0
 77
     3
 78
     9
170
     0
171
     2
172
     1
173
     0
174
     0
175
     0
176
   256
177
   256
178
    40
  0
DIMSTYLE
  2
BIGT$SF
 70
     0
  3

  4

  5
OPEN
  6

  7

 40
1.0
 41
2.2299999999999991
 42
0.5
 43
7.0
 44
1.0
 45
0.0
 46
0.0
 47
0.0
 48
0.0
140
2.7999999999999989
141
0.0
142
0.0
143
25.399999999999999
144
1.0
145
0.0
146
1.0
147
1.0
 71
     0
 72
     0
 73
     0
 74
     0
 75
     0
 76
     0
 77
     3
 78
     9
170
     0
171
     2
172
     1
173
     0
174
     0
175
     0
176
   256
177
   256
178
    40
  0
ENDTAB
  0
ENDSEC
  0
SECTION
  2
BLOCKS
  0
BLOCK
  8
0
  2
$MODEL_SPACE
 70
     0
 10
0.0
 20
0.0
 30
0.0
  3
$MODEL_SPACE
  1

  0
ENDBLK
  5
A8F
  8
0
  0
BLOCK
 67
     1
  8
0
  2
$PAPER_SPACE
 70
     0
 10
0.0
 20
0.0
 30
0.0
  3
$PAPER_SPACE
  1

  0
ENDBLK
  5
A8B
 67
     1
  8
0
  0
BLOCK
  8
0
  2
_OPEN
 70
     0
 10
0.0
 20
0.0
 30
0.0
  3
_OPEN
  1

  0
LINE
  5
595
  8
0
  6
BYBLOCK
 62
     0
 10
-1.0
 20
0.1666666666666666
 30
0.0
 11
0.0
 21
0.0
 31
0.0
  0
LINE
  5
596
  8
0
  6
BYBLOCK
 62
     0
 10
-1.0
 20
-0.1666666666666666
 30
0.0
 11
0.0
 21
0.0
 31
0.0
  0
LINE
  5
597
  8
0
  6
BYBLOCK
 62
     0
 10
0.0
 20
0.0
 30
0.0
 11
-1.0
 21
0.0
 31
0.0
  0
ENDBLK
  5
599
  8
0
  0
BLOCK
  8
0
  2
GENAXEH
 70
     0
 10
0.0
 20
0.0
 30
0.0
  3
GENAXEH
  1

  0
LINE
  5
974
  8
0
 10
-1.0
 20
0.0
 30
0.0
 11
1.0
 21
0.0
 31
0.0
  0
ENDBLK
  5
976
  8
0
  0
BLOCK
  8
0
  2
*U10
 70
     1
 10
0.0
 20
0.0
 30
0.0
  3
*U10
  1

  0
TEXT
  5
A1C
  8
250
 10
15.142857142845781
 20
43.0
 30
0.0
 40
3.0
  1
36
  0
ENDBLK
  5
A1E
  8
0
  0
BLOCK
  8
0
  2
_ACMFILLEDHALF
 70
     0
 10
0.0
 20
0.0
 30
0.0
  3
_ACMFILLEDHALF
  1

  0
TRACE
  5
B3D
  8
240
 62
     0
 10
-0.8
 20
0.0
 30
0.0
 11
-1.0
 21
0.166666666
 31
0.0
 12
0.0
 22
0.0
 32
0.0
 13
0.0
 23
0.0
 33
0.0
  0
LINE
  5
B3E
  8
240
 62
     0
 10
-1.0
 20
0.0
 30
0.0
 11
-0.8
 21
0.0
 31
0.0
  0
ENDBLK
  5
B3C
  8
0
  0
ENDSEC
  0
SECTION
  2
ENTITIES
  0
LINE
  5
73C
  8
250
  6
CONTINUOUS
 10
-26.781399339742361
 20
-28.579153447397442
 30
0.0
 11
-43.376355894899682
 21
-28.579153447397442
 31
0.0
1001
ITEMNAME
1000
LNSP2
  0
TEXT
  5
7FB
  8
241
  6
CONTINUOUS
 10
-28.0
 20
56.0
 30
0.0
 40
5.0
  1
EWN2-32CK5
  7
YOKO
 11
-28.0
 21
56.0
 31
0.0
 73
     1
  0
LINE
  5
985
  8
250
  6
CONTINUOUS
 10
36.499999999999773
 20
-5.9999999999857581
 30
0.0
 11
50.0
 21
-5.9999999999857581
 31
0.0
  0
LINE
  5
986
  8
250
  6
CONTINUOUS
 10
36.499999999994991
 20
6.0000000000142411
 30
0.0
 11
50.0
 21
6.0000000000142384
 31
0.0
  0
LINE
  5
987
  8
250
  6
CONTINUOUS
 10
49.0
 20
-3.7699999999857599
 30
0.0
 11
49.0
 21
3.770000000014238
 31
0.0
  0
LINE
  5
98B
  8
250
  6
CONTINUOUS
 10
-0.0000000000121503
 20
25.704690300041371
 30
0.0
 11
-0.0000000000121491
 21
43.0
 31
0.0
  0
LINE
  5
98C
  8
250
  6
CONTINUOUS
 10
35.999999999989427
 20
20.500000000014069
 30
0.0
 11
35.999999999989427
 21
43.0
 31
0.0
  0
LINE
  5
98D
  8
250
  6
CONTINUOUS
 10
2.2299999999878501
 20
42.0
 30
0.0
 11
33.76999999998943
 21
42.0
 31
0.0
  0
INSERT
  5
990
  8
250
  6
CONTINUOUS
  2
*U10
 10
0.0
 20
0.0
 30
0.0
  0
TEXT
  5
991
  8
250
  6
CONTINUOUS
 10
-40.804927323471098
 20
-27.579153447397442
 30
0.0
 40
3.0
  1
CK5
  7
YOKO
1001
ITEMNAME
1000
LNSP3
1001
ACAD
1000
MTEXTBEGIN
1070
    73
1070
     1
1070
    44
1040
1.0
1070
    74
1070
     0
1000
MTEXTEND
  0
LINE
  5
994
  8
250
  6
CONTINUOUS
 10
-19.479121172330551
 20
-15.931236650439271
 30
0.0
 11
-26.464154289997289
 21
-28.029668902789279
 31
0.0
1001
ACAD
1000
DSTYLE
1002
{
1070
     6
1000
OPEN
1070
    78
1070
     8
1070
   140
1040
3.0
1070
   173
1070
     1
1002
}
  0
LINE
  5
995
  8
250
  6
CONTINUOUS
 10
-26.464154289997289
 20
-28.029668902789279
 30
0.0
 11
-26.781399339742361
 21
-28.579153447397442
 31
0.0
1001
ACAD
1000
DSTYLE
1002
{
1070
     6
1000
OPEN
1070
    78
1070
     8
1070
   140
1040
3.0
1070
   173
1070
     1
1002
}
  0
LINE
  5
996
  8
250
  6
CONTINUOUS
 10
-19.800993947403761
 20
-15.745403317105939
 30
0.0
 11
-18.364121172330542
 21
-13.99999999999998
 31
0.0
  0
LINE
  5
997
  8
250
  6
CONTINUOUS
 10
-19.157248397257341
 20
-16.117069983772598
 30
0.0
 11
-18.364121172330542
 21
-13.99999999999998
 31
0.0
  0
LINE
  5
998
  8
250
  6
CONTINUOUS
 10
-18.364121172330542
 20
-13.99999999999998
 30
0.0
 11
-19.479121172330551
 21
-15.931236650439271
 31
0.0
  0
LINE
  5
999
  8
250
  6
CONTINUOUS
 10
33.76999999998943
 20
42.371666666666663
 30
0.0
 11
35.999999999989427
 21
42.0
 31
0.0
  0
LINE
  5
99A
  8
250
  6
CONTINUOUS
 10
33.76999999998943
 20
41.62833333333333
 30
0.0
 11
35.999999999989427
 21
42.0
 31
0.0
  0
LINE
  5
99B
  8
250
  6
CONTINUOUS
 10
35.999999999989427
 20
42.0
 30
0.0
 11
33.76999999998943
 21
42.0
 31
0.0
  0
LINE
  5
99C
  8
250
  6
CONTINUOUS
 10
2.2299999999878479
 20
41.62833333333333
 30
0.0
 11
-0.0000000000121492
 21
42.0
 31
0.0
  0
LINE
  5
99D
  8
250
  6
CONTINUOUS
 10
2.2299999999878479
 20
42.371666666666663
 30
0.0
 11
-0.0000000000121492
 21
42.0
 31
0.0
  0
LINE
  5
99E
  8
250
  6
CONTINUOUS
 10
-0.0000000000121492
 20
42.0
 30
0.0
 11
2.2299999999878479
 21
42.0
 31
0.0
  0
TEXT
  5
99F
  8
250
  6
CONTINUOUS
 10
48.0
 20
-4.071428571414323
 30
0.0
 40
3.0
  1
\U+2205
 50
90.0
1001
ACAD
1000
MTEXTBEGIN
1070
    73
1070
     1
1070
    44
1040
1.0
1070
    74
1070
     0
1000
MTEXTEND
  0
TEXT
  5
9A0
  8
250
  6
CONTINUOUS
 10
48.0
 20
-1.357142857128609
 30
0.0
 40
3.0
  1
12
 50
90.0
1001
ACAD
1000
MTEXTBEGIN
1070
    73
1070
     1
1070
    44
1040
1.0
1070
    74
1070
     0
1000
MTEXTEND
  0
LINE
  5
9A1
  8
250
  6
CONTINUOUS
 10
48.62833333333333
 20
3.7700000000142402
 30
0.0
 11
49.0
 21
6.0000000000142411
 31
0.0
  0
LINE
  5
9A2
  8
250
  6
CONTINUOUS
 10
49.37166666666667
 20
3.7700000000142402
 30
0.0
 11
49.0
 21
6.0000000000142411
 31
0.0
  0
LINE
  5
9A3
  8
250
  6
CONTINUOUS
 10
49.0
 20
6.0000000000142411
 30
0.0
 11
49.0
 21
3.7700000000142402
 31
0.0
  0
LINE
  5
9A4
  8
250
  6
CONTINUOUS
 10
49.37166666666667
 20
-3.7699999999857581
 30
0.0
 11
49.0
 21
-5.9999999999857581
 31
0.0
  0
LINE
  5
9A5
  8
250
  6
CONTINUOUS
 10
48.628333333333337
 20
-3.7699999999857581
 30
0.0
 11
49.0
 21
-5.9999999999857581
 31
0.0
  0
LINE
  5
9A6
  8
250
  6
CONTINUOUS
 10
49.0
 20
-5.9999999999857581
 30
0.0
 11
49.0
 21
-3.7699999999857581
 31
0.0
  0
LINE
  5
B82
  8
240
  6
CONTINUOUS
 10
33.113248654039751
 20
25.00000000001295
 30
0.0
 11
-0.000000000012534
 21
24.999999999999979
 31
0.0
1001
GRPNAME
1000
PASTMD06
  0
LINE
  5
B84
  8
245
  6
CENTER2
 10
38.502168894845617
 20
0.000000000015234
 30
0.0
 11
-32.946361516173823
 21
-0.0000000000130456
 31
0.0
1001
GRPNAME
1000
PASTMD06
  0
LINE
  5
B85
  8
240
  6
CONTINUOUS
 10
14.4399346400468
 20
-23.299999999989041
 30
0.0
 11
4.549999999904859
 21
-20.64999999997486
 31
0.0
1001
GRPNAME
1000
PASTMD09
  0
LINE
  5
B86
  8
240
  6
CONTINUOUS
 10
36.000000000005599
 20
-20.649999999974849
 30
0.0
 11
32.449999999987547
 21
-20.649999999974849
 31
0.0
1001
GRPNAME
1000
PASTMD09
  0
CIRCLE
  5
B89
  8
241
  6
CONTINUOUS
 10
-12.99999999999995
 20
0.0000000000000142
 30
0.0
 40
5.0819999999999981
  0
CIRCLE
  5
B8A
  8
241
  6
CONTINUOUS
 10
-12.99999999999995
 20
0.0000000000000142
 30
0.0
 40
4.0
  0
LINE
  5
B8B
  8
245
  6
CENTER2
 10
-12.99999999999995
 20
7.956057999999997
 30
0.0
 11
-12.99999999999995
 21
-7.9273049999999872
 31
0.0
  0
LINE
  5
B8C
  8
240
  6
CONTINUOUS
 10
-30.0
 20
-13.99999999999998
 30
0.0
 11
-30.0
 21
14.0
 31
0.0
  0
LINE
  5
B8D
  8
241
  6
CONTINUOUS
 10
0.0000000000000142
 20
14.0
 30
0.0
 11
-0.0000000000000142
 21
-13.99999999999995
 31
0.0
  0
LINE
  5
B90
  8
240
  6
CONTINUOUS
 10
-30.0
 20
-13.99999999999998
 30
0.0
 11
-0.0000000000000142
 21
-13.99999999999995
 31
0.0
  0
LINE
  5
B92
  8
240
  6
CONTINUOUS
 10
0.000000000007212
 20
-25.00000000000005
 30
0.0
 11
0.0000000000040075
 21
-14.0
 31
0.0
1001
GRPNAME
1000
PASTMD06
  0
LINE
  5
B93
  8
240
  6
CONTINUOUS
 10
1.98706397227984
 20
-24.999999999999261
 30
0.0
 11
0.000000000007212
 21
-25.00000000000005
 31
0.0
1001
GRPNAME
1000
PASTMD06
  0
LINE
  5
B97
  8
240
  6
CONTINUOUS
 10
4.3000000000179979
 20
-20.64999999997486
 30
0.0
 11
1.98706397227984
 21
-24.999999999999261
 31
0.0
1001
GRPNAME
1000
PASTMD06
  0
LINE
  5
B9C
  8
240
  6
CONTINUOUS
 10
-30.0
 20
14.0
 30
0.0
 11
0.0000000000000142
 21
14.0
 31
0.0
  0
LINE
  5
BB0
  8
240
  6
CONTINUOUS
 10
-0.0000000000083134
 20
14.0
 30
0.0
 11
-0.000000000012534
 21
24.999999999999979
 31
0.0
1001
GRPNAME
1000
PASTMD06
  0
LINE
  5
BDD
  8
241
  6
CONTINUOUS
 10
18.499999999989459
 20
-2.309401076761076
 30
0.0
 11
20.499999999989459
 21
-1.154700538381884
 31
0.0
  0
LINE
  5
BDE
  8
241
  6
CONTINUOUS
 10
20.499999999989459
 20
1.1547005383766049
 30
0.0
 11
18.499999999989459
 21
2.3094010767559321
 31
0.0
  0
CIRCLE
  5
BDF
  8
242
  6
CONTINUOUS
 10
18.49999999999735
 20
0.000000000007347
 30
0.0
 40
3.4250860270685868
1001
GRPNAME
1000
PASTMD06
  0
CIRCLE
  5
BE0
  8
241
  6
CONTINUOUS
 10
18.49999999999735
 20
0.000000000007347
 30
0.0
 40
4.0999999999999961
1001
GRPNAME
1000
PASTMD06
  0
LINE
  5
BE1
  8
241
  6
CONTINUOUS
 10
33.113248654039751
 20
25.00000000001295
 30
0.0
 11
33.113248654039751
 21
-20.649999999985852
 31
0.0
  0
LINE
  5
BE2
  8
240
  6
CONTINUOUS
 10
35.999999999989427
 20
20.000000000014062
 30
0.0
 11
36.000000000005599
 21
-20.649999999974849
 31
0.0
1001
GRPNAME
1000
PASTMD06
  0
LINE
  5
BE3
  8
240
  6
CONTINUOUS
 10
32.449999999987533
 20
-20.64999999997486
 30
0.0
 11
22.560065359932121
 21
-23.299999999982639
 31
0.0
1001
GRPNAME
1000
PASTMD09
  0
LINE
  5
BE4
  8
243
  6
HIDDEN2
 10
6.499999999997442
 20
-5.9999999999974323
 30
0.0
 11
35.999999999999773
 21
-5.9999999999857581
 31
0.0
  0
LINE
  5
BE5
  8
240
  6
CONTINUOUS
 10
22.560065359932121
 20
-23.299999999982639
 30
0.0
 11
14.4399346400468
 21
-23.299999999989041
 31
0.0
1001
GRPNAME
1000
PASTMD09
  0
LINE
  5
BE6
  8
241
  6
CONTINUOUS
 10
20.499999999989459
 20
1.1547005383766049
 30
0.0
 11
20.499999999989459
 21
-1.154700538381884
 31
0.0
  0
LINE
  5
BE9
  8
243
  6
HIDDEN2
 10
6.499999999997442
 20
6.0000000000025659
 30
0.0
 11
35.999999999994998
 21
6.0000000000142411
 31
0.0
  0
LINE
  5
BEE
  8
241
  6
CONTINUOUS
 10
16.499999999989459
 20
1.154700538376715
 30
0.0
 11
16.499999999989459
 21
-1.154700538381884
 31
0.0
  0
LINE
  5
BEF
  8
241
  6
CONTINUOUS
 10
18.499999999989459
 20
-2.309401076761076
 30
0.0
 11
16.499999999989459
 21
-1.154700538381884
 31
0.0
  0
LINE
  5
BF0
  8
241
  6
CONTINUOUS
 10
16.499999999989459
 20
1.154700538376715
 30
0.0
 11
18.499999999989459
 21
2.3094010767559321
 31
0.0
  0
LINE
  5
BF3
  8
240
  6
CONTINUOUS
 10
33.113248654039452
 20
25.00000000001295
 30
0.0
 11
35.999999999989427
 21
20.000000000014062
 31
0.0
1001
GRPNAME
1000
PASTMD06
  0
LINE
  5
C09
  8
240
  6
CONTINUOUS
 10
4.5499999999048582
 20
-20.64999999997486
 30
0.0
 11
4.3000000000179979
 21
-20.64999999997486
 31
0.0
1001
GRPNAME
1000
PASTMD09
  0
LINE
  5
C74
  8
241
  6
CONTINUOUS
 10
32.449999999987533
 20
-20.64999999997486
 30
0.0
 11
4.549999999904859
 21
-20.64999999997486
 31
0.0
  0
LINE
  5
C97
  8
247
  6
CONTINUOUS
 10
6.999999999999992
 20
-15.90000000004486
 30
0.0
 11
6.9999999999999956
 21
-9.2076923080048605
 31
0.0
  0
ARC
  5
C98
  8
247
  6
CONTINUOUS
 10
5.2500000000699929
 20
-15.90000000004486
 30
0.0
 40
1.7499999999299991
 50
180.0
 51
0.0
  0
ARC
  5
C99
  8
247
  6
CONTINUOUS
 10
5.2500000000699973
 20
-9.2076923080048605
 30
0.0
 40
1.7499999999299991
 50
0.0
 51
180.0
  0
LINE
  5
C9A
  8
247
  6
CONTINUOUS
 10
3.5000000001399938
 20
-15.03461538469486
 30
0.0
 11
6.5000000000199938
 21
-15.89485154193687
 31
0.0
  0
LINE
  5
C9B
  8
247
  6
CONTINUOUS
 10
4.923076923159992
 20
-14.13498381831068
 30
0.0
 11
4.923076923159992
 21
-15.44267612595068
 31
0.0
  0
ARC
  5
C9C
  8
247
  6
CONTINUOUS
 10
4.0495986677029689
 20
-13.795143816064639
 30
0.0
 40
0.5538165441895349
 50
72.99788967529156
 51
172.92416621851231
  0
ARC
  5
C9D
  8
247
  6
CONTINUOUS
 10
3.936033044465769
 20
-14.216878323003639
 30
0.0
 40
0.9904354236226808
 50
4.7429368522014013
 51
73.849226273267618
1001
GENIUS_GENOBJ-N-FIL_13
1002
{
1000
OWNER
1000
GEN
1002
}
1001
GENIUS_GENODEF_13
1002
{
1000
HIER
1070
     0
1002
}
1002
{
1000
MANEDIT
1070
     0
1002
}
1002
{
1000
NOSEL
1070
     0
1002
}
1002
{
1000
BEHIND
1070
     0
1002
}
1002
{
1000
OTHER
1070
     0
1002
}
1002
{
1000
REACTOR
1002
}
  0
LINE
  5
C9E
  8
247
  6
CONTINUOUS
 10
6.5000000000199911
 20
-14.58715923429687
 30
0.0
 11
6.5000000000199911
 21
-15.89485154193687
 31
0.0
  0
LINE
  5
C9F
  8
247
  6
CONTINUOUS
 10
3.5000000001399938
 20
-15.03461538469486
 30
0.0
 11
3.5000000001399938
 21
-13.72692307705486
 31
0.0
  0
ARC
  5
CA0
  8
247
  6
CONTINUOUS
 10
5.4820242326655482
 20
-14.21091963652183
 30
0.0
 40
0.5640818586791229
 50
65.990941652530594
 51
172.26344345906949
  0
ARC
  5
CA1
  8
247
  6
CONTINUOUS
 10
5.4874290391865834
 20
-14.688262685321931
 30
0.0
 40
1.0176059446230981
 50
5.7019851642579331
 51
77.277338436820955
1001
GENIUS_GENOBJ-N-FIL_13
1002
{
1000
OWNER
1000
GEN
1002
}
1001
GENIUS_GENODEF_13
1002
{
1000
HIER
1070
     0
1002
}
1002
{
1000
MANEDIT
1070
     0
1002
}
1002
{
1000
NOSEL
1070
     0
1002
}
1002
{
1000
BEHIND
1070
     0
1002
}
1002
{
1000
OTHER
1070
     0
1002
}
1002
{
1000
REACTOR
1002
}
  0
LINE
  5
CA2
  8
247
  6
CONTINUOUS
 10
6.5000000000199938
 20
-12.93331308051687
 30
0.0
 11
3.500000000139996
 21
-12.07307692327486
 31
0.0
  0
LINE
  5
CA3
  8
247
  6
CONTINUOUS
 10
3.5000000001399978
 20
-9.6500000002948525
 30
0.0
 11
3.5000000001399978
 21
-10.21573661943145
 31
0.0
  0
LINE
  5
CA4
  8
247
  6
CONTINUOUS
 10
6.5000000000199938
 20
-11.11153846177486
 30
0.0
 11
6.5000000000199938
 21
-10.49615384641486
 31
0.0
  0
ARC
  5
CA5
  8
247
  6
CONTINUOUS
 10
5.5832851359733802
 20
-9.358791209097717
 30
0.0
 40
2.2526500823422122
 50
202.3594881415269
 51
254.99324854284649
  0
ARC
  5
CA6
  8
247
  6
CONTINUOUS
 10
4.3083126551945119
 20
-10.02406947918808
 30
0.0
 40
0.8906723995727782
 50
94.994589319075175
 51
155.16632895730359
1001
GENIUS_GENOBJ-N-FIL_13
1002
{
1000
OWNER
1000
GEN
1002
}
1001
GENIUS_GENODEF_13
1002
{
1000
HIER
1070
     0
1002
}
1002
{
1000
MANEDIT
1070
     0
1002
}
1002
{
1000
NOSEL
1070
     0
1002
}
1002
{
1000
BEHIND
1070
     0
1002
}
1002
{
1000
OTHER
1070
     0
1002
}
1002
{
1000
REACTOR
1002
}
  0
ARC
  5
CA7
  8
247
  6
CONTINUOUS
 10
5.1601458886677563
 20
-10.87645888618745
 30
0.0
 40
1.392781735586712
 50
15.84609655577923
 51
82.325137004170415
  0
ARC
  5
CA8
  8
247
  6
CONTINUOUS
 10
5.4592434315272831
 20
-10.292212725815229
 30
0.0
 40
1.324563662670287
 50
249.71360167049801
 51
321.78874565640768
1001
GENIUS_GENOBJ-N-FIL_13
1002
{
1000
OWNER
1000
GEN
1002
}
1001
GENIUS_GENODEF_13
1002
{
1000
HIER
1070
     0
1002
}
1002
{
1000
MANEDIT
1070
     0
1002
}
1002
{
1000
NOSEL
1070
     0
1002
}
1002
{
1000
BEHIND
1070
     0
1002
}
1002
{
1000
OTHER
1070
     0
1002
}
1002
{
1000
REACTOR
1002
}
  0
LINE
  5
CA9
  8
247
  6
CONTINUOUS
 10
5.3461538462199982
 20
-10.18846153873486
 30
0.0
 11
5.3461538462199982
 21
-9.4961538464548596
 31
0.0
  0
LINE
  5
CAA
  8
247
  6
CONTINUOUS
 10
3.5000000001399938
 20
-15.90000000004486
 30
0.0
 11
3.5000000001399938
 21
-15.22692307699486
 31
0.0
  0
LINE
  5
CB3
  8
245
  6
CENTER2
 10
18.49999999999735
 20
5.0031692656083351
 30
0.0
 11
18.49999999999735
 21
-5.0670005076826783
 31
0.0
  0
VIEWPORT
  5
22
 67
     1
  8
0
 10
261.51769911504419
 20
148.5
 30
0.0
 40
523.0353982300885
 41
297.0
 68
     1
 69
     1
1001
ACAD
1000
MVIEW
1002
{
1070
    16
1010
0.0
1020
0.0
1030
0.0
1010
0.0
1020
0.0
1030
1.0
1040
0.0
1040
297.0
1040
261.51769911504419
1040
148.5
1040
50.0
1040
0.0
1040
0.0
1070
     0
1070
   100
1070
     1
1070
     1
1070
     0
1070
     0
1070
     0
1070
     0
1040
0.0
1040
0.0
1040
0.0
1040
1.0
1040
1.0
1040
10.0
1040
10.0
1070
     0
1002
{
1002
}
1002
}
1001
GENIUS_GENOBJ-N-SDF_13
1002
{
1000
OWNER
1000
GEN
1002
}
1001
GENIUS_GENODEF_13
1002
{
1000
HIER
1070
     0
1002
}
1002
{
1000
MANEDIT
1070
     0
1002
}
1002
{
1000
NOSEL
1070
     0
1002
}
1002
{
1000
BEHIND
1070
     0
1002
}
1002
{
1000
OTHER
1070
     0
1002
}
1002
{
1000
REACTOR
1002
}
1001
GENIUS_GENSCREG_15
1000
PF
1040
1.0
1000
DF
1040
1.0
1000
MIN
1011
0.0
1021
0.0
1031
0.0
1021
0.0
1031
0.0
1000
MAX
1011
523.0353982300885
1021
0.0
1031
0.0
1021
297.0
1031
0.0
1000
FLAGS
1070
     4
  0
ENDSEC
  0
EOF
