  0
SECTION
  2
HEADER
  9
$ACADVER
  1
AC1009
  9
$INSBASE
 10
0.0
 20
0.0
 30
0.0
  9
$EXTMIN
 10
-24.799999999999962
 20
-18.0
 30
0.0
  9
$EXTMAX
 10
53.500000000000007
 20
53.000000000000021
 30
0.0
  9
$LIMMIN
 10
0.0
 20
0.0
  9
$LIMMAX
 10
297.0
 20
210.0
  9
$ORTHOMODE
 70
     1
  9
$REGENMODE
 70
     1
  9
$FILLMODE
 70
     1
  9
$QTEXTMODE
 70
     0
  9
$MIRRTEXT
 70
     1
  9
$DRAGMODE
 70
     2
  9
$LTSCALE
 40
10.0
  9
$OSMODE
 70
  3071
  9
$ATTMODE
 70
     1
  9
$TEXTSIZE
 40
3.0
  9
$TRACEWID
 40
1.0
  9
$TEXTSTYLE
  7
YOKO
  9
$CLAYER
  8
240
  9
$CELTYPE
  6
BYLAYER
  9
$CECOLOR
 62
   256
  9
$DIMSCALE
 40
1.0
  9
$DIMASZ
 40
2.2299999999999991
  9
$DIMEXO
 40
0.5
  9
$DIMDLI
 40
7.0
  9
$DIMRND
 40
0.0
  9
$DIMDLE
 40
0.0
  9
$DIMEXE
 40
1.0
  9
$DIMTP
 40
0.0
  9
$DIMTM
 40
0.01
  9
$DIMTXT
 40
2.799999999999998
  9
$DIMCEN
 40
0.0
  9
$DIMTSZ
 40
0.0
  9
$DIMTOL
 70
     0
  9
$DIMLIM
 70
     0
  9
$DIMTIH
 70
     0
  9
$DIMTOH
 70
     0
  9
$DIMSE1
 70
     0
  9
$DIMSE2
 70
     0
  9
$DIMTAD
 70
     3
  9
$DIMZIN
 70
     9
  9
$DIMBLK
  1
OPEN
  9
$DIMASO
 70
     1
  9
$DIMSHO
 70
     1
  9
$DIMPOST
  1

  9
$DIMAPOST
  1

  9
$DIMALT
 70
     0
  9
$DIMALTD
 70
     2
  9
$DIMALTF
 40
25.399999999999999
  9
$DIMLFAC
 40
1.0
  9
$DIMTOFL
 70
     1
  9
$DIMTVP
 40
0.0
  9
$DIMTIX
 70
     1
  9
$DIMSOXD
 70
     0
  9
$DIMSAH
 70
     0
  9
$DIMBLK1
  1

  9
$DIMBLK2
  1

  9
$DIMSTYLE
  2
BIGT
  9
$DIMCLRD
 70
   256
  9
$DIMCLRE
 70
   256
  9
$DIMCLRT
 70
    40
  9
$DIMTFAC
 40
1.0
  9
$DIMGAP
 40
1.0
  9
$LUNITS
 70
     2
  9
$LUPREC
 70
     3
  9
$SKETCHINC
 40
1.0
  9
$FILLETRAD
 40
0.0
  9
$AUNITS
 70
     0
  9
$AUPREC
 70
     3
  9
$MENU
  1
.
  9
$ELEVATION
 40
0.0
  9
$PELEVATION
 40
0.0
  9
$THICKNESS
 40
0.0
  9
$LIMCHECK
 70
     0
  9
$BLIPMODE
 70
     0
  9
$CHAMFERA
 40
0.25
  9
$CHAMFERB
 40
0.25
  9
$SKPOLY
 70
     0
  9
$TDCREATE
 40
2456827.5643149191
  9
$TDUPDATE
 40
2457367.6005984149
  9
$TDINDWG
 40
0.0781601389
  9
$TDUSRTIMER
 40
0.078160081
  9
$USRTIMER
 70
     1
  9
$ANGBASE
 50
0.0
  9
$ANGDIR
 70
     0
  9
$PDMODE
 70
     1
  9
$PDSIZE
 40
0.0
  9
$PLINEWID
 40
0.0
  9
$COORDS
 70
     1
  9
$SPLFRAME
 70
     0
  9
$SPLINETYPE
 70
     6
  9
$SPLINESEGS
 70
     4
  9
$ATTDIA
 70
     1
  9
$ATTREQ
 70
     1
  9
$HANDLING
 70
     1
  9
$HANDSEED
  5
21CF
  9
$SURFTAB1
 70
     6
  9
$SURFTAB2
 70
     6
  9
$SURFTYPE
 70
     6
  9
$SURFU
 70
     6
  9
$SURFV
 70
     6
  9
$UCSNAME
  2

  9
$UCSORG
 10
0.0
 20
0.0
 30
0.0
  9
$UCSXDIR
 10
1.0
 20
0.0
 30
0.0
  9
$UCSYDIR
 10
0.0
 20
1.0
 30
0.0
  9
$PUCSNAME
  2

  9
$PUCSORG
 10
0.0
 20
0.0
 30
0.0
  9
$PUCSXDIR
 10
1.0
 20
0.0
 30
0.0
  9
$PUCSYDIR
 10
0.0
 20
1.0
 30
0.0
  9
$USERI1
 70
     1
  9
$USERI2
 70
     0
  9
$USERI3
 70
     0
  9
$USERI4
 70
     0
  9
$USERI5
 70
     0
  9
$USERR1
 40
0.0
  9
$USERR2
 40
0.0
  9
$USERR3
 40
0.0
  9
$USERR4
 40
0.0
  9
$USERR5
 40
0.0
  9
$WORLDVIEW
 70
     1
  9
$SHADEDGE
 70
     3
  9
$SHADEDIF
 70
    70
  9
$TILEMODE
 70
     1
  9
$MAXACTVP
 70
    16
  9
$PLIMCHECK
 70
     0
  9
$PEXTMIN
 10
1.0000000000000000E+020
 20
1.0000000000000000E+020
 30
1.0000000000000000E+020
  9
$PEXTMAX
 10
-1.0000000000000000E+020
 20
-1.0000000000000000E+020
 30
-1.0000000000000000E+020
  9
$PLIMMIN
 10
0.0
 20
0.0
  9
$PLIMMAX
 10
420.0
 20
297.0
  9
$UNITMODE
 70
     0
  9
$VISRETAIN
 70
     1
  9
$PLINEGEN
 70
     0
  9
$PSLTSCALE
 70
     1
  0
ENDSEC
  0
SECTION
  2
TABLES
  0
TABLE
  2
VPORT
 70
     1
  0
VPORT
  2
*ACTIVE
 70
     0
 10
0.0
 20
0.0
 11
1.0
 21
1.0
 12
11.170920752185189
 22
8.7753954136673968
 13
0.0
 23
0.0
 14
7.0
 24
7.0
 15
7.0
 25
7.0
 16
0.0
 26
0.0
 36
1.0
 17
0.0
 27
0.0
 37
0.0
 40
114.60766012078901
 41
1.3814102564102559
 42
50.0
 43
0.0
 44
0.0
 50
0.0
 51
0.0
 71
     0
 72
  2000
 73
     1
 74
     0
 75
     0
 76
     1
 77
     0
 78
     0
  0
ENDTAB
  0
TABLE
  2
LTYPE
 70
    16
  0
LTYPE
  2
CONTINUOUS
 70
     0
  3
Solid line
 72
    65
 73
     0
 40
0.0
  0
LTYPE
  2
CENTER2
 70
     0
  3
___ _ ___ _ ___ _ ___ _ ___ _ ___ _ ___ _ ___ _
 72
    65
 73
     4
 40
1.125
 49
0.75
 49
-0.125
 49
0.125
 49
-0.125
  0
LTYPE
  2
HIDDEN2
 70
     0
  3
_ _ _ _ _ _ _ _ _ _ _ _ _ _ _ _ _ _ _ _ _ _ _ _
 72
    65
 73
     2
 40
0.1875
 49
0.125
 49
-0.0625
  0
LTYPE
  2
PHANTOM2
 70
     0
  3
___ _ _ ___ _ _ ___ _ _ ___ _ _ ___ _ _ ___ _ _
 72
    65
 73
     6
 40
1.25
 49
0.625
 49
-0.125
 49
0.125
 49
-0.125
 49
0.125
 49
-0.125
  0
LTYPE
  2
CENTER
 70
     0
  3
____ _ ____ _ ____ _ ____ _ ____ _ ____ _ ____ 
 72
    65
 73
     4
 40
2.0
 49
1.25
 49
-0.25
 49
0.25
 49
-0.25
  0
LTYPE
  2
AMCONSTR
 70
     0
  3
_______________________
 72
    65
 73
     2
 40
9999.0
 49
9999.0
 49
0.0
  0
LTYPE
  2
HIDDEN
 70
     0
  3
Hidden __ __ __ __ __ __ __ __ __ __ __ __ __ _
 72
    65
 73
     2
 40
9.5249999999999986
 49
6.349999999999997
 49
-3.174999999999998
  0
LTYPE
  2
AMZIGZAG2
 70
     0
  3
/\/-/\/-/\/-/\/-/\/-/\/
 72
    65
 73
     2
 40
0.4401
 49
0.0001
 49
-0.4400000000000003
  0
LTYPE
  2
ACANSTGB
 70
     0
  3
__ . . __ . .
 72
    65
 73
     6
 40
0.35433070866
 49
0.15748031496
 49
-0.03937007874
 49
0.03937007874
 49
-0.03937007874
 49
0.03937007874
 49
-0.03937007874
  0
LTYPE
  2
ACANSTGL
 70
     0
  3
_ _ _ _ _
 72
    65
 73
     2
 40
0.11811023622
 49
0.07874015748
 49
-0.03937007874
  0
ENDTAB
  0
TABLE
  2
LAYER
 70
     9
  0
LAYER
  2
0
 70
     0
 62
     7
  6
CONTINUOUS
  0
LAYER
  2
240
 70
     0
 62
     4
  6
CONTINUOUS
  0
LAYER
  2
DEFPOINTS
 70
     0
 62
     7
  6
CONTINUOUS
  0
LAYER
  2
245
 70
     0
 62
     2
  6
CENTER2
  0
LAYER
  2
241
 70
     0
 62
   211
  6
CONTINUOUS
  0
LAYER
  2
244
 70
     0
 62
     3
  6
HIDDEN2
  0
LAYER
  2
250
 70
     0
 62
     3
  6
CONTINUOUS
  0
LAYER
  2
247
 70
     0
 62
    60
  6
CONTINUOUS
  0
ENDTAB
  0
TABLE
  2
STYLE
 70
     6
  0
STYLE
  2
STANDARD
 70
     0
 40
0.0
 41
1.0
 50
0.0
 71
     0
 42
3.0
  3
romans.shx
  4
extfont.shx
  0
STYLE
  2
YOKO
 70
     0
 40
0.0
 41
1.0
 50
0.0
 71
     0
 42
3.0
  3
romans.shx
  4
extfont.shx
  0
STYLE
  2
ACANSGDT
 70
     0
 40
0.0
 41
1.0
 50
0.0
 71
     0
 42
3.0
  3
amgdt.shx
  4

  0
ENDTAB
  0
TABLE
  2
VIEW
 70
     0
  0
ENDTAB
  0
TABLE
  2
UCS
 70
     0
  0
ENDTAB
  0
TABLE
  2
APPID
 70
    36
  0
APPID
  2
ACAD
 70
     0
  0
APPID
  2
ACADANNOTATIVE
 70
     0
  0
APPID
  2
GLOBAL
 70
     0
  0
APPID
  2
DETAIL
 70
     0
  0
APPID
  2
GRPNAME
 70
     0
  0
APPID
  2
GPARA
 70
     0
  0
APPID
  2
MCAD_NO_VIS
 70
     0
  0
APPID
  2
ACAD_TEMP_GRAPHIC
 70
     0
  0
APPID
  2
ACATTRIBSERVICES
 70
     0
  0
APPID
  2
GENIUS_GENSCREG_15
 70
     0
  0
APPID
  2
GENIUS_GENODEF_13
 70
     0
  0
APPID
  2
GENIUS_GENOBJ-N-SDF_13
 70
     0
  0
APPID
  2
GENIUS_GENREC_14
 70
     0
  0
APPID
  2
GENIUS_GENOBJ-N-REC_13
 70
     0
  0
APPID
  2
GENIUS_GENDIMSH_14
 70
     0
  0
APPID
  2
GENIUS_GENOBJ-N-DIM_13
 70
     0
  0
APPID
  2
GENIUS_GENDIM_13
 70
     0
  0
APPID
  2
GENIUS_GENDTOL_13
 70
     0
  0
APPID
  2
GENIUS_GENOLIS_13
 70
     0
  0
APPID
  2
GENIUS_GENOENT_13
 70
     0
  0
APPID
  2
GENIUS_GENOBJ-F-FEM_13
 70
     0
  0
APPID
  2
GENIUS_GENOREF_13
 70
     0
  0
APPID
  2
GENIUS_GEFFEM_13
 70
     0
  0
APPID
  2
GENIUS_GEFFEMP_13
 70
     0
  0
APPID
  2
AD_DRAW
 70
     0
  0
APPID
  2
DESIGNERASSEMBLIES
 70
     0
  0
APPID
  2
ACADM_DIM_EDIT
 70
     0
  0
APPID
  2
AMDT_DM_ADJ
 70
     0
  0
APPID
  2
HATCH_TYPE
 70
     0
  0
APPID
  2
HATCH_DISPLAY
 70
     0
  0
APPID
  2
HATCH_DISTANCE
 70
     0
  0
APPID
  2
ACAD_DSTYLE_DIMJAG
 70
     0
  0
APPID
  2
ACAD_DSTYLE_DIMBREAK
 70
     0
  0
APPID
  2
ACAD_NAV_VCDISPLAY
 70
     0
  0
APPID
  2
GENIUS_GENOBJ-N-FIL_13
 70
     0
  0
APPID
  2
ACAD_MLEADERVER
 70
     0
  0
ENDTAB
  0
TABLE
  2
DIMSTYLE
 70
     9
  0
DIMSTYLE
  2
STANDARD
 70
     0
  3

  4

  5

  6

  7

 40
1.0
 41
0.18
 42
0.0625
 43
0.38
 44
0.18
 45
0.0
 46
0.0
 47
0.0
 48
0.0
140
0.18
141
0.09
142
0.0
143
25.399999999999999
144
1.0
145
0.0
146
1.0
147
0.09
 71
     0
 72
     0
 73
     1
 74
     1
 75
     0
 76
     0
 77
     0
 78
     0
170
     0
171
     2
172
     0
173
     0
174
     0
175
     0
176
     0
177
     0
178
     0
  0
DIMSTYLE
  2
BIGT
 70
     0
  3

  4

  5

  6

  7

 40
1.0
 41
2.2299999999999991
 42
0.5
 43
7.0
 44
1.0
 45
0.0
 46
0.0
 47
0.0
 48
0.01
140
2.799999999999998
141
0.0
142
0.0
143
25.399999999999999
144
1.0
145
0.0
146
1.0
147
1.0
 71
     0
 72
     0
 73
     0
 74
     0
 75
     0
 76
     0
 77
     3
 78
     9
170
     0
171
     2
172
     1
173
     0
174
     1
175
     0
176
   256
177
   256
178
    40
  0
DIMSTYLE
  2
AM_ANSI
 70
     0
  3

  4
mm
  5

  6

  7

 40
1.0
 41
0.12
 42
0.05
 43
0.5
 44
0.1
 45
0.0
 46
0.0
 47
0.1
 48
0.1
140
0.12
141
0.0
142
0.0
143
25.399999999999999
144
1.0
145
0.0
146
0.71
147
0.06
 71
     0
 72
     0
 73
     1
 74
     1
 75
     0
 76
     0
 77
     0
 78
     7
170
     0
171
     2
172
     0
173
     0
174
     0
175
     0
176
   256
177
   256
178
     2
  0
DIMSTYLE
  2
AM_ANSI$3
 70
     0
  3

  4
mm
  5

  6

  7

 40
1.0
 41
0.12
 42
0.05
 43
0.5
 44
0.1
 45
0.0
 46
0.0
 47
0.1
 48
0.1
140
0.12
141
0.0
142
0.0
143
25.399999999999999
144
1.0
145
0.0
146
0.71
147
0.06
 71
     0
 72
     0
 73
     1
 74
     1
 75
     0
 76
     0
 77
     0
 78
     7
170
     0
171
     2
172
     0
173
     0
174
     0
175
     0
176
   256
177
   256
178
     2
  0
DIMSTYLE
  2
AM_ANSI$4
 70
     0
  3

  4
mm
  5

  6

  7

 40
1.0
 41
0.12
 42
0.05
 43
0.5
 44
0.1
 45
0.0
 46
0.0
 47
0.1
 48
0.1
140
0.12
141
0.0
142
0.0
143
25.399999999999999
144
1.0
145
0.0
146
0.71
147
0.06
 71
     0
 72
     0
 73
     1
 74
     1
 75
     0
 76
     0
 77
     0
 78
     7
170
     0
171
     2
172
     0
173
     0
174
     0
175
     0
176
   256
177
   256
178
     2
  0
DIMSTYLE
  2
AM_ANSI$7
 70
     0
  3

  4
mm
  5

  6

  7

 40
1.0
 41
0.12
 42
0.05
 43
0.5
 44
0.1
 45
0.0
 46
0.0
 47
0.1
 48
0.1
140
0.12
141
0.0
142
0.0
143
25.399999999999999
144
1.0
145
0.0
146
0.71
147
0.06
 71
     0
 72
     0
 73
     1
 74
     1
 75
     0
 76
     0
 77
     0
 78
     7
170
     0
171
     2
172
     0
173
     0
174
     0
175
     0
176
   256
177
   256
178
     2
  0
DIMSTYLE
  2
AM_ANSI$SF
 70
     0
  3

  4
mm
  5

  6

  7

 40
1.0
 41
0.12
 42
0.05
 43
0.5
 44
0.1
 45
0.0
 46
0.0
 47
0.1
 48
0.1
140
0.12
141
0.0
142
0.0
143
25.399999999999999
144
1.0
145
0.0
146
0.71
147
0.06
 71
     0
 72
     0
 73
     1
 74
     1
 75
     1
 76
     1
 77
     0
 78
     7
170
     0
171
     2
172
     0
173
     0
174
     0
175
     0
176
   256
177
   256
178
     2
  0
DIMSTYLE
  2
AM_ANSI$SH
 70
     0
  3

  4
mm
  5

  6

  7

 40
1.0
 41
0.12
 42
0.05
 43
0.5
 44
0.1
 45
0.0
 46
0.0
 47
0.1
 48
0.1
140
0.12
141
0.0
142
0.0
143
25.399999999999999
144
1.0
145
0.0
146
0.71
147
0.06
 71
     0
 72
     0
 73
     1
 74
     1
 75
     1
 76
     1
 77
     0
 78
     7
170
     0
171
     2
172
     0
173
     1
174
     0
175
     0
176
   256
177
   256
178
     2
  0
ENDTAB
  0
ENDSEC
  0
SECTION
  2
BLOCKS
  0
BLOCK
  8
0
  2
$MODEL_SPACE
 70
     0
 10
0.0
 20
0.0
 30
0.0
  3
$MODEL_SPACE
  1

  0
ENDBLK
  5
20BA
  8
0
  0
BLOCK
 67
     1
  8
0
  2
$PAPER_SPACE
 70
     0
 10
0.0
 20
0.0
 30
0.0
  3
$PAPER_SPACE
  1

  0
ENDBLK
  5
20B6
 67
     1
  8
0
  0
BLOCK
  8
0
  2
_OPEN
 70
     0
 10
0.0
 20
0.0
 30
0.0
  3
_OPEN
  1

  0
LINE
  5
1C73
  8
0
  6
BYBLOCK
 62
     0
 10
-1.0
 20
0.1666666666666666
 30
0.0
 11
0.0
 21
0.0
 31
0.0
  0
LINE
  5
1C74
  8
0
  6
BYBLOCK
 62
     0
 10
-1.0
 20
-0.1666666666666666
 30
0.0
 11
0.0
 21
0.0
 31
0.0
  0
LINE
  5
1C75
  8
0
  6
BYBLOCK
 62
     0
 10
0.0
 20
0.0
 30
0.0
 11
-1.0
 21
0.0
 31
0.0
  0
ENDBLK
  5
1C76
  8
0
  0
BLOCK
  8
0
  2
_ACMFILLEDHALF
 70
     0
 10
0.0
 20
0.0
 30
0.0
  3
_ACMFILLEDHALF
  1

  0
TRACE
  5
1E09
  8
240
 62
     0
 10
-0.8
 20
0.0
 30
0.0
 11
-1.0
 21
0.166666666
 31
0.0
 12
0.0
 22
0.0
 32
0.0
 13
0.0
 23
0.0
 33
0.0
  0
LINE
  5
1E0A
  8
240
 62
     0
 10
-1.0
 20
0.0
 30
0.0
 11
-0.8
 21
0.0
 31
0.0
  0
ENDBLK
  5
1E08
  8
0
  0
ENDSEC
  0
SECTION
  2
ENTITIES
  0
LINE
  5
14F8
  8
240
  6
CONTINUOUS
 10
26.499999999999972
 20
-17.682824023990321
 30
0.0
 11
30.5
 21
-17.682824023990321
 31
0.0
  0
LINE
  5
15B7
  8
240
  6
CONTINUOUS
 10
40.499999999999993
 20
15.49999999999997
 30
0.0
 11
40.499999999999993
 21
-15.70000004576586
 31
0.0
  0
LINE
  5
15B8
  8
240
  6
CONTINUOUS
 10
13.86602520942688
 20
19.50000047683719
 30
0.0
 11
12.99999952316284
 21
17.99999952316287
 31
0.0
  0
LINE
  5
15B9
  8
240
  6
CONTINUOUS
 10
13.0
 20
17.999999999999972
 30
0.0
 11
0.0
 21
17.999999999999972
 31
0.0
  0
LINE
  5
15BA
  8
240
  6
CONTINUOUS
 10
0.0
 20
17.999999999999972
 30
0.0
 11
0.0
 21
-18.0
 31
0.0
  0
LINE
  5
161A
  8
240
  6
CONTINUOUS
 10
0.0
 20
-18.0
 30
0.0
 11
14.67209438086388
 21
-18.0
 31
0.0
  0
LINE
  5
1636
  8
241
  6
CONTINUOUS
 10
15.99999981638372
 20
-15.69999999999999
 30
0.0
 11
37.899999999999977
 21
-15.700000000000021
 31
0.0
  0
LINE
  5
1639
  8
240
  6
CONTINUOUS
 10
22.500000000000028
 20
-17.682824023990321
 30
0.0
 11
26.5
 21
-17.682824023990321
 31
0.0
  0
LINE
  5
163A
  8
240
  6
CONTINUOUS
 10
30.5
 20
-17.682824023990321
 30
0.0
 11
37.899999999999977
 21
-15.700000000000021
 31
0.0
  0
LINE
  5
163B
  8
240
  6
CONTINUOUS
 10
37.899999999999977
 20
-15.69994466261263
 30
0.0
 11
37.899999999999977
 21
-15.69999999999999
 31
0.0
  0
ARC
  5
163C
  8
240
  6
CONTINUOUS
 10
37.324573519457033
 20
17.999999999999972
 30
0.0
 40
1.5
 50
29.999999999999719
 51
90.0
  0
LINE
  5
163D
  8
240
  6
CONTINUOUS
 10
40.499999999999993
 20
15.49999999999997
 30
0.0
 11
38.623611625133677
 21
18.749999999999972
 31
0.0
  0
LINE
  5
163E
  8
240
  6
CONTINUOUS
 10
37.324573519457033
 20
19.5
 30
0.0
 11
36.499999999999972
 21
19.5
 31
0.0
  0
LINE
  5
163F
  8
240
  6
CONTINUOUS
 10
16.49999999999994
 20
19.5
 30
0.0
 11
13.86602540378442
 21
19.5
 31
0.0
  0
LINE
  5
1641
  8
240
  6
CONTINUOUS
 10
22.5
 20
-17.682824023990321
 30
0.0
 11
15.87942271882871
 21
-15.908845688072621
 31
0.0
  0
LINE
  5
1643
  8
240
  6
CONTINUOUS
 10
14.67209438086388
 20
-18.0
 30
0.0
 11
15.87942271882871
 21
-15.90884568807264
 31
0.0
  0
LINE
  5
1644
  8
240
  6
CONTINUOUS
 10
40.499999999999993
 20
-15.70000004576586
 30
0.0
 11
37.899997353419792
 21
-15.700000709149039
 31
0.0
  0
ARC
  5
1645
  8
240
  6
CONTINUOUS
 10
26.500000293812281
 20
36.25584797599295
 30
0.0
 40
19.513032467035501
 50
239.17096817995011
 51
300.82902908797399
  0
LINE
  5
16A2
  8
241
  6
CONTINUOUS
 10
15.99999981638372
 20
-15.69999999999999
 30
0.0
 11
15.87942271882871
 21
-15.90884568807264
 31
0.0
  0
LINE
  5
16AC
  8
245
  6
CENTER2
 10
-3.2543255778787161
 20
0.0
 30
0.0
 11
43.203066709401583
 21
0.0
 31
0.0
  0
LINE
  5
16BD
  8
244
  6
HIDDEN2
 10
0.0
 20
-16.0
 30
0.0
 11
12.0
 21
-16.0
 31
0.0
  0
LINE
  5
16C4
  8
244
  6
HIDDEN2
 10
0.0
 20
16.0
 30
0.0
 11
12.0
 21
16.0
 31
0.0
  0
LINE
  5
1708
  8
244
  6
HIDDEN2
 10
20.503100999282989
 20
-5.0
 30
0.0
 11
40.499999999999993
 21
-5.0
 31
0.0
  0
LINE
  5
170E
  8
244
  6
HIDDEN2
 10
20.503100999282989
 20
5.0
 30
0.0
 11
40.499999999999993
 21
5.0
 31
0.0
  0
TEXT
  5
1815
  8
241
  6
CONTINUOUS
 10
-14.0
 20
49.0
 30
0.0
 40
4.0
  1
EWN2-22ER25
  7
YOKO
  0
LINE
  5
181B
  8
250
  6
CONTINUOUS
 10
-0.5
 20
16.0
 30
0.0
 11
-13.0
 21
16.0
 31
0.0
  0
LINE
  5
181C
  8
250
  6
CONTINUOUS
 10
-0.5
 20
-16.0
 30
0.0
 11
-13.000000000000011
 21
-15.99999999999998
 31
0.0
  0
LINE
  5
181D
  8
250
  6
CONTINUOUS
 10
-12.0
 20
13.77
 30
0.0
 11
-12.000000000000011
 21
-13.77
 31
0.0
  0
LINE
  5
1827
  8
250
  6
CONTINUOUS
 10
0.0
 20
18.499999999999972
 30
0.0
 11
0.0000000000000011
 21
36.0
 31
0.0
  0
LINE
  5
1828
  8
250
  6
CONTINUOUS
 10
40.499999999999993
 20
15.99999999999997
 30
0.0
 11
40.499999999999993
 21
36.0
 31
0.0
  0
LINE
  5
1829
  8
250
  6
CONTINUOUS
 10
2.2299999999999991
 20
35.0
 30
0.0
 11
38.270000000000003
 21
35.0
 31
0.0
  0
LINE
  5
182D
  8
250
  6
CONTINUOUS
 10
41.0
 20
5.0
 30
0.0
 11
53.500000000000007
 21
4.9999999999999929
 31
0.0
  0
LINE
  5
182E
  8
250
  6
CONTINUOUS
 10
41.0
 20
-5.0
 30
0.0
 11
53.500000000000007
 21
-5.0
 31
0.0
  0
LINE
  5
182F
  8
250
  6
CONTINUOUS
 10
52.5
 20
2.769999999999996
 30
0.0
 11
52.5
 21
-2.7700000000000031
 31
0.0
  0
TEXT
  5
1833
  8
250
  6
CONTINUOUS
 10
51.500000000000007
 20
-3.7999999999999909
 30
0.0
 40
2.799999999999998
  1
\U+220510
 50
90.0
  0
LINE
  5
1834
  8
250
  6
CONTINUOUS
 10
52.87166666666667
 20
-2.7700000000000031
 30
0.0
 11
52.5
 21
-5.0
 31
0.0
  0
LINE
  5
1835
  8
250
  6
CONTINUOUS
 10
52.128333333333337
 20
-2.7700000000000031
 30
0.0
 11
52.5
 21
-5.0
 31
0.0
  0
LINE
  5
1836
  8
250
  6
CONTINUOUS
 10
52.5
 20
-5.0
 30
0.0
 11
52.5
 21
-2.7700000000000031
 31
0.0
  0
LINE
  5
1837
  8
250
  6
CONTINUOUS
 10
52.128333333333337
 20
2.769999999999996
 30
0.0
 11
52.5
 21
4.9999999999999929
 31
0.0
  0
LINE
  5
1838
  8
250
  6
CONTINUOUS
 10
52.87166666666667
 20
2.769999999999996
 30
0.0
 11
52.5
 21
4.9999999999999929
 31
0.0
  0
LINE
  5
1839
  8
250
  6
CONTINUOUS
 10
52.5
 20
4.9999999999999929
 30
0.0
 11
52.5
 21
2.769999999999996
 31
0.0
  0
TEXT
  5
183A
  8
250
  6
CONTINUOUS
 10
15.583333333333339
 20
36.0
 30
0.0
 40
2.799999999999998
  1
40.5
  0
LINE
  5
183B
  8
250
  6
CONTINUOUS
 10
38.270000000000003
 20
35.37166666666667
 30
0.0
 11
40.499999999999993
 21
35.0
 31
0.0
  0
LINE
  5
183C
  8
250
  6
CONTINUOUS
 10
38.270000000000003
 20
34.62833333333333
 30
0.0
 11
40.499999999999993
 21
35.0
 31
0.0
  0
LINE
  5
183D
  8
250
  6
CONTINUOUS
 10
40.499999999999993
 20
35.0
 30
0.0
 11
38.270000000000003
 21
35.0
 31
0.0
  0
LINE
  5
183E
  8
250
  6
CONTINUOUS
 10
2.2299999999999991
 20
34.62833333333333
 30
0.0
 11
0.000000000000001
 21
35.0
 31
0.0
  0
LINE
  5
183F
  8
250
  6
CONTINUOUS
 10
2.2299999999999991
 20
35.37166666666667
 30
0.0
 11
0.000000000000001
 21
35.0
 31
0.0
  0
LINE
  5
1840
  8
250
  6
CONTINUOUS
 10
0.000000000000001
 20
35.0
 30
0.0
 11
2.2299999999999991
 21
35.0
 31
0.0
  0
TEXT
  5
1841
  8
250
  6
CONTINUOUS
 10
-13.0
 20
-10.68
 30
0.0
 40
2.799999999999998
  1
M32 X 1.5
 50
90.0
  0
LINE
  5
1842
  8
250
  6
CONTINUOUS
 10
-11.628333333333339
 20
-13.77
 30
0.0
 11
-12.000000000000011
 21
-15.99999999999998
 31
0.0
  0
LINE
  5
1843
  8
250
  6
CONTINUOUS
 10
-12.37166666666667
 20
-13.77
 30
0.0
 11
-12.000000000000011
 21
-15.99999999999998
 31
0.0
  0
LINE
  5
1844
  8
250
  6
CONTINUOUS
 10
-12.000000000000011
 20
-15.99999999999998
 30
0.0
 11
-12.000000000000011
 21
-13.77
 31
0.0
  0
LINE
  5
1845
  8
250
  6
CONTINUOUS
 10
-12.37166666666667
 20
13.77
 30
0.0
 11
-12.0
 21
16.0
 31
0.0
  0
LINE
  5
1846
  8
250
  6
CONTINUOUS
 10
-11.62833333333333
 20
13.77
 30
0.0
 11
-12.0
 21
16.0
 31
0.0
  0
LINE
  5
1847
  8
250
  6
CONTINUOUS
 10
-12.0
 20
16.0
 30
0.0
 11
-12.0
 21
13.77
 31
0.0
  0
LINE
  5
1963
  8
250
  6
CONTINUOUS
 10
13.36602540378442
 20
19.5
 30
0.0
 11
-21.999999999999961
 21
19.500000000000011
 31
0.0
  0
LINE
  5
1964
  8
250
  6
CONTINUOUS
 10
-20.999999999999961
 20
17.27000000000001
 30
0.0
 11
-20.999999999999961
 21
-4.4666666666667298
 31
0.0
  0
TEXT
  5
1967
  8
250
  6
CONTINUOUS
 10
-21.999999999999961
 20
-3.7333333333334
 30
0.0
 40
2.799999999999998
  1
\U+220539
 50
90.0
  0
LINE
  5
1968
  8
250
  6
CONTINUOUS
 10
-21.37166666666662
 20
17.27000000000001
 30
0.0
 11
-20.999999999999961
 21
19.500000000000011
 31
0.0
  0
LINE
  5
1969
  8
250
  6
CONTINUOUS
 10
-20.628333333333291
 20
17.27000000000001
 30
0.0
 11
-20.999999999999961
 21
19.500000000000011
 31
0.0
  0
LINE
  5
196A
  8
250
  6
CONTINUOUS
 10
-20.999999999999961
 20
19.500000000000011
 30
0.0
 11
-20.999999999999961
 21
17.27000000000001
 31
0.0
  0
LINE
  5
1E4D
  8
247
  6
CONTINUOUS
 10
7.0
 20
-13.250000000069999
 30
0.0
 11
7.0
 21
-6.55769230803
 31
0.0
  0
ARC
  5
1E4E
  8
247
  6
CONTINUOUS
 10
5.25000000007
 20
-13.250000000069999
 30
0.0
 40
1.7499999999299991
 50
180.0
 51
0.0
  0
ARC
  5
1E4F
  8
247
  6
CONTINUOUS
 10
5.25000000007
 20
-6.5576923080299991
 30
0.0
 40
1.7499999999299991
 50
0.0
 51
180.0
  0
LINE
  5
1E50
  8
247
  6
CONTINUOUS
 10
3.50000000014
 20
-12.38461538472
 30
0.0
 11
6.50000000002
 21
-13.24485154196201
 31
0.0
  0
LINE
  5
1E51
  8
247
  6
CONTINUOUS
 10
4.92307692316
 20
-11.48498381833582
 30
0.0
 11
4.92307692316
 21
-12.792676125975831
 31
0.0
  0
ARC
  5
1E52
  8
247
  6
CONTINUOUS
 10
4.0495986677029761
 20
-11.14514381608978
 30
0.0
 40
0.5538165441895349
 50
72.99788967529156
 51
172.92416621851231
  0
ARC
  5
1E53
  8
247
  6
CONTINUOUS
 10
3.9360330444657761
 20
-11.56687832302878
 30
0.0
 40
0.9904354236226808
 50
4.7429368522014004
 51
73.849226273267618
1001
GENIUS_GENOBJ-N-FIL_13
1002
{
1000
OWNER
1000
GEN
1002
}
1001
GENIUS_GENODEF_13
1002
{
1000
HIER
1070
     0
1002
}
1002
{
1000
MANEDIT
1070
     0
1002
}
1002
{
1000
NOSEL
1070
     0
1002
}
1002
{
1000
BEHIND
1070
     0
1002
}
1002
{
1000
OTHER
1070
     0
1002
}
1002
{
1000
REACTOR
1002
}
  0
LINE
  5
1E54
  8
247
  6
CONTINUOUS
 10
6.50000000002
 20
-11.93715923432201
 30
0.0
 11
6.50000000002
 21
-13.24485154196201
 31
0.0
  0
LINE
  5
1E55
  8
247
  6
CONTINUOUS
 10
3.50000000014
 20
-12.38461538472
 30
0.0
 11
3.50000000014
 21
-11.07692307708
 31
0.0
  0
ARC
  5
1E56
  8
247
  6
CONTINUOUS
 10
5.4820242326655508
 20
-11.56091963654697
 30
0.0
 40
0.5640818586791229
 50
65.99094165253058
 51
172.26344345906949
  0
ARC
  5
1E57
  8
247
  6
CONTINUOUS
 10
5.4874290391865879
 20
-12.03826268534706
 30
0.0
 40
1.0176059446230981
 50
5.7019851642581356
 51
77.277338436820813
1001
GENIUS_GENOBJ-N-FIL_13
1002
{
1000
OWNER
1000
GEN
1002
}
1001
GENIUS_GENODEF_13
1002
{
1000
HIER
1070
     0
1002
}
1002
{
1000
MANEDIT
1070
     0
1002
}
1002
{
1000
NOSEL
1070
     0
1002
}
1002
{
1000
BEHIND
1070
     0
1002
}
1002
{
1000
OTHER
1070
     0
1002
}
1002
{
1000
REACTOR
1002
}
  0
LINE
  5
1E58
  8
247
  6
CONTINUOUS
 10
6.50000000002
 20
-10.28331308054201
 30
0.0
 11
3.50000000014
 21
-9.4230769233
 31
0.0
  0
LINE
  5
1E59
  8
247
  6
CONTINUOUS
 10
3.50000000014
 20
-7.000000000319992
 30
0.0
 11
3.50000000014
 21
-7.5657366194565929
 31
0.0
  0
LINE
  5
1E5A
  8
247
  6
CONTINUOUS
 10
6.50000000002
 20
-8.4615384618
 30
0.0
 11
6.50000000002
 21
-7.8461538464399982
 31
0.0
  0
ARC
  5
1E5B
  8
247
  6
CONTINUOUS
 10
5.5832851359733811
 20
-6.708791209122853
 30
0.0
 40
2.2526500823422122
 50
202.3594881415269
 51
254.9932485428466
  0
ARC
  5
1E5C
  8
247
  6
CONTINUOUS
 10
4.3083126551945163
 20
-7.3740694792132242
 30
0.0
 40
0.8906723995727782
 50
94.994589319075104
 51
155.16632895730359
1001
GENIUS_GENOBJ-N-FIL_13
1002
{
1000
OWNER
1000
GEN
1002
}
1001
GENIUS_GENODEF_13
1002
{
1000
HIER
1070
     0
1002
}
1002
{
1000
MANEDIT
1070
     0
1002
}
1002
{
1000
NOSEL
1070
     0
1002
}
1002
{
1000
BEHIND
1070
     0
1002
}
1002
{
1000
OTHER
1070
     0
1002
}
1002
{
1000
REACTOR
1002
}
  0
ARC
  5
1E5D
  8
247
  6
CONTINUOUS
 10
5.160145888667758
 20
-8.2264588862125851
 30
0.0
 40
1.392781735586712
 50
15.84609655577923
 51
82.325137004170557
  0
ARC
  5
1E5E
  8
247
  6
CONTINUOUS
 10
5.4592434315272831
 20
-7.6422127258403663
 30
0.0
 40
1.324563662670287
 50
249.71360167049809
 51
321.78874565640768
1001
GENIUS_GENOBJ-N-FIL_13
1002
{
1000
OWNER
1000
GEN
1002
}
1001
GENIUS_GENODEF_13
1002
{
1000
HIER
1070
     0
1002
}
1002
{
1000
MANEDIT
1070
     0
1002
}
1002
{
1000
NOSEL
1070
     0
1002
}
1002
{
1000
BEHIND
1070
     0
1002
}
1002
{
1000
OTHER
1070
     0
1002
}
1002
{
1000
REACTOR
1002
}
  0
LINE
  5
1E5F
  8
247
  6
CONTINUOUS
 10
5.34615384622
 20
-7.5384615387599982
 30
0.0
 11
5.34615384622
 21
-6.8461538464799983
 31
0.0
  0
LINE
  5
1E60
  8
247
  6
CONTINUOUS
 10
3.50000000014
 20
-13.250000000069999
 30
0.0
 11
3.50000000014
 21
-12.57692307702
 31
0.0
  0
VIEWPORT
  5
22
 67
     1
  8
0
 10
261.51769911504419
 20
148.5
 30
0.0
 40
523.0353982300885
 41
297.0
 68
     1
 69
     1
1001
ACAD
1000
MVIEW
1002
{
1070
    16
1010
0.0
1020
0.0
1030
0.0
1010
0.0
1020
0.0
1030
1.0
1040
0.0
1040
297.0
1040
261.51769911504419
1040
148.5
1040
50.0
1040
0.0
1040
0.0
1070
     0
1070
   100
1070
     1
1070
     1
1070
     0
1070
     0
1070
     0
1070
     0
1040
0.0
1040
0.0
1040
0.0
1040
1.0
1040
1.0
1040
10.0
1040
10.0
1070
     0
1002
{
1002
}
1002
}
1001
GENIUS_GENODEF_13
1002
{
1000
HIER
1070
     0
1002
}
1002
{
1000
MANEDIT
1070
     0
1002
}
1002
{
1000
NOSEL
1070
     0
1002
}
1002
{
1000
BEHIND
1070
     0
1002
}
1002
{
1000
OTHER
1070
     0
1002
}
1002
{
1000
REACTOR
1002
}
1001
GENIUS_GENOBJ-N-SDF_13
1002
{
1000
OWNER
1000
GEN
1002
}
1001
GENIUS_GENSCREG_15
1000
PF
1040
1.0
1000
DF
1040
1.0
1000
MIN
1011
0.0
1021
0.0
1031
0.0
1021
0.0
1031
0.0
1000
MAX
1011
523.0353982300885
1021
0.0
1031
0.0
1021
297.0
1031
0.0
1000
FLAGS
1070
     4
  0
ENDSEC
  0
EOF
