  0
SECTION
  2
HEADER
  9
$ACADVER
  1
AC1009
  9
$INSBASE
 10
0.0
 20
0.0
 30
0.0
  9
$EXTMIN
 10
-34.712685671004692
 20
-21.031900787167618
 30
-0.0000000349181948
  9
$EXTMAX
 10
43.004795499594472
 20
54.001118343752182
 30
0.0000000814935747
  9
$LIMMIN
 10
0.0
 20
0.0
  9
$LIMMAX
 10
297.0
 20
210.0
  9
$ORTHOMODE
 70
     1
  9
$REGENMODE
 70
     1
  9
$FILLMODE
 70
     1
  9
$QTEXTMODE
 70
     0
  9
$MIRRTEXT
 70
     1
  9
$DRAGMODE
 70
     2
  9
$LTSCALE
 40
10.0
  9
$OSMODE
 70
  3071
  9
$ATTMODE
 70
     1
  9
$TEXTSIZE
 40
3.0
  9
$TRACEWID
 40
1.0
  9
$TEXTSTYLE
  7
YOKO
  9
$CLAYER
  8
240
  9
$CELTYPE
  6
BYLAYER
  9
$CECOLOR
 62
   256
  9
$DIMSCALE
 40
1.0
  9
$DIMASZ
 40
2.2299999999999991
  9
$DIMEXO
 40
0.5
  9
$DIMDLI
 40
2.5
  9
$DIMRND
 40
0.0
  9
$DIMDLE
 40
0.0
  9
$DIMEXE
 40
1.0
  9
$DIMTP
 40
0.0
  9
$DIMTM
 40
0.0
  9
$DIMTXT
 40
3.0
  9
$DIMCEN
 40
0.0
  9
$DIMTSZ
 40
0.0
  9
$DIMTOL
 70
     0
  9
$DIMLIM
 70
     0
  9
$DIMTIH
 70
     0
  9
$DIMTOH
 70
     0
  9
$DIMSE1
 70
     0
  9
$DIMSE2
 70
     0
  9
$DIMTAD
 70
     3
  9
$DIMZIN
 70
     8
  9
$DIMBLK
  1
OPEN
  9
$DIMASO
 70
     1
  9
$DIMSHO
 70
     1
  9
$DIMPOST
  1

  9
$DIMAPOST
  1

  9
$DIMALT
 70
     0
  9
$DIMALTD
 70
     2
  9
$DIMALTF
 40
25.399999999999999
  9
$DIMLFAC
 40
1.0
  9
$DIMTOFL
 70
     1
  9
$DIMTVP
 40
0.0
  9
$DIMTIX
 70
     0
  9
$DIMSOXD
 70
     0
  9
$DIMSAH
 70
     0
  9
$DIMBLK1
  1

  9
$DIMBLK2
  1

  9
$DIMSTYLE
  2
BIGT
  9
$DIMCLRD
 70
   256
  9
$DIMCLRE
 70
   256
  9
$DIMCLRT
 70
    40
  9
$DIMTFAC
 40
1.0
  9
$DIMGAP
 40
1.0
  9
$LUNITS
 70
     2
  9
$LUPREC
 70
     2
  9
$SKETCHINC
 40
1.0
  9
$FILLETRAD
 40
0.0
  9
$AUNITS
 70
     0
  9
$AUPREC
 70
     3
  9
$MENU
  1
.
  9
$ELEVATION
 40
0.0
  9
$PELEVATION
 40
0.0
  9
$THICKNESS
 40
0.0
  9
$LIMCHECK
 70
     0
  9
$BLIPMODE
 70
     0
  9
$CHAMFERA
 40
10.0
  9
$CHAMFERB
 40
10.0
  9
$SKPOLY
 70
     0
  9
$TDCREATE
 40
2452418.3811205099
  9
$TDUPDATE
 40
2457367.732257396
  9
$TDINDWG
 40
0.0342359028
  9
$TDUSRTIMER
 40
0.0342356944
  9
$USRTIMER
 70
     1
  9
$ANGBASE
 50
0.0
  9
$ANGDIR
 70
     0
  9
$PDMODE
 70
    35
  9
$PDSIZE
 40
-5.0
  9
$PLINEWID
 40
0.0
  9
$COORDS
 70
     1
  9
$SPLFRAME
 70
     0
  9
$SPLINETYPE
 70
     6
  9
$SPLINESEGS
 70
     8
  9
$ATTDIA
 70
     1
  9
$ATTREQ
 70
     1
  9
$HANDLING
 70
     1
  9
$HANDSEED
  5
D33
  9
$SURFTAB1
 70
     6
  9
$SURFTAB2
 70
     6
  9
$SURFTYPE
 70
     6
  9
$SURFU
 70
     6
  9
$SURFV
 70
     6
  9
$UCSNAME
  2

  9
$UCSORG
 10
0.0
 20
0.0
 30
0.0
  9
$UCSXDIR
 10
1.0
 20
0.0
 30
0.0
  9
$UCSYDIR
 10
0.0
 20
1.0
 30
0.0
  9
$PUCSNAME
  2

  9
$PUCSORG
 10
0.0
 20
0.0
 30
0.0
  9
$PUCSXDIR
 10
1.0
 20
0.0
 30
0.0
  9
$PUCSYDIR
 10
0.0
 20
1.0
 30
0.0
  9
$USERI1
 70
     1
  9
$USERI2
 70
     0
  9
$USERI3
 70
     0
  9
$USERI4
 70
     0
  9
$USERI5
 70
     0
  9
$USERR1
 40
0.0
  9
$USERR2
 40
0.0
  9
$USERR3
 40
0.0
  9
$USERR4
 40
0.0
  9
$USERR5
 40
0.0
  9
$WORLDVIEW
 70
     1
  9
$SHADEDGE
 70
     3
  9
$SHADEDIF
 70
    70
  9
$TILEMODE
 70
     1
  9
$MAXACTVP
 70
    16
  9
$PLIMCHECK
 70
     0
  9
$PEXTMIN
 10
1.0000000000000000E+020
 20
1.0000000000000000E+020
 30
1.0000000000000000E+020
  9
$PEXTMAX
 10
-1.0000000000000000E+020
 20
-1.0000000000000000E+020
 30
-1.0000000000000000E+020
  9
$PLIMMIN
 10
0.0
 20
0.0
  9
$PLIMMAX
 10
420.0
 20
297.0
  9
$UNITMODE
 70
     0
  9
$VISRETAIN
 70
     0
  9
$PLINEGEN
 70
     0
  9
$PSLTSCALE
 70
     1
  0
ENDSEC
  0
SECTION
  2
TABLES
  0
TABLE
  2
VPORT
 70
     1
  0
VPORT
  2
*ACTIVE
 70
     0
 10
0.0
 20
0.0
 11
1.0
 21
1.0
 12
4.146054914294889
 22
16.48460877829228
 13
0.0
 23
0.0
 14
7.0
 24
7.0
 15
7.0
 25
7.0
 16
0.0
 26
0.0
 36
1.0
 17
0.0
 27
0.0
 37
0.0
 40
75.51348670272931
 41
1.3814102564102559
 42
50.0
 43
0.0
 44
0.0
 50
0.0
 51
0.0
 71
     0
 72
  2000
 73
     1
 74
     0
 75
     0
 76
     1
 77
     0
 78
     0
  0
ENDTAB
  0
TABLE
  2
LTYPE
 70
    22
  0
LTYPE
  2
CONTINUOUS
 70
     0
  3
Solid line
 72
    65
 73
     0
 40
0.0
  0
LTYPE
  2
CENTER2
 70
     0
  3
___ _ ___ _ ___ _ ___ _ ___ _ ___ _ ___ _ ___ _
 72
    65
 73
     4
 40
1.125
 49
0.75
 49
-0.125
 49
0.125
 49
-0.125
  0
LTYPE
  2
HIDDEN2
 70
     0
  3
_ _ _ _ _ _ _ _ _ _ _ _ _ _ _ _ _ _ _ _ _ _ _ _
 72
    65
 73
     2
 40
0.1875
 49
0.125
 49
-0.0625
  0
LTYPE
  2
HIDDEN
 70
     0
  3
Hidden __ __ __ __ __ __ __ __ __ __ __ __ __ _
 72
    65
 73
     2
 40
9.5249999999999986
 49
6.3499999999999979
 49
-3.174999999999998
  0
LTYPE
  2
PHANTOM2
 70
     0
  3
Phantom (.5x) ___ _ _ ___ _ _ ___ _ _ ___ _ _
 72
    65
 73
     6
 40
31.75
 49
15.875
 49
-3.174999999999998
 49
3.174999999999998
 49
-3.174999999999998
 49
3.174999999999998
 49
-3.174999999999998
  0
LTYPE
  2
CENTER
 70
     0
  3
Center ____ _ ____ _ ____ _ ____ _ ____ _ ____
 72
    65
 73
     4
 40
50.799999999999997
 49
31.75
 49
-6.3499999999999979
 49
6.3499999999999979
 49
-6.3499999999999979
  0
LTYPE
  2
AM_ISO02W050
 70
     0
  3
__ __ __ __ __ __ __ __ __ __ __ __ __ __ __
 72
    65
 73
     2
 40
7.5
 49
6.0
 49
-1.5
  0
LTYPE
  2
AMCONSTR
 70
     0
  3
_______________________
 72
    65
 73
     2
 40
9999.0
 49
9999.0
 49
0.0
  0
LTYPE
  2
AMZIGZAG2
 70
     0
  3
/\/-/\/-/\/-/\/-/\/-/\/
 72
    65
 73
     2
 40
0.4401
 49
0.0001
 49
-0.4400000000000001
  0
LTYPE
  2
ACANSTGB
 70
     0
  3
__ . . __ . .
 72
    65
 73
     6
 40
0.35433070866
 49
0.15748031496
 49
-0.03937007874
 49
0.03937007874
 49
-0.03937007874
 49
0.03937007874
 49
-0.03937007874
  0
LTYPE
  2
ACANSTGL
 70
     0
  3
_ _ _ _ _
 72
    65
 73
     2
 40
0.11811023622
 49
0.07874015748
 49
-0.03937007874
  0
LTYPE
  2
ACJISTGB
 70
     0
  3
__ . . __ . .
 72
    65
 73
     6
 40
9.0
 49
4.0
 49
-1.0
 49
1.0
 49
-1.0
 49
1.0
 49
-1.0
  0
LTYPE
  2
ACJISTGL
 70
     0
  3
_ _ _ _ _
 72
    65
 73
     2
 40
3.0
 49
2.0
 49
-1.0
  0
ENDTAB
  0
TABLE
  2
LAYER
 70
    11
  0
LAYER
  2
0
 70
     0
 62
     7
  6
CONTINUOUS
  0
LAYER
  2
240
 70
     0
 62
     4
  6
CONTINUOUS
  0
LAYER
  2
241
 70
     0
 62
   211
  6
CONTINUOUS
  0
LAYER
  2
242
 70
     0
 62
     3
  6
CONTINUOUS
  0
LAYER
  2
245
 70
     0
 62
     2
  6
CENTER2
  0
LAYER
  2
247
 70
     0
 62
    60
  6
CONTINUOUS
  0
LAYER
  2
250
 70
     0
 62
     3
  6
CONTINUOUS
  0
LAYER
  2
DEFPOINTS
 70
     0
 62
     7
  6
CONTINUOUS
  0
LAYER
  2
243
 70
     0
 62
   211
  6
HIDDEN2
  0
ENDTAB
  0
TABLE
  2
STYLE
 70
    11
  0
STYLE
  2
STANDARD
 70
     0
 40
0.0
 41
1.0
 50
0.0
 71
     0
 42
3.0
  3
romans.shx
  4
BIGFONT.SHX
  0
STYLE
  2
YOKO
 70
     0
 40
0.0
 41
1.0
 50
0.0
 71
     0
 42
3.0
  3
romans.shx
  4
extfont.shx
  0
STYLE
  2

 70
     1
 40
0.0
 41
1.0
 50
0.0
 71
     0
 42
3.0
  3
genltshp.shx
  4

  0
STYLE
  2
ACANSGDT
 70
     0
 40
0.0
 41
1.0
 50
0.0
 71
     0
 42
3.0
  3
amgdt.shx
  4

  0
STYLE
  2
ACJISTS
 70
     0
 40
1.0
 41
1.0
 50
0.0
 71
     0
 42
3.0
  3
amgdt.shx
  4
extfont.shx
  0
STYLE
  2
ACJISGDT
 70
     0
 40
0.0
 41
1.0
 50
0.0
 71
     0
 42
3.0
  3
amgdt.shx
  4
extfont.shx
  0
ENDTAB
  0
TABLE
  2
VIEW
 70
     0
  0
ENDTAB
  0
TABLE
  2
UCS
 70
     0
  0
ENDTAB
  0
TABLE
  2
APPID
 70
    27
  0
APPID
  2
ACAD
 70
     0
  0
APPID
  2
ACADANNOTATIVE
 70
     0
  0
APPID
  2
GLOBAL
 70
     0
  0
APPID
  2
DETAIL
 70
     0
  0
APPID
  2
GRPNAME
 70
     0
  0
APPID
  2
GPARA
 70
     0
  0
APPID
  2
ITEMNAME
 70
     0
  0
APPID
  2
HATCH_TYPE
 70
     0
  0
APPID
  2
HATCH_DISPLAY
 70
     0
  0
APPID
  2
HATCH_DISTANCE
 70
     0
  0
APPID
  2
MCAD_NO_VIS
 70
     0
  0
APPID
  2
ACAD_TEMP_GRAPHIC
 70
     0
  0
APPID
  2
AD_DRAW
 70
     0
  0
APPID
  2
ACATTRIBSERVICES
 70
     0
  0
APPID
  2
DESIGNERASSEMBLIES
 70
     0
  0
APPID
  2
ACADM_DIM_EDIT
 70
     0
  0
APPID
  2
AMDT_DM_ADJ
 70
     0
  0
APPID
  2
GENIUS_GENSCREG_15
 70
     0
  0
APPID
  2
GENIUS_GENOBJ-N-SDF_13
 70
     0
  0
APPID
  2
GENIUS_GENODEF_13
 70
     0
  0
APPID
  2
ACAD_DSTYLE_DIMJAG
 70
     0
  0
APPID
  2
ACAD_DSTYLE_DIMBREAK
 70
     0
  0
APPID
  2
ACAD_NAV_VCDISPLAY
 70
     0
  0
APPID
  2
ACAD_EXEMPT_FROM_CAD_STANDARDS
 70
     0
  0
APPID
  2
GENIUS_GENOBJ-N-FIL_13
 70
     0
  0
APPID
  2
ACAECLAYERSTANDARD
 70
     0
  0
APPID
  2
ACAD_MLEADERVER
 70
     0
  0
ENDTAB
  0
TABLE
  2
DIMSTYLE
 70
    26
  0
DIMSTYLE
  2
STANDARD
 70
     0
  3

  4

  5

  6

  7

 40
1.0
 41
0.18
 42
0.0625
 43
0.38
 44
0.18
 45
0.0
 46
0.0
 47
0.0
 48
0.0
140
0.18
141
0.09
142
0.0
143
25.399999999999999
144
1.0
145
0.0
146
1.0
147
0.09
 71
     0
 72
     0
 73
     1
 74
     1
 75
     0
 76
     0
 77
     0
 78
     0
170
     0
171
     2
172
     0
173
     0
174
     0
175
     0
176
     0
177
     0
178
     0
  0
DIMSTYLE
  2
BIGT
 70
     0
  3

  4

  5

  6

  7

 40
1.0
 41
2.2299999999999991
 42
0.5
 43
2.5
 44
1.0
 45
0.0
 46
0.0
 47
0.0
 48
0.0
140
3.5
141
0.0
142
0.0
143
25.399999999999999
144
1.0
145
0.0
146
1.0
147
1.0
 71
     0
 72
     0
 73
     0
 74
     0
 75
     0
 76
     0
 77
     3
 78
     9
170
     0
171
     2
172
     1
173
     0
174
     0
175
     0
176
   256
177
   256
178
    40
  0
DIMSTYLE
  2
AM_ANSI
 70
     0
  3

  4
mm
  5

  6

  7

 40
1.0
 41
0.12
 42
0.05
 43
0.5
 44
0.1
 45
0.0
 46
0.0
 47
0.1
 48
0.1
140
0.12
141
0.0
142
0.0
143
25.399999999999999
144
1.0
145
0.0
146
0.71
147
0.06
 71
     0
 72
     0
 73
     1
 74
     1
 75
     0
 76
     0
 77
     0
 78
     7
170
     0
171
     2
172
     0
173
     0
174
     0
175
     0
176
   256
177
   256
178
     2
  0
DIMSTYLE
  2
AM_ANSI$3
 70
     0
  3

  4
mm
  5

  6

  7

 40
1.0
 41
0.12
 42
0.05
 43
0.5
 44
0.1
 45
0.0
 46
0.0
 47
0.1
 48
0.1
140
0.12
141
0.0
142
0.0
143
25.399999999999999
144
1.0
145
0.0
146
0.71
147
0.06
 71
     0
 72
     0
 73
     1
 74
     1
 75
     0
 76
     0
 77
     0
 78
     7
170
     0
171
     2
172
     0
173
     0
174
     0
175
     0
176
   256
177
   256
178
     2
  0
DIMSTYLE
  2
AM_ANSI$4
 70
     0
  3

  4
mm
  5

  6

  7

 40
1.0
 41
0.12
 42
0.05
 43
0.5
 44
0.1
 45
0.0
 46
0.0
 47
0.1
 48
0.1
140
0.12
141
0.0
142
0.0
143
25.399999999999999
144
1.0
145
0.0
146
0.71
147
0.06
 71
     0
 72
     0
 73
     1
 74
     1
 75
     0
 76
     0
 77
     0
 78
     7
170
     0
171
     2
172
     0
173
     0
174
     0
175
     0
176
   256
177
   256
178
     2
  0
DIMSTYLE
  2
AM_ANSI$7
 70
     0
  3

  4
mm
  5

  6

  7

 40
1.0
 41
0.12
 42
0.05
 43
0.5
 44
0.1
 45
0.0
 46
0.0
 47
0.1
 48
0.1
140
0.12
141
0.0
142
0.0
143
25.399999999999999
144
1.0
145
0.0
146
0.71
147
0.06
 71
     0
 72
     0
 73
     1
 74
     1
 75
     0
 76
     0
 77
     0
 78
     7
170
     0
171
     2
172
     0
173
     0
174
     0
175
     0
176
   256
177
   256
178
     2
  0
DIMSTYLE
  2
AM_ANSI$SF
 70
     0
  3

  4
mm
  5

  6

  7

 40
1.0
 41
0.12
 42
0.05
 43
0.5
 44
0.1
 45
0.0
 46
0.0
 47
0.1
 48
0.1
140
0.12
141
0.0
142
0.0
143
25.399999999999999
144
1.0
145
0.0
146
0.71
147
0.06
 71
     0
 72
     0
 73
     1
 74
     1
 75
     1
 76
     1
 77
     0
 78
     7
170
     0
171
     2
172
     0
173
     0
174
     0
175
     0
176
   256
177
   256
178
     2
  0
DIMSTYLE
  2
AM_ANSI$SH
 70
     0
  3

  4
mm
  5

  6
GENAXEH
  7

 40
1.0
 41
0.12
 42
0.05
 43
0.5
 44
0.1
 45
0.0
 46
0.0
 47
0.1
 48
0.1
140
0.12
141
0.0
142
0.0
143
25.399999999999999
144
1.0
145
0.0
146
0.71
147
0.06
 71
     0
 72
     0
 73
     1
 74
     1
 75
     1
 76
     1
 77
     0
 78
     7
170
     0
171
     2
172
     0
173
     1
174
     0
175
     0
176
   256
177
   256
178
     2
  0
DIMSTYLE
  2
BIGT$2
 70
     0
  3

  4

  5
OPEN
  6

  7

 40
1.0
 41
2.2299999999999991
 42
0.5
 43
7.0
 44
1.0
 45
0.0
 46
0.0
 47
0.0
 48
0.01
140
2.7999999999999989
141
0.0
142
0.0
143
25.399999999999999
144
1.0
145
0.0
146
1.0
147
1.0
 71
     0
 72
     0
 73
     0
 74
     0
 75
     0
 76
     0
 77
     3
 78
     9
170
     0
171
     2
172
     1
173
     0
174
     0
175
     0
176
   256
177
   256
178
    40
  0
DIMSTYLE
  2
BIGT$3
 70
     0
  3

  4

  5
OPEN
  6

  7

 40
1.0
 41
2.2299999999999991
 42
0.5
 43
2.5
 44
1.0
 45
0.0
 46
0.0
 47
0.0
 48
0.01
140
2.7999999999999989
141
0.0
142
0.0
143
25.399999999999999
144
1.0
145
0.0
146
1.0
147
1.0
 71
     0
 72
     0
 73
     0
 74
     0
 75
     0
 76
     0
 77
     3
 78
     9
170
     0
171
     2
172
     1
173
     0
174
     0
175
     0
176
   256
177
   256
178
    40
  0
DIMSTYLE
  2
BIGT$7
 70
     0
  3

  4

  5
OPEN
  6

  7

 40
0.0
 41
2.2299999999999991
 42
0.5
 43
7.0
 44
1.0
 45
0.0
 46
0.0
 47
0.0
 48
0.01
140
2.7999999999999989
141
0.0
142
0.0
143
25.399999999999999
144
1.0
145
0.0
146
1.0
147
1.0
 71
     0
 72
     0
 73
     0
 74
     0
 75
     0
 76
     0
 77
     3
 78
     9
170
     0
171
     2
172
     0
173
     0
174
     0
175
     0
176
   256
177
   256
178
    40
  0
DIMSTYLE
  2
BIGT$6
 70
     0
  3

  4

  5
OPEN
  6

  7

 40
1.0
 41
2.2299999999999991
 42
0.5
 43
2.5
 44
1.0
 45
0.0
 46
0.0
 47
0.0
 48
0.01
140
2.7999999999999989
141
0.0
142
0.0
143
25.399999999999999
144
1.0
145
0.0
146
1.0
147
1.0
 71
     0
 72
     0
 73
     0
 74
     0
 75
     0
 76
     0
 77
     3
 78
     9
170
     0
171
     2
172
     1
173
     0
174
     0
175
     0
176
   256
177
   256
178
    40
  0
DIMSTYLE
  2
BIGT$0
 70
     0
  3

  4

  5
OPEN
  6

  7

 40
1.0
 41
2.2299999999999991
 42
0.5
 43
7.0
 44
1.0
 45
0.0
 46
0.0
 47
0.0
 48
0.01
140
2.7999999999999989
141
0.0
142
0.0
143
25.399999999999999
144
1.0
145
0.0
146
1.0
147
1.0
 71
     0
 72
     0
 73
     0
 74
     0
 75
     0
 76
     0
 77
     3
 78
     9
170
     0
171
     2
172
     1
173
     0
174
     1
175
     0
176
   256
177
   256
178
    40
  0
DIMSTYLE
  2
BIGT$4
 70
     0
  3

  4

  5
OPEN
  6

  7

 40
1.0
 41
2.2299999999999991
 42
0.5
 43
2.5
 44
1.0
 45
0.0
 46
0.0
 47
0.0
 48
0.01
140
2.7999999999999989
141
0.0
142
0.0
143
25.399999999999999
144
1.0
145
0.0
146
1.0
147
1.0
 71
     0
 72
     0
 73
     0
 74
     0
 75
     0
 76
     0
 77
     3
 78
     9
170
     0
171
     2
172
     1
173
     0
174
     0
175
     0
176
   256
177
   256
178
    40
  0
DIMSTYLE
  2
BIGT$SH
 70
     0
  3

  4

  5
OPEN
  6

  7

 40
1.0
 41
2.2299999999999991
 42
0.5
 43
7.0
 44
1.0
 45
0.0
 46
0.0
 47
0.0
 48
0.0
140
2.7999999999999989
141
0.0
142
0.0
143
25.399999999999999
144
1.0
145
0.0
146
1.0
147
1.0
 71
     0
 72
     0
 73
     0
 74
     0
 75
     0
 76
     0
 77
     3
 78
     9
170
     0
171
     2
172
     1
173
     0
174
     0
175
     0
176
   256
177
   256
178
    40
  0
DIMSTYLE
  2
BIGT$SF
 70
     0
  3

  4

  5
OPEN
  6

  7

 40
1.0
 41
2.2299999999999991
 42
0.5
 43
7.0
 44
1.0
 45
0.0
 46
0.0
 47
0.0
 48
0.0
140
2.7999999999999989
141
0.0
142
0.0
143
25.399999999999999
144
1.0
145
0.0
146
1.0
147
1.0
 71
     0
 72
     0
 73
     0
 74
     0
 75
     0
 76
     0
 77
     3
 78
     9
170
     0
171
     2
172
     1
173
     0
174
     0
175
     0
176
   256
177
   256
178
    40
  0
ENDTAB
  0
ENDSEC
  0
SECTION
  2
BLOCKS
  0
BLOCK
  8
0
  2
$MODEL_SPACE
 70
     0
 10
0.0
 20
0.0
 30
0.0
  3
$MODEL_SPACE
  1

  0
ENDBLK
  5
AA1
  8
0
  0
BLOCK
 67
     1
  8
0
  2
$PAPER_SPACE
 70
     0
 10
0.0
 20
0.0
 30
0.0
  3
$PAPER_SPACE
  1

  0
ENDBLK
  5
A9D
 67
     1
  8
0
  0
BLOCK
  8
0
  2
_OPEN
 70
     0
 10
0.0
 20
0.0
 30
0.0
  3
_OPEN
  1

  0
LINE
  5
595
  8
0
  6
BYBLOCK
 62
     0
 10
-1.0
 20
0.1666666666666666
 30
0.0
 11
0.0
 21
0.0
 31
0.0
  0
LINE
  5
596
  8
0
  6
BYBLOCK
 62
     0
 10
-1.0
 20
-0.1666666666666666
 30
0.0
 11
0.0
 21
0.0
 31
0.0
  0
LINE
  5
597
  8
0
  6
BYBLOCK
 62
     0
 10
0.0
 20
0.0
 30
0.0
 11
-1.0
 21
0.0
 31
0.0
  0
ENDBLK
  5
599
  8
0
  0
BLOCK
  8
0
  2
GENAXEH
 70
     0
 10
0.0
 20
0.0
 30
0.0
  3
GENAXEH
  1

  0
LINE
  5
98A
  8
0
 10
-1.0
 20
0.0
 30
0.0
 11
1.0
 21
0.0
 31
0.0
  0
ENDBLK
  5
98C
  8
0
  0
BLOCK
  8
0
  2
_ACMFILLEDHALF
 70
     0
 10
0.0
 20
0.0
 30
0.0
  3
_ACMFILLEDHALF
  1

  0
TRACE
  5
B4D
  8
240
 62
     0
 10
-0.8
 20
0.0
 30
0.0
 11
-1.0
 21
0.166666666
 31
0.0
 12
0.0
 22
0.0
 32
0.0
 13
0.0
 23
0.0
 33
0.0
  0
LINE
  5
B4E
  8
240
 62
     0
 10
-1.0
 20
0.0
 30
0.0
 11
-0.8
 21
0.0
 31
0.0
  0
ENDBLK
  5
B4C
  8
0
  0
ENDSEC
  0
SECTION
  2
ENTITIES
  0
LINE
  5
769
  8
250
  6
CONTINUOUS
 10
-20.549584863797119
 20
-21.017801440184989
 30
0.0
 11
-34.692442006654261
 21
-21.017801440184989
 31
0.0
1001
ITEMNAME
1000
LNSP2
  0
TEXT
  5
805
  8
241
 10
-28.0
 20
49.0
 30
0.0
 40
5.0
  1
EWN2-22CK4
  7
YOKO
 11
-28.0
 21
49.0
 31
0.0
 73
     1
  0
TEXT
  5
99D
  8
250
  6
CONTINUOUS
 10
-32.121013435225692
 20
-20.017801440184989
 30
0.0
 40
3.0
  1
CK4
  7
YOKO
1001
ITEMNAME
1000
LNSP3
1001
ACAD
1000
MTEXTBEGIN
1070
    73
1070
     1
1070
    44
1040
1.0
1070
    74
1070
     0
1000
MTEXTEND
  0
LINE
  5
99E
  8
250
  6
CONTINUOUS
 10
29.00000000000718
 20
-5.0
 30
0.0
 11
43.0
 21
-5.0000000000000044
 31
0.0
  0
LINE
  5
99F
  8
250
  6
CONTINUOUS
 10
29.000000000003219
 20
5.0000000000000124
 30
0.0
 11
43.0
 21
5.0000000000000071
 31
0.0
  0
LINE
  5
9A0
  8
250
  6
CONTINUOUS
 10
42.0
 20
-2.770000000000004
 30
0.0
 11
42.0
 21
2.770000000000008
 31
0.0
  0
LINE
  5
9A4
  8
250
  6
CONTINUOUS
 10
-0.0000000000022453
 20
19.802320451220421
 30
0.0
 11
-0.0000000000022443
 21
36.0
 31
0.0
  0
LINE
  5
9A5
  8
250
  6
CONTINUOUS
 10
28.499999999999119
 20
15.99999999999843
 30
0.0
 11
28.499999999999119
 21
36.0
 31
0.0
  0
LINE
  5
9A6
  8
250
  6
CONTINUOUS
 10
2.2299999999977551
 20
35.0
 30
0.0
 11
26.269999999999129
 21
35.0
 31
0.0
  0
TEXT
  5
9AA
  8
250
  6
CONTINUOUS
 10
9.2499999999984386
 20
36.0
 30
0.0
 40
3.0
  1
28.5
1001
ACAD
1000
MTEXTBEGIN
1070
    73
1070
     1
1070
    44
1040
1.0
1070
    74
1070
     0
1000
MTEXTEND
  0
LINE
  5
9AB
  8
250
  6
CONTINUOUS
 10
26.269999999999129
 20
35.37166666666667
 30
0.0
 11
28.499999999999119
 21
35.0
 31
0.0
  0
LINE
  5
9AC
  8
250
  6
CONTINUOUS
 10
26.269999999999129
 20
34.62833333333333
 30
0.0
 11
28.499999999999119
 21
35.0
 31
0.0
  0
LINE
  5
9AD
  8
250
  6
CONTINUOUS
 10
28.499999999999119
 20
35.0
 30
0.0
 11
26.269999999999129
 21
35.0
 31
0.0
  0
LINE
  5
9AE
  8
250
  6
CONTINUOUS
 10
2.2299999999977529
 20
34.62833333333333
 30
0.0
 11
-0.0000000000022443
 21
35.0
 31
0.0
  0
LINE
  5
9AF
  8
250
  6
CONTINUOUS
 10
2.2299999999977529
 20
35.371666666666663
 30
0.0
 11
-0.0000000000022443
 21
35.0
 31
0.0
  0
LINE
  5
9B0
  8
250
  6
CONTINUOUS
 10
-0.0000000000022443
 20
35.0
 30
0.0
 11
2.2299999999977529
 21
35.0
 31
0.0
  0
TEXT
  5
9B1
  8
250
  6
CONTINUOUS
 10
41.0
 20
-4.0714285714285614
 30
0.0
 40
3.0
  1
\U+2205
 50
90.0
1001
ACAD
1000
MTEXTBEGIN
1070
    73
1070
     1
1070
    44
1040
1.0
1070
    74
1070
     0
1000
MTEXTEND
  0
TEXT
  5
9B2
  8
250
  6
CONTINUOUS
 10
41.0
 20
-1.3571428571428461
 30
0.0
 40
3.0
  1
10
 50
90.0
1001
ACAD
1000
MTEXTBEGIN
1070
    73
1070
     1
1070
    44
1040
1.0
1070
    74
1070
     0
1000
MTEXTEND
  0
LINE
  5
9B3
  8
250
  6
CONTINUOUS
 10
41.62833333333333
 20
2.7700000000000089
 30
0.0
 11
42.0
 21
5.000000000000008
 31
0.0
  0
LINE
  5
9B4
  8
250
  6
CONTINUOUS
 10
42.371666666666663
 20
2.7700000000000089
 30
0.0
 11
42.0
 21
5.000000000000008
 31
0.0
  0
LINE
  5
9B5
  8
250
  6
CONTINUOUS
 10
42.0
 20
5.000000000000008
 30
0.0
 11
42.0
 21
2.7700000000000089
 31
0.0
  0
LINE
  5
9B6
  8
250
  6
CONTINUOUS
 10
42.371666666666663
 20
-2.7700000000000031
 30
0.0
 11
42.0
 21
-5.0000000000000009
 31
0.0
  0
LINE
  5
9B7
  8
250
  6
CONTINUOUS
 10
41.628333333333337
 20
-2.7700000000000031
 30
0.0
 11
42.0
 21
-5.0000000000000009
 31
0.0
  0
LINE
  5
9B8
  8
250
  6
CONTINUOUS
 10
42.0
 20
-5.0000000000000009
 30
0.0
 11
42.0
 21
-2.7700000000000031
 31
0.0
  0
LINE
  5
9B9
  8
250
  6
CONTINUOUS
 10
-15.88080450561807
 20
-12.93123665043929
 30
0.0
 11
-20.549584863797119
 21
-21.017801440184989
 31
0.0
1001
ACAD
1000
DSTYLE
1002
{
1070
     6
1000
OPEN
1070
    78
1070
     8
1070
   140
1040
3.0
1070
   173
1070
     1
1002
}
  0
LINE
  5
9BA
  8
250
  6
CONTINUOUS
 10
-16.20267728069129
 20
-12.745403317105961
 30
0.0
 11
-14.765804505618069
 21
-11.0
 31
0.0
  0
LINE
  5
9BB
  8
250
  6
CONTINUOUS
 10
-15.55893173054486
 20
-13.11706998377263
 30
0.0
 11
-14.765804505618069
 21
-11.0
 31
0.0
  0
LINE
  5
9BC
  8
250
  6
CONTINUOUS
 10
-14.765804505618069
 20
-11.0
 30
0.0
 11
-15.88080450561807
 21
-12.93123665043929
 31
0.0
  0
LINE
  5
B6C
  8
240
  6
CONTINUOUS
 10
-24.0
 20
10.99999999999998
 30
0.0
 11
0.0000000000001421
 21
11.00000000000008
 31
0.0
  0
LINE
  5
B6D
  8
240
  6
CONTINUOUS
 10
-24.0
 20
-10.99999999999998
 30
0.0
 11
-0.0000000000001421
 21
-11.00000000000008
 31
0.0
  0
LINE
  5
B6E
  8
245
  6
CENTER2
 10
30.756008508691629
 20
-0.0000000000000142
 30
0.0
 11
-25.586019318584491
 21
0.0
 31
0.0
1001
GRPNAME
1000
PASTMD02
  0
LINE
  5
B6F
  8
245
  6
CENTER2
 10
-9.9999999999999005
 20
4.845668000000015
 30
0.0
 11
-9.9999999999999005
 21
-5.0356910000000141
 31
0.0
  0
LINE
  5
B72
  8
240
  6
CONTINUOUS
 10
-24.0
 20
-10.99999999999998
 30
0.0
 11
-24.0
 21
10.99999999999998
 31
0.0
  0
CIRCLE
  5
B79
  8
241
  6
CONTINUOUS
 10
-9.9999999999999005
 20
0.0
 30
0.0
 40
3.0
  0
CIRCLE
  5
B7A
  8
241
  6
CONTINUOUS
 10
-9.9999999999999005
 20
0.0
 30
0.0
 40
4.046999999999997
  0
LINE
  5
B7F
  8
241
  6
CONTINUOUS
 10
26.190598923239609
 20
19.499999999997399
 30
0.0
 11
26.190598923239609
 21
-15.700000000010711
 31
0.0
  0
LINE
  5
B80
  8
240
  6
CONTINUOUS
 10
28.499999999999119
 20
15.49999999999843
 30
0.0
 11
28.500000000011489
 21
-15.700000000010711
 31
0.0
1001
GRPNAME
1000
PASTMD02
  0
LINE
  5
B81
  8
240
  6
CONTINUOUS
 10
0.0000000000129399
 20
-19.500000000012768
 30
0.0
 11
0.0000000000108713
 21
-11.000000000000041
 31
0.0
1001
GRPNAME
1000
PASTMD02
  0
LINE
  5
B82
  8
240
  6
CONTINUOUS
 10
25.949999999997019
 20
-15.700000000010711
 30
0.0
 11
18.112693304100731
 21
-17.80000000000453
 31
0.0
1001
GRPNAME
1000
PASTMD04
  0
LINE
  5
B83
  8
241
  6
CONTINUOUS
 10
25.949999999997019
 20
-15.700000000010711
 30
0.0
 11
4.0000000000118341
 21
-15.700000000010711
 31
0.0
  0
LINE
  5
B84
  8
240
  6
CONTINUOUS
 10
18.112693304100731
 20
-17.80000000000453
 30
0.0
 11
10.887306695890031
 21
-17.799999999998722
 31
0.0
1001
GRPNAME
1000
PASTMD04
  0
LINE
  5
B86
  8
240
  6
CONTINUOUS
 10
10.887306695890031
 20
-17.799999999998722
 30
0.0
 11
3.8815308714235131
 21
-15.9228080254735
 31
0.0
1001
GRPNAME
1000
PASTMD04
  0
LINE
  5
B87
  8
240
  6
CONTINUOUS
 10
3.8815308714235131
 20
-15.9228080254735
 30
0.0
 11
1.9795041596994281
 21
-19.500000000012129
 31
0.0
1001
GRPNAME
1000
PASTMD02
  0
LINE
  5
B89
  8
240
  6
CONTINUOUS
 10
1.9795041596994281
 20
-19.500000000012129
 30
0.0
 11
0.0000000000129399
 21
-19.500000000012768
 31
0.0
1001
GRPNAME
1000
PASTMD02
  0
LINE
  5
B8D
  8
240
  6
CONTINUOUS
 10
28.500000000011489
 20
-15.700000000010711
 30
0.0
 11
25.949999999997019
 21
-15.700000000010711
 31
0.0
1001
GRPNAME
1000
PASTMD04
  0
LINE
  5
B8F
  8
243
  6
HIDDEN2
 10
28.500000000007169
 20
-5.0
 30
0.0
 11
7.9398719871698553
 21
-5.0
 31
0.0
  0
LINE
  5
B90
  8
243
  6
HIDDEN2
 10
28.500000000003219
 20
5.0000000000000124
 30
0.0
 11
7.9398719871698509
 21
4.9999999999999893
 31
0.0
  0
LINE
  5
B92
  8
241
  6
CONTINUOUS
 10
0.0
 20
0.0
 30
0.0
 11
0.0000000000001421
 21
11.00000000000008
 31
0.0
  0
LINE
  5
B93
  8
241
  6
CONTINUOUS
 10
0.0
 20
0.0
 30
0.0
 11
-0.0000000000001421
 21
-11.00000000000008
 31
0.0
  0
LINE
  5
B96
  8
241
  6
CONTINUOUS
 10
15.999999999998209
 20
0.8660254037689547
 30
0.0
 11
14.499999999998209
 21
1.732050807553454
 31
0.0
  0
LINE
  5
B97
  8
241
  6
CONTINUOUS
 10
14.499999999998209
 20
-1.732050807584224
 30
0.0
 11
15.999999999998209
 21
-0.866025403799835
 31
0.0
  0
CIRCLE
  5
B98
  8
241
  6
CONTINUOUS
 10
14.500000000005331
 20
-0.0000000000071338
 30
0.0
 40
3.1000000000000001
1001
GRPNAME
1000
PASTMD02
  0
CIRCLE
  5
B99
  8
242
  6
CONTINUOUS
 10
14.500000000005331
 20
-0.0000000000071338
 30
0.0
 40
2.683669472668782
1001
GRPNAME
1000
PASTMD02
  0
LINE
  5
B9A
  8
241
  6
CONTINUOUS
 10
15.999999999998209
 20
0.8660254037689547
 30
0.0
 11
15.999999999998209
 21
-0.866025403799835
 31
0.0
  0
LINE
  5
B9B
  8
241
  6
CONTINUOUS
 10
12.999999999998209
 20
0.8660254037690631
 30
0.0
 11
12.999999999998209
 21
-0.866025403799835
 31
0.0
  0
LINE
  5
B9C
  8
241
  6
CONTINUOUS
 10
14.499999999998209
 20
-1.732050807584224
 30
0.0
 11
12.999999999998209
 21
-0.866025403799835
 31
0.0
  0
LINE
  5
B9D
  8
241
  6
CONTINUOUS
 10
12.999999999998209
 20
0.8660254037690631
 30
0.0
 11
14.499999999998209
 21
1.732050807553454
 31
0.0
  0
LINE
  5
B9E
  8
240
  6
CONTINUOUS
 10
26.190598923239168
 20
19.499999999997399
 30
0.0
 11
-0.0000000000024372
 21
19.499999999988351
 31
0.0
1001
GRPNAME
1000
PASTMD02
  0
LINE
  5
BA1
  8
240
  6
CONTINUOUS
 10
-0.0000000000024371
 20
19.499999999988351
 30
0.0
 11
0.0000000000008242
 21
11.00000000000005
 31
0.0
1001
GRPNAME
1000
PASTMD02
  0
LINE
  5
C08
  8
240
  6
CONTINUOUS
 10
26.190598923239168
 20
19.499999999997399
 30
0.0
 11
28.499999999999119
 21
15.49999999999843
 31
0.0
1001
GRPNAME
1000
PASTMD02
  0
LINE
  5
C12
  8
241
  6
CONTINUOUS
 10
3.8815308714235131
 20
-15.9228080254735
 30
0.0
 11
4.0000000000118341
 21
-15.700000000010711
 31
0.0
  0
LINE
  5
C85
  8
245
  6
CENTER2
 10
14.500000000005331
 20
3.993222969969338
 30
0.0
 11
14.500000000005331
 21
-3.819197779520294
 31
0.0
  0
LINE
  5
CB7
  8
247
  6
CONTINUOUS
 10
7.0000000000112834
 20
-10.95000000008071
 30
0.0
 11
7.0000000000112852
 21
-4.257692308040709
 31
0.0
  0
ARC
  5
CB8
  8
247
  6
CONTINUOUS
 10
5.2500000000812843
 20
-10.95000000008071
 30
0.0
 40
1.7499999999299991
 50
180.0
 51
0.0
  0
ARC
  5
CB9
  8
247
  6
CONTINUOUS
 10
5.2500000000812861
 20
-4.257692308040709
 30
0.0
 40
1.7499999999299991
 50
0.0
 51
180.0
  0
LINE
  5
CBA
  8
247
  6
CONTINUOUS
 10
3.500000000151283
 20
-10.084615384730711
 30
0.0
 11
6.5000000000312834
 21
-10.94485154197271
 31
0.0
  0
LINE
  5
CBB
  8
247
  6
CONTINUOUS
 10
4.9230769231712852
 20
-9.1849838183465362
 30
0.0
 11
4.9230769231712852
 21
-10.492676125986531
 31
0.0
  0
ARC
  5
CBC
  8
247
  6
CONTINUOUS
 10
4.0495986677142604
 20
-8.8451438161004958
 30
0.0
 40
0.5538165441895349
 50
72.99788967529156
 51
172.92416621851231
  0
ARC
  5
CBD
  8
247
  6
CONTINUOUS
 10
3.9360330444770599
 20
-9.2668783230394922
 30
0.0
 40
0.9904354236226808
 50
4.7429368522013959
 51
73.849226273267561
1001
GENIUS_GENOBJ-N-FIL_13
1002
{
1000
OWNER
1000
GEN
1002
}
1001
GENIUS_GENODEF_13
1002
{
1000
HIER
1070
     0
1002
}
1002
{
1000
MANEDIT
1070
     0
1002
}
1002
{
1000
NOSEL
1070
     0
1002
}
1002
{
1000
BEHIND
1070
     0
1002
}
1002
{
1000
OTHER
1070
     0
1002
}
1002
{
1000
REACTOR
1002
}
  0
LINE
  5
CBE
  8
247
  6
CONTINUOUS
 10
6.5000000000312834
 20
-9.6371592343327173
 30
0.0
 11
6.5000000000312834
 21
-10.94485154197271
 31
0.0
  0
LINE
  5
CBF
  8
247
  6
CONTINUOUS
 10
3.500000000151283
 20
-10.084615384730711
 30
0.0
 11
3.500000000151283
 21
-8.7769230770907107
 31
0.0
  0
ARC
  5
CC0
  8
247
  6
CONTINUOUS
 10
5.482024232676836
 20
-9.2609196365576807
 30
0.0
 40
0.5640818586791229
 50
65.990941652530594
 51
172.26344345906949
  0
ARC
  5
CC1
  8
247
  6
CONTINUOUS
 10
5.4874290391978731
 20
-9.7382626853577801
 30
0.0
 40
1.0176059446230981
 50
5.7019851642581392
 51
77.277338436820855
1001
GENIUS_GENOBJ-N-FIL_13
1002
{
1000
OWNER
1000
GEN
1002
}
1001
GENIUS_GENODEF_13
1002
{
1000
HIER
1070
     0
1002
}
1002
{
1000
MANEDIT
1070
     0
1002
}
1002
{
1000
NOSEL
1070
     0
1002
}
1002
{
1000
BEHIND
1070
     0
1002
}
1002
{
1000
OTHER
1070
     0
1002
}
1002
{
1000
REACTOR
1002
}
  0
LINE
  5
CC2
  8
247
  6
CONTINUOUS
 10
6.5000000000312834
 20
-7.9833130805527199
 30
0.0
 11
3.500000000151283
 21
-7.1230769233107116
 31
0.0
  0
LINE
  5
CC3
  8
247
  6
CONTINUOUS
 10
3.5000000001512852
 20
-4.7000000003307028
 30
0.0
 11
3.500000000151283
 21
-5.2657366194673036
 31
0.0
  0
LINE
  5
CC4
  8
247
  6
CONTINUOUS
 10
6.5000000000312834
 20
-6.1615384618107099
 30
0.0
 11
6.5000000000312834
 21
-5.5461538464507099
 31
0.0
  0
ARC
  5
CC5
  8
247
  6
CONTINUOUS
 10
5.583285135984668
 20
-4.4087912091335664
 30
0.0
 40
2.2526500823422122
 50
202.3594881415269
 51
254.9932485428466
  0
ARC
  5
CC6
  8
247
  6
CONTINUOUS
 10
4.3083126552058006
 20
-5.074069479223934
 30
0.0
 40
0.8906723995727782
 50
94.994589319075061
 51
155.16632895730359
1001
GENIUS_GENOBJ-N-FIL_13
1002
{
1000
OWNER
1000
GEN
1002
}
1001
GENIUS_GENODEF_13
1002
{
1000
HIER
1070
     0
1002
}
1002
{
1000
MANEDIT
1070
     0
1002
}
1002
{
1000
NOSEL
1070
     0
1002
}
1002
{
1000
BEHIND
1070
     0
1002
}
1002
{
1000
OTHER
1070
     0
1002
}
1002
{
1000
REACTOR
1002
}
  0
ARC
  5
CC7
  8
247
  6
CONTINUOUS
 10
5.1601458886790432
 20
-5.9264588862232968
 30
0.0
 40
1.392781735586712
 50
15.84609655577923
 51
82.325137004170529
  0
ARC
  5
CC8
  8
247
  6
CONTINUOUS
 10
5.4592434315385692
 20
-5.3422127258510761
 30
0.0
 40
1.324563662670287
 50
249.71360167049809
 51
321.78874565640768
1001
GENIUS_GENOBJ-N-FIL_13
1002
{
1000
OWNER
1000
GEN
1002
}
1001
GENIUS_GENODEF_13
1002
{
1000
HIER
1070
     0
1002
}
1002
{
1000
MANEDIT
1070
     0
1002
}
1002
{
1000
NOSEL
1070
     0
1002
}
1002
{
1000
BEHIND
1070
     0
1002
}
1002
{
1000
OTHER
1070
     0
1002
}
1002
{
1000
REACTOR
1002
}
  0
LINE
  5
CC9
  8
247
  6
CONTINUOUS
 10
5.3461538462312834
 20
-5.2384615387707081
 30
0.0
 11
5.3461538462312852
 21
-4.5461538464907081
 31
0.0
  0
LINE
  5
CCA
  8
247
  6
CONTINUOUS
 10
3.5000000001512852
 20
-10.95000000008071
 30
0.0
 11
3.5000000001512852
 21
-10.276923077030711
 31
0.0
  0
VIEWPORT
  5
22
 67
     1
  8
0
 10
261.51769911504419
 20
148.5
 30
0.0
 40
523.0353982300885
 41
297.0
 68
     1
 69
     1
1001
ACAD
1000
MVIEW
1002
{
1070
    16
1010
0.0
1020
0.0
1030
0.0
1010
0.0
1020
0.0
1030
1.0
1040
0.0
1040
297.0
1040
261.51769911504419
1040
148.5
1040
50.0
1040
0.0
1040
0.0
1070
     0
1070
   100
1070
     1
1070
     1
1070
     0
1070
     0
1070
     0
1070
     0
1040
0.0
1040
0.0
1040
0.0
1040
1.0
1040
1.0
1040
10.0
1040
10.0
1070
     0
1002
{
1002
}
1002
}
1001
GENIUS_GENOBJ-N-SDF_13
1002
{
1000
OWNER
1000
GEN
1002
}
1001
GENIUS_GENODEF_13
1002
{
1000
HIER
1070
     0
1002
}
1002
{
1000
MANEDIT
1070
     0
1002
}
1002
{
1000
NOSEL
1070
     0
1002
}
1002
{
1000
BEHIND
1070
     0
1002
}
1002
{
1000
OTHER
1070
     0
1002
}
1002
{
1000
REACTOR
1002
}
1001
GENIUS_GENSCREG_15
1000
PF
1040
1.0
1000
DF
1040
1.0
1000
MIN
1011
0.0
1021
0.0
1031
0.0
1021
0.0
1031
0.0
1000
MAX
1011
523.0353982300885
1021
0.0
1031
0.0
1021
297.0
1031
0.0
1000
FLAGS
1070
     4
  0
ENDSEC
  0
EOF
