  0
SECTION
  2
HEADER
  9
$ACADVER
  1
AC1009
  9
$INSBASE
 10
0.0
 20
0.0
 30
0.0
  9
$EXTMIN
 10
-52.287068000000019
 20
-46.008663000000013
 30
0.0
  9
$EXTMAX
 10
117.09767456971321
 20
88.000000000000043
 30
0.0
  9
$LIMMIN
 10
0.0
 20
0.0
  9
$LIMMAX
 10
297.0
 20
210.0
  9
$ORTHOMODE
 70
     1
  9
$REGENMODE
 70
     1
  9
$FILLMODE
 70
     1
  9
$QTEXTMODE
 70
     0
  9
$MIRRTEXT
 70
     1
  9
$DRAGMODE
 70
     2
  9
$LTSCALE
 40
10.0
  9
$OSMODE
 70
     7
  9
$ATTMODE
 70
     1
  9
$TEXTSIZE
 40
3.0
  9
$TRACEWID
 40
1.0
  9
$TEXTSTYLE
  7
YOKO
  9
$CLAYER
  8
240
  9
$CELTYPE
  6
BYLAYER
  9
$CECOLOR
 62
   256
  9
$DIMSCALE
 40
1.0
  9
$DIMASZ
 40
2.2299999999999991
  9
$DIMEXO
 40
0.5
  9
$DIMDLI
 40
2.5
  9
$DIMRND
 40
0.0
  9
$DIMDLE
 40
0.0
  9
$DIMEXE
 40
1.0
  9
$DIMTP
 40
0.0
  9
$DIMTM
 40
0.0
  9
$DIMTXT
 40
3.0
  9
$DIMCEN
 40
0.0
  9
$DIMTSZ
 40
0.0
  9
$DIMTOL
 70
     0
  9
$DIMLIM
 70
     0
  9
$DIMTIH
 70
     0
  9
$DIMTOH
 70
     0
  9
$DIMSE1
 70
     0
  9
$DIMSE2
 70
     0
  9
$DIMTAD
 70
     3
  9
$DIMZIN
 70
     8
  9
$DIMBLK
  1
OPEN
  9
$DIMASO
 70
     1
  9
$DIMSHO
 70
     1
  9
$DIMPOST
  1

  9
$DIMAPOST
  1

  9
$DIMALT
 70
     0
  9
$DIMALTD
 70
     2
  9
$DIMALTF
 40
25.399999999999999
  9
$DIMLFAC
 40
1.0
  9
$DIMTOFL
 70
     1
  9
$DIMTVP
 40
0.0
  9
$DIMTIX
 70
     0
  9
$DIMSOXD
 70
     0
  9
$DIMSAH
 70
     1
  9
$DIMBLK1
  1

  9
$DIMBLK2
  1

  9
$DIMSTYLE
  2
BIGT
  9
$DIMCLRD
 70
   256
  9
$DIMCLRE
 70
   256
  9
$DIMCLRT
 70
    40
  9
$DIMTFAC
 40
1.0
  9
$DIMGAP
 40
1.0
  9
$LUNITS
 70
     2
  9
$LUPREC
 70
     2
  9
$SKETCHINC
 40
1.0
  9
$FILLETRAD
 40
0.0
  9
$AUNITS
 70
     0
  9
$AUPREC
 70
     3
  9
$MENU
  1
.
  9
$ELEVATION
 40
0.0
  9
$PELEVATION
 40
0.0
  9
$THICKNESS
 40
0.0
  9
$LIMCHECK
 70
     0
  9
$BLIPMODE
 70
     0
  9
$CHAMFERA
 40
10.0
  9
$CHAMFERB
 40
10.0
  9
$SKPOLY
 70
     0
  9
$TDCREATE
 40
2452203.3983523152
  9
$TDUPDATE
 40
2460549.578074757
  9
$TDINDWG
 40
0.148855787
  9
$TDUSRTIMER
 40
0.1488557639
  9
$USRTIMER
 70
     1
  9
$ANGBASE
 50
0.0
  9
$ANGDIR
 70
     0
  9
$PDMODE
 70
    35
  9
$PDSIZE
 40
2.0
  9
$PLINEWID
 40
0.0
  9
$COORDS
 70
     1
  9
$SPLFRAME
 70
     0
  9
$SPLINETYPE
 70
     6
  9
$SPLINESEGS
 70
     8
  9
$ATTDIA
 70
     1
  9
$ATTREQ
 70
     1
  9
$HANDLING
 70
     1
  9
$HANDSEED
  5
297B
  9
$SURFTAB1
 70
     6
  9
$SURFTAB2
 70
     6
  9
$SURFTYPE
 70
     6
  9
$SURFU
 70
     6
  9
$SURFV
 70
     6
  9
$UCSNAME
  2

  9
$UCSORG
 10
0.0
 20
0.0
 30
0.0
  9
$UCSXDIR
 10
1.0
 20
0.0
 30
0.0
  9
$UCSYDIR
 10
0.0
 20
1.0
 30
0.0
  9
$PUCSNAME
  2

  9
$PUCSORG
 10
0.0
 20
0.0
 30
0.0
  9
$PUCSXDIR
 10
1.0
 20
0.0
 30
0.0
  9
$PUCSYDIR
 10
0.0
 20
1.0
 30
0.0
  9
$USERI1
 70
     1
  9
$USERI2
 70
     0
  9
$USERI3
 70
     0
  9
$USERI4
 70
     0
  9
$USERI5
 70
     0
  9
$USERR1
 40
0.0
  9
$USERR2
 40
0.0
  9
$USERR3
 40
0.0
  9
$USERR4
 40
0.0
  9
$USERR5
 40
0.0
  9
$WORLDVIEW
 70
     1
  9
$SHADEDGE
 70
     3
  9
$SHADEDIF
 70
    70
  9
$TILEMODE
 70
     1
  9
$MAXACTVP
 70
    16
  9
$PLIMCHECK
 70
     0
  9
$PEXTMIN
 10
1.0000000000000000E+020
 20
1.0000000000000000E+020
 30
1.0000000000000000E+020
  9
$PEXTMAX
 10
-1.0000000000000000E+020
 20
-1.0000000000000000E+020
 30
-1.0000000000000000E+020
  9
$PLIMMIN
 10
0.0
 20
0.0
  9
$PLIMMAX
 10
420.0
 20
297.0
  9
$UNITMODE
 70
     0
  9
$VISRETAIN
 70
     0
  9
$PLINEGEN
 70
     0
  9
$PSLTSCALE
 70
     1
  0
ENDSEC
  0
SECTION
  2
TABLES
  0
TABLE
  2
VPORT
 70
     1
  0
VPORT
  2
*ACTIVE
 70
     0
 10
0.0
 20
0.0
 11
1.0
 21
1.0
 12
1.4578002816857061
 22
6.5914233164562708
 13
0.0
 23
0.0
 14
7.0
 24
7.0
 15
7.0
 25
7.0
 16
0.0
 26
0.0
 36
1.0
 17
0.0
 27
0.0
 37
0.0
 40
224.96645500153579
 41
2.0682680151706689
 42
50.0
 43
0.0
 44
0.0
 50
0.0
 51
0.0
 71
     0
 72
  2000
 73
     1
 74
     0
 75
     0
 76
     1
 77
     0
 78
     0
  0
ENDTAB
  0
TABLE
  2
LTYPE
 70
    18
  0
LTYPE
  2
CONTINUOUS
 70
     0
  3
Solid line
 72
    65
 73
     0
 40
0.0
  0
LTYPE
  2
CENTER2
 70
     0
  3
___ _ ___ _ ___ _ ___ _ ___ _ ___ _ ___ _ ___ _
 72
    65
 73
     4
 40
1.125
 49
0.75
 49
-0.125
 49
0.125
 49
-0.125
  0
LTYPE
  2
PHANTOM2
 70
     0
  3
___ _ _ ___ _ _ ___ _ _ ___ _ _ ___ _ _ ___ _ _
 72
    65
 73
     6
 40
1.25
 49
0.625
 49
-0.125
 49
0.125
 49
-0.125
 49
0.125
 49
-0.125
  0
LTYPE
  2
HIDDEN
 70
     0
  3
Hidden __ __ __ __ __ __ __ __ __ __ __ __ __ _
 72
    65
 73
     2
 40
9.5249999999999986
 49
6.349999999999997
 49
-3.174999999999998
  0
LTYPE
  2
CENTER
 70
     0
  3
Center ____ _ ____ _ ____ _ ____ _ ____ _ ____
 72
    65
 73
     4
 40
50.799999999999997
 49
31.75
 49
-6.349999999999997
 49
6.349999999999997
 49
-6.349999999999997
  0
LTYPE
  2
AMCONSTR
 70
     0
  3
_______________________
 72
    65
 73
     2
 40
9999.0
 49
9999.0
 49
0.0
  0
LTYPE
  2
HIDDEN2
 70
     0
  3
Hidden (.5x) _ _ _ _ _ _ _ _ _ _ _ _ _ _ _ _ _
 72
    65
 73
     2
 40
0.1875
 49
0.125
 49
-0.0625
  0
LTYPE
  2
AMZIGZAG2
 70
     0
  3
/\/-/\/-/\/-/\/-/\/-/\/
 72
    65
 73
     2
 40
0.4401
 49
0.0001
 49
-0.4400000000000002
  0
LTYPE
  2
ACANSTGB
 70
     0
  3
__ . . __ . .
 72
    65
 73
     6
 40
0.35433070866
 49
0.15748031496
 49
-0.03937007874
 49
0.03937007874
 49
-0.03937007874
 49
0.03937007874
 49
-0.03937007874
  0
LTYPE
  2
ACANSTGL
 70
     0
  3
_ _ _ _ _
 72
    65
 73
     2
 40
0.11811023622
 49
0.07874015748
 49
-0.03937007874
  0
ENDTAB
  0
TABLE
  2
LAYER
 70
     9
  0
LAYER
  2
0
 70
     0
 62
     7
  6
CONTINUOUS
  0
LAYER
  2
240
 70
     0
 62
     4
  6
CONTINUOUS
  0
LAYER
  2
241
 70
     0
 62
   211
  6
CONTINUOUS
  0
LAYER
  2
242
 70
     0
 62
     3
  6
CONTINUOUS
  0
LAYER
  2
245
 70
     0
 62
     2
  6
CENTER2
  0
LAYER
  2
246
 70
     0
 62
     3
  6
PHANTOM2
  0
LAYER
  2
247
 70
     0
 62
    60
  6
CONTINUOUS
  0
LAYER
  2
250
 70
     0
 62
     3
  6
CONTINUOUS
  0
LAYER
  2
DEFPOINTS
 70
     0
 62
     7
  6
CONTINUOUS
  0
ENDTAB
  0
TABLE
  2
STYLE
 70
     6
  0
STYLE
  2
STANDARD
 70
     0
 40
0.0
 41
1.0
 50
0.0
 71
     0
 42
3.0
  3
romans.shx
  4
BIGFONT.SHX
  0
STYLE
  2
YOKO
 70
     0
 40
0.0
 41
1.0
 50
0.0
 71
     0
 42
3.0
  3
romans.shx
  4
extfont.shx
  0
STYLE
  2
ACANSGDT
 70
     0
 40
0.0
 41
1.0
 50
0.0
 71
     0
 42
3.0
  3
amgdt.shx
  4

  0
ENDTAB
  0
TABLE
  2
VIEW
 70
     0
  0
ENDTAB
  0
TABLE
  2
UCS
 70
     0
  0
ENDTAB
  0
TABLE
  2
APPID
 70
    26
  0
APPID
  2
ACAD
 70
     0
  0
APPID
  2
ACADANNOTATIVE
 70
     0
  0
APPID
  2
GLOBAL
 70
     0
  0
APPID
  2
DETAIL
 70
     0
  0
APPID
  2
GRPNAME
 70
     0
  0
APPID
  2
GPARA
 70
     0
  0
APPID
  2
ITEMNAME
 70
     0
  0
APPID
  2
HATCH_TYPE
 70
     0
  0
APPID
  2
HATCH_DISPLAY
 70
     0
  0
APPID
  2
HATCH_DISTANCE
 70
     0
  0
APPID
  2
MCAD_NO_VIS
 70
     0
  0
APPID
  2
ACAD_TEMP_GRAPHIC
 70
     0
  0
APPID
  2
AD_DRAW
 70
     0
  0
APPID
  2
ACATTRIBSERVICES
 70
     0
  0
APPID
  2
DESIGNERASSEMBLIES
 70
     0
  0
APPID
  2
ACADM_DIM_EDIT
 70
     0
  0
APPID
  2
AMDT_DM_ADJ
 70
     0
  0
APPID
  2
GENIUS_GENSCREG_15
 70
     0
  0
APPID
  2
GENIUS_GENOBJ-N-SDF_13
 70
     0
  0
APPID
  2
GENIUS_GENODEF_13
 70
     0
  0
APPID
  2
ACAD_DSTYLE_DIMJAG
 70
     0
  0
APPID
  2
ACAD_DSTYLE_DIMBREAK
 70
     0
  0
APPID
  2
ACAD_NAV_VCDISPLAY
 70
     0
  0
APPID
  2
GENIUS_GENOBJ-N-FIL_13
 70
     0
  0
APPID
  2
ACAD_EXEMPT_FROM_CAD_STANDARDS
 70
     0
  0
APPID
  2
ACAD_MLEADERVER
 70
     0
  0
ENDTAB
  0
TABLE
  2
DIMSTYLE
 70
    10
  0
DIMSTYLE
  2
STANDARD
 70
     0
  3

  4

  5

  6

  7

 40
1.0
 41
0.18
 42
0.0625
 43
0.38
 44
0.18
 45
0.0
 46
0.0
 47
0.0
 48
0.0
140
0.18
141
0.09
142
0.0
143
25.399999999999999
144
1.0
145
0.0
146
1.0
147
0.09
 71
     0
 72
     0
 73
     1
 74
     1
 75
     0
 76
     0
 77
     0
 78
     0
170
     0
171
     2
172
     0
173
     0
174
     0
175
     0
176
     0
177
     0
178
     0
  0
DIMSTYLE
  2
BIGT
 70
     0
  3

  4

  5

  6

  7

 40
1.0
 41
2.2299999999999991
 42
0.5
 43
2.5
 44
1.0
 45
0.0
 46
0.0
 47
0.0
 48
0.0
140
3.5
141
0.0
142
0.0
143
25.399999999999999
144
1.0
145
0.0
146
1.0
147
1.0
 71
     0
 72
     0
 73
     0
 74
     0
 75
     0
 76
     0
 77
     3
 78
     9
170
     0
171
     2
172
     1
173
     0
174
     0
175
     0
176
   256
177
   256
178
    40
  0
DIMSTYLE
  2
AM_ANSI
 70
     0
  3

  4
mm
  5

  6

  7

 40
1.0
 41
0.12
 42
0.05
 43
0.5
 44
0.1
 45
0.0
 46
0.0
 47
0.1
 48
0.1
140
0.12
141
0.0
142
0.0
143
25.399999999999999
144
1.0
145
0.0
146
0.71
147
0.06
 71
     0
 72
     0
 73
     1
 74
     1
 75
     0
 76
     0
 77
     0
 78
     7
170
     0
171
     2
172
     0
173
     0
174
     0
175
     0
176
   256
177
   256
178
     2
  0
DIMSTYLE
  2
AM_ANSI$3
 70
     0
  3

  4
mm
  5

  6

  7

 40
1.0
 41
0.12
 42
0.05
 43
0.5
 44
0.1
 45
0.0
 46
0.0
 47
0.1
 48
0.1
140
0.12
141
0.0
142
0.0
143
25.399999999999999
144
1.0
145
0.0
146
0.71
147
0.06
 71
     0
 72
     0
 73
     1
 74
     1
 75
     0
 76
     0
 77
     0
 78
     7
170
     0
171
     2
172
     0
173
     0
174
     0
175
     0
176
   256
177
   256
178
     2
  0
DIMSTYLE
  2
AM_ANSI$4
 70
     0
  3

  4
mm
  5

  6

  7

 40
1.0
 41
0.12
 42
0.05
 43
0.5
 44
0.1
 45
0.0
 46
0.0
 47
0.1
 48
0.1
140
0.12
141
0.0
142
0.0
143
25.399999999999999
144
1.0
145
0.0
146
0.71
147
0.06
 71
     0
 72
     0
 73
     1
 74
     1
 75
     0
 76
     0
 77
     0
 78
     7
170
     0
171
     2
172
     0
173
     0
174
     0
175
     0
176
   256
177
   256
178
     2
  0
DIMSTYLE
  2
AM_ANSI$7
 70
     0
  3

  4
mm
  5

  6

  7

 40
1.0
 41
0.12
 42
0.05
 43
0.5
 44
0.1
 45
0.0
 46
0.0
 47
0.1
 48
0.1
140
0.12
141
0.0
142
0.0
143
25.399999999999999
144
1.0
145
0.0
146
0.71
147
0.06
 71
     0
 72
     0
 73
     1
 74
     1
 75
     0
 76
     0
 77
     0
 78
     7
170
     0
171
     2
172
     0
173
     0
174
     0
175
     0
176
   256
177
   256
178
     2
  0
DIMSTYLE
  2
AM_ANSI$SF
 70
     0
  3

  4
mm
  5

  6

  7

 40
1.0
 41
0.12
 42
0.05
 43
0.5
 44
0.1
 45
0.0
 46
0.0
 47
0.1
 48
0.1
140
0.12
141
0.0
142
0.0
143
25.399999999999999
144
1.0
145
0.0
146
0.71
147
0.06
 71
     0
 72
     0
 73
     1
 74
     1
 75
     1
 76
     1
 77
     0
 78
     7
170
     0
171
     2
172
     0
173
     0
174
     0
175
     0
176
   256
177
   256
178
     2
  0
DIMSTYLE
  2
AM_ANSI$SH
 70
     0
  3

  4
mm
  5

  6

  7

 40
1.0
 41
0.12
 42
0.05
 43
0.5
 44
0.1
 45
0.0
 46
0.0
 47
0.1
 48
0.1
140
0.12
141
0.0
142
0.0
143
25.399999999999999
144
1.0
145
0.0
146
0.71
147
0.06
 71
     0
 72
     0
 73
     1
 74
     1
 75
     1
 76
     1
 77
     0
 78
     7
170
     0
171
     2
172
     0
173
     1
174
     0
175
     0
176
   256
177
   256
178
     2
  0
ENDTAB
  0
ENDSEC
  0
SECTION
  2
BLOCKS
  0
BLOCK
  8
0
  2
$MODEL_SPACE
 70
     0
 10
0.0
 20
0.0
 30
0.0
  3
$MODEL_SPACE
  1

  0
ENDBLK
  5
2861
  8
0
  0
BLOCK
 67
     1
  8
0
  2
$PAPER_SPACE
 70
     0
 10
0.0
 20
0.0
 30
0.0
  3
$PAPER_SPACE
  1

  0
ENDBLK
  5
285D
 67
     1
  8
0
  0
BLOCK
  8
0
  2
_OPEN
 70
     0
 10
0.0
 20
0.0
 30
0.0
  3
_OPEN
  1

  0
LINE
  5
595
  8
0
  6
BYBLOCK
 62
     0
 10
-1.0
 20
0.1666666666666666
 30
0.0
 11
0.0
 21
0.0
 31
0.0
  0
LINE
  5
596
  8
0
  6
BYBLOCK
 62
     0
 10
-1.0
 20
-0.1666666666666666
 30
0.0
 11
0.0
 21
0.0
 31
0.0
  0
LINE
  5
597
  8
0
  6
BYBLOCK
 62
     0
 10
0.0
 20
0.0
 30
0.0
 11
-1.0
 21
0.0
 31
0.0
  0
ENDBLK
  5
599
  8
0
  0
BLOCK
  8
0
  2
_ACMFILLEDHALF
 70
     0
 10
0.0
 20
0.0
 30
0.0
  3
_ACMFILLEDHALF
  1

  0
TRACE
  5
25F3
  8
240
 62
     0
 10
-0.8
 20
0.0
 30
0.0
 11
-1.0
 21
0.166666666
 31
0.0
 12
0.0
 22
0.0
 32
0.0
 13
0.0
 23
0.0
 33
0.0
  0
LINE
  5
25F4
  8
240
 62
     0
 10
-1.0
 20
0.0
 30
0.0
 11
-0.8
 21
0.0
 31
0.0
  0
ENDBLK
  5
25F2
  8
0
  0
ENDSEC
  0
SECTION
  2
ENTITIES
  0
TEXT
  5
825
  8
241
  6
CONTINUOUS
 10
-49.0
 20
84.0
 30
0.0
 40
4.0
  1
EWN100-203CKB7
  7
YOKO
 11
-49.0
 21
84.0
 31
0.0
 73
     1
  0
LINE
  5
233A
  8
250
  6
CONTINUOUS
 10
84.527663057519391
 20
75.002280102445624
 30
0.0
 11
117.09767456971321
 21
75.002280102445624
 31
0.0
1001
ITEMNAME
1000
LNSP2
  0
LINE
  5
2437
  8
250
  6
CONTINUOUS
 10
86.918403800104159
 20
59.956402609675301
 30
0.0
 11
105.99997513184481
 21
59.956402609675301
 31
0.0
  0
LINE
  5
2438
  8
250
  6
CONTINUOUS
 10
104.99997513184481
 20
57.726402609675311
 30
0.0
 11
104.99997513184481
 21
-16.771429873068051
 31
0.0
  0
LINE
  5
243B
  8
250
  6
CONTINUOUS
 10
0.0
 20
43.0
 30
0.0
 11
0.0000000000000017
 21
71.0
 31
0.0
  0
LINE
  5
243C
  8
250
  6
CONTINUOUS
 10
86.999450999999965
 20
60.079066000000012
 30
0.0
 11
86.999450999999965
 21
71.0
 31
0.0
  0
LINE
  5
243D
  8
250
  6
CONTINUOUS
 10
2.2299999999999991
 20
70.0
 30
0.0
 11
84.769450999999904
 21
70.0
 31
0.0
  0
TEXT
  5
2444
  8
250
  6
CONTINUOUS
 10
86.95623448609085
 20
76.002280102445624
 30
0.0
 40
3.0
  1
ENH6-1,TC11
  7
YOKO
1001
ITEMNAME
1000
LNSP3
1001
ACAD
1000
MTEXTBEGIN
1070
    73
1070
     1
1070
    44
1040
1.0
1070
    74
1070
     0
1000
MTEXTEND
  0
TEXT
  5
2449
  8
250
  6
CONTINUOUS
 10
40.642582642857107
 20
71.0
 30
0.0
 40
3.0
  1
87
1001
ACAD
1000
MTEXTBEGIN
1070
    73
1070
     1
1070
    44
1040
1.0
1070
    74
1070
     0
1000
MTEXTEND
  0
LINE
  5
244A
  8
250
  6
CONTINUOUS
 10
84.769450999999975
 20
70.37166666666667
 30
0.0
 11
86.999450999999965
 21
70.0
 31
0.0
  0
LINE
  5
244B
  8
250
  6
CONTINUOUS
 10
84.769450999999975
 20
69.62833333333333
 30
0.0
 11
86.999450999999965
 21
70.0
 31
0.0
  0
LINE
  5
244C
  8
250
  6
CONTINUOUS
 10
86.999450999999965
 20
70.0
 30
0.0
 11
84.769450999999975
 21
70.0
 31
0.0
  0
LINE
  5
244D
  8
250
  6
CONTINUOUS
 10
2.2299999999999991
 20
69.62833333333333
 30
0.0
 11
0.0000000000000017
 21
70.0
 31
0.0
  0
LINE
  5
244E
  8
250
  6
CONTINUOUS
 10
2.2299999999999991
 20
70.37166666666667
 30
0.0
 11
0.0000000000000017
 21
70.0
 31
0.0
  0
LINE
  5
244F
  8
250
  6
CONTINUOUS
 10
0.0000000000000017
 20
70.0
 30
0.0
 11
2.2299999999999991
 21
70.0
 31
0.0
  0
TEXT
  5
2450
  8
250
  6
CONTINUOUS
 10
103.99997513184471
 20
-15.77142987306803
 30
0.0
 40
3.0
  1
üi
 50
90.0
1001
ACAD
1000
MTEXTBEGIN
1070
    73
1070
     1
1070
    44
1040
1.0
1070
    74
1070
     0
1000
MTEXTEND
  0
TEXT
  5
2451
  8
250
  6
CONTINUOUS
 10
103.99997513184471
 20
-12.171429873068041
 30
0.0
 40
3.0
  1
\U+2205
 50
90.0
1001
ACAD
1000
MTEXTBEGIN
1070
    73
1070
     1
1070
    44
1040
1.0
1070
    74
1070
     0
1000
MTEXTEND
  0
TEXT
  5
2452
  8
250
  6
CONTINUOUS
 10
103.99997513184471
 20
-9.4571441587823237
 30
0.0
 40
3.0
  1
100ü`
 50
90.0
1001
ACAD
1000
MTEXTBEGIN
1070
    73
1070
     1
1070
    44
1040
1.0
1070
    74
1070
     0
1000
MTEXTEND
  0
TEXT
  5
2453
  8
250
  6
CONTINUOUS
 10
103.99997513184471
 20
2.7142844126462471
 30
0.0
 40
3.0
  1
\U+2205
 50
90.0
1001
ACAD
1000
MTEXTBEGIN
1070
    73
1070
     1
1070
    44
1040
1.0
1070
    74
1070
     0
1000
MTEXTEND
  0
TEXT
  5
2454
  8
250
  6
CONTINUOUS
 10
103.99997513184471
 20
5.4285701269319597
 30
0.0
 40
3.0
  1
153üj
 50
90.0
1001
ACAD
1000
MTEXTBEGIN
1070
    73
1070
     1
1070
    44
1040
1.0
1070
    74
1070
     0
1000
MTEXTEND
  0
LINE
  5
2455
  8
250
  6
CONTINUOUS
 10
104.62830846517799
 20
57.72640260967529
 30
0.0
 11
104.99997513184481
 21
59.956402609675301
 31
0.0
  0
LINE
  5
2456
  8
250
  6
CONTINUOUS
 10
105.3716417985114
 20
57.72640260967529
 30
0.0
 11
104.99997513184481
 21
59.956402609675301
 31
0.0
  0
LINE
  5
2457
  8
250
  6
CONTINUOUS
 10
104.99997513184481
 20
59.956402609675301
 30
0.0
 11
104.99997513184481
 21
57.72640260967529
 31
0.0
  0
LINE
  5
2458
  8
250
  6
CONTINUOUS
 10
79.098295553668351
 20
60.290413112313992
 30
0.0
 11
84.527663057519391
 21
75.002280102445624
 31
0.0
1001
ACAD
1000
DSTYLE
1002
{
1070
     6
1000
OPEN
1070
    78
1070
     8
1070
   140
1040
3.0
1070
   173
1070
     1
1002
}
  0
LINE
  5
2459
  8
250
  6
CONTINUOUS
 10
79.446975581358089
 20
60.161733862233049
 30
0.0
 11
78.326220053182752
 21
58.198332946175519
 31
0.0
  0
LINE
  5
245A
  8
250
  6
CONTINUOUS
 10
78.749615525978626
 20
60.419092362394899
 30
0.0
 11
78.326220053182752
 21
58.198332946175519
 31
0.0
  0
LINE
  5
245B
  8
250
  6
CONTINUOUS
 10
78.326220053182752
 20
58.198332946175519
 30
0.0
 11
79.098295553668351
 21
60.290413112313992
 31
0.0
  0
LINE
  5
2618
  8
245
  6
CENTER2
 10
88.336850999999953
 20
0.0
 30
0.0
 11
-52.287068000000019
 21
0.0
 31
0.0
  0
LINE
  5
2626
  8
245
  6
CENTER2
 10
62.500000000000071
 20
59.70836000000002
 30
0.0
 11
62.500000000000071
 21
-46.008663000000013
 31
0.0
  0
LINE
  5
2627
  8
241
  6
CONTINUOUS
 10
36.099999999999959
 20
31.124749000000001
 30
0.0
 11
36.099999999999959
 21
-31.124749000000001
 31
0.0
  0
LINE
  5
2628
  8
240
  6
CONTINUOUS
 10
83.199999999999974
 20
36.5
 30
0.0
 11
83.199999999999974
 21
-40.499999999999993
 31
0.0
  0
LINE
  5
262A
  8
240
  6
CONTINUOUS
 10
0.0
 20
-42.5
 30
0.0
 11
0.0
 21
-23.0
 31
0.0
  0
LINE
  5
262D
  8
241
  6
CONTINUOUS
 10
25.00000000000005
 20
45.0
 30
0.0
 11
25.00000000000005
 21
-45.0
 31
0.0
  0
LINE
  5
262E
  8
241
  6
CONTINUOUS
 10
0.5
 20
-43.0
 30
0.0
 11
0.5
 21
43.0
 31
0.0
  0
ARC
  5
262F
  8
241
  6
CONTINUOUS
 10
99.608529000000047
 20
0.0
 30
0.0
 40
70.725408000000002
 50
153.89109400000021
 51
206.1089039999984
  0
LINE
  5
2630
  8
241
  6
CONTINUOUS
 10
45.050000000000011
 20
-41.39999999999997
 30
0.0
 11
79.949999999999974
 21
-41.39999999999997
 31
0.0
  0
LINE
  5
2631
  8
240
  6
CONTINUOUS
 10
56.250000000000071
 20
-44.401030999999989
 30
0.0
 11
45.050000000000011
 21
-41.39999999999997
 31
0.0
  0
LINE
  5
2632
  8
241
  6
CONTINUOUS
 10
83.199999999999974
 20
-31.124749000000001
 30
0.0
 11
36.099999999999959
 21
-31.124749000000001
 31
0.0
  0
LINE
  5
2656
  8
240
  6
CONTINUOUS
 10
0.5
 20
-45.0
 30
0.0
 11
41.921539000000003
 21
-45.0
 31
0.0
  0
LINE
  5
2659
  8
240
  6
CONTINUOUS
 10
0.0
 20
-42.5
 30
0.0
 11
0.5
 21
-43.0
 31
0.0
  0
LINE
  5
265B
  8
240
  6
CONTINUOUS
 10
0.5
 20
-45.0
 30
0.0
 11
0.5
 21
-43.0
 31
0.0
  0
LINE
  5
26A0
  8
240
  6
CONTINUOUS
 10
44.000000000000021
 20
-41.39999999999997
 30
0.0
 11
41.921539000000003
 21
-45.0
 31
0.0
  0
LINE
  5
26A1
  8
240
  6
CONTINUOUS
 10
44.000000000000021
 20
-41.39999999999997
 30
0.0
 11
45.050000000000011
 21
-41.39999999999997
 31
0.0
  0
LINE
  5
26A2
  8
240
  6
CONTINUOUS
 10
68.750000000000071
 20
-44.401030999999989
 30
0.0
 11
79.949999999999974
 21
-41.39999999999997
 31
0.0
  0
LINE
  5
26A5
  8
240
  6
CONTINUOUS
 10
68.750000000000071
 20
-44.401030999999989
 30
0.0
 11
56.250000000000071
 21
-44.401030999999989
 31
0.0
  0
LINE
  5
26A6
  8
240
  6
CONTINUOUS
 10
82.680383999999904
 20
-41.39999999999997
 30
0.0
 11
79.949999999999974
 21
-41.39999999999997
 31
0.0
  0
LINE
  5
26A7
  8
240
  6
CONTINUOUS
 10
83.199999999999974
 20
-40.499999999999993
 30
0.0
 11
82.680383999999904
 21
-41.39999999999997
 31
0.0
  0
LINE
  5
26A8
  8
241
  6
CONTINUOUS
 10
48.15000000000002
 20
47.5
 30
0.0
 11
58.599999999999888
 21
47.5
 31
0.0
  0
LINE
  5
26A9
  8
240
  6
CONTINUOUS
 10
38.50000000000005
 20
41.198158999999983
 30
0.0
 11
83.199999999999974
 21
36.5
 31
0.0
  0
LINE
  5
26AA
  8
241
  6
CONTINUOUS
 10
83.199999999999974
 20
31.124749000000001
 30
0.0
 11
36.099999999999959
 21
31.124749000000001
 31
0.0
  0
LINE
  5
26AB
  8
240
  6
CONTINUOUS
 10
0.0
 20
42.5
 30
0.0
 11
0.0
 21
23.0
 31
0.0
  0
LINE
  5
26BE
  8
240
  6
CONTINUOUS
 10
0.5
 20
45.0
 30
0.0
 11
36.80731099999997
 21
45.0
 31
0.0
  0
LINE
  5
26BF
  8
240
  6
CONTINUOUS
 10
0.5
 20
43.0
 30
0.0
 11
0.5
 21
45.0
 31
0.0
  0
LINE
  5
26C0
  8
240
  6
CONTINUOUS
 10
0.0
 20
42.5
 30
0.0
 11
0.5
 21
43.0
 31
0.0
  0
LINE
  5
26C3
  8
240
  6
CONTINUOUS
 10
36.80731099999997
 20
45.0
 30
0.0
 11
38.50000000000005
 21
41.198158999999983
 31
0.0
  0
LINE
  5
26C4
  8
240
  6
CONTINUOUS
 10
47.800000000000011
 20
40.220689999999991
 30
0.0
 11
47.800000000000011
 21
47.15000000000002
 31
0.0
  0
LINE
  5
26C5
  8
240
  6
CONTINUOUS
 10
48.149999999999579
 20
47.499999999999559
 30
0.0
 11
47.800000000000011
 21
47.15000000000002
 31
0.0
  0
LINE
  5
26C6
  8
240
  6
CONTINUOUS
 10
77.199999999999974
 20
39.199999999999989
 30
0.0
 11
77.199999999999974
 21
47.15000000000002
 31
0.0
  0
CIRCLE
  5
26C7
  8
241
  6
CONTINUOUS
 10
62.500000000000071
 20
-6.0
 30
0.0
 40
5.25
  0
CIRCLE
  5
26C8
  8
242
  6
CONTINUOUS
 10
62.500000000000071
 20
-6.0
 30
0.0
 40
5.0
  0
LINE
  5
26C9
  8
245
  6
CENTER2
 10
56.200986999999898
 20
-6.0
 30
0.0
 11
69.130431999999985
 21
-6.0
 31
0.0
  0
LINE
  5
26CA
  8
241
  6
CONTINUOUS
 10
60.000000000000071
 20
-7.4433759999999989
 30
0.0
 11
62.500000000000071
 21
-8.8867510000000021
 31
0.0
  0
LINE
  5
26CB
  8
241
  6
CONTINUOUS
 10
62.500000000000071
 20
-3.113248999999993
 30
0.0
 11
60.000000000000071
 21
-4.5566239999999958
 31
0.0
  0
LINE
  5
26CC
  8
241
  6
CONTINUOUS
 10
60.000000000000071
 20
-4.5566239999999958
 30
0.0
 11
60.000000000000071
 21
-7.4433759999999989
 31
0.0
  0
LINE
  5
26CD
  8
241
  6
CONTINUOUS
 10
65.000000000000071
 20
-7.4433759999999989
 30
0.0
 11
65.000000000000071
 21
-4.5566239999999958
 31
0.0
  0
LINE
  5
26CE
  8
241
  6
CONTINUOUS
 10
62.500000000000071
 20
-8.8867510000000021
 30
0.0
 11
65.000000000000071
 21
-7.4433759999999989
 31
0.0
  0
LINE
  5
26CF
  8
241
  6
CONTINUOUS
 10
65.000000000000071
 20
-4.5566239999999958
 30
0.0
 11
62.500000000000071
 21
-3.113248999999993
 31
0.0
  0
LINE
  5
26D0
  8
241
  6
CONTINUOUS
 10
62.500000000000071
 20
23.886751
 30
0.0
 11
60.000000000000071
 21
22.443376000000001
 31
0.0
  0
LINE
  5
26D1
  8
241
  6
CONTINUOUS
 10
65.000000000000071
 20
22.443376000000001
 30
0.0
 11
62.500000000000071
 21
23.886751
 31
0.0
  0
CIRCLE
  5
26D2
  8
241
  6
CONTINUOUS
 10
62.500000000000071
 20
21.0
 30
0.0
 40
5.25
  0
CIRCLE
  5
26D3
  8
242
  6
CONTINUOUS
 10
62.500000000000071
 20
21.0
 30
0.0
 40
5.0
  0
LINE
  5
26D4
  8
245
  6
CENTER2
 10
69.130431999999985
 20
21.0
 30
0.0
 11
56.200986999999898
 21
21.0
 31
0.0
  0
LINE
  5
26D5
  8
241
  6
CONTINUOUS
 10
60.000000000000071
 20
19.556623999999989
 30
0.0
 11
62.500000000000071
 21
18.113248999999989
 31
0.0
  0
LINE
  5
26D6
  8
241
  6
CONTINUOUS
 10
60.000000000000071
 20
22.443376000000001
 30
0.0
 11
60.000000000000071
 21
19.556623999999989
 31
0.0
  0
LINE
  5
26D7
  8
241
  6
CONTINUOUS
 10
62.500000000000071
 20
18.113248999999989
 30
0.0
 11
65.000000000000071
 21
19.556623999999989
 31
0.0
  0
LINE
  5
26D8
  8
241
  6
CONTINUOUS
 10
65.000000000000071
 20
19.556623999999989
 30
0.0
 11
65.000000000000071
 21
22.443376000000001
 31
0.0
  0
LINE
  5
26D9
  8
241
  6
CONTINUOUS
 10
57.511215999999941
 20
39.199999999999989
 30
0.0
 11
77.199999999999974
 21
39.199999999999989
 31
0.0
  0
LINE
  5
26DA
  8
241
  6
CONTINUOUS
 10
60.365524999999991
 20
38.900000000000041
 30
0.0
 11
77.500000000000071
 21
38.900000000000041
 31
0.0
  0
LINE
  5
26DB
  8
240
  6
CONTINUOUS
 10
77.199999999999974
 20
39.199999999999989
 30
0.0
 11
77.500000000000071
 21
38.900000000000041
 31
0.0
  0
LINE
  5
26DC
  8
240
  6
CONTINUOUS
 10
77.500000000000071
 20
37.09909399999998
 30
0.0
 11
77.500000000000071
 21
38.900000000000041
 31
0.0
  0
LINE
  5
26DD
  8
241
  6
CONTINUOUS
 10
66.399999999999935
 20
47.5
 30
0.0
 11
76.849999999999952
 21
47.5
 31
0.0
  0
LINE
  5
26DE
  8
241
  6
CONTINUOUS
 10
66.131791999999962
 20
49.102743000000011
 30
0.0
 11
66.400000000000034
 21
47.5
 31
0.0
  0
LINE
  5
26DF
  8
241
  6
CONTINUOUS
 10
58.868206999999941
 20
49.102743000000011
 30
0.0
 11
58.599999999999952
 21
47.5
 31
0.0
  0
LINE
  5
26E0
  8
241
  6
CONTINUOUS
 10
62.500000000000071
 20
49.300000000000011
 30
0.0
 11
59.101215999999958
 21
49.300000000000011
 31
0.0
  0
LINE
  5
26E1
  8
241
  6
CONTINUOUS
 10
58.868206999999941
 20
49.102743000000011
 30
0.0
 11
59.101215999999958
 21
49.300000000000011
 31
0.0
  0
LINE
  5
26E2
  8
241
  6
CONTINUOUS
 10
62.500000000000071
 20
49.300000000000011
 30
0.0
 11
65.898783000000037
 21
49.300000000000011
 31
0.0
  0
LINE
  5
26E3
  8
241
  6
CONTINUOUS
 10
66.131791999999962
 20
49.102743000000011
 30
0.0
 11
65.898783000000037
 21
49.300000000000011
 31
0.0
  0
LINE
  5
26E4
  8
240
  6
CONTINUOUS
 10
76.849999999999952
 20
47.5
 30
0.0
 11
77.199999999999974
 21
47.15000000000002
 31
0.0
  0
LINE
  5
26E5
  8
241
  6
CONTINUOUS
 10
66.816328695459774
 20
47.499999999999417
 30
0.0
 11
66.316328695459433
 21
47.999999999999559
 31
0.0
1001
GRPNAME
1000
PASTMD30
  0
POLYLINE
  5
26E6
  8
241
  6
CONTINUOUS
 66
     1
 10
0.0
 20
0.0
 30
0.0
 70
     8
  0
VERTEX
  5
26E7
  8
241
  6
CONTINUOUS
 10
56.984694999999917
 20
56.693974999999519
 30
0.0
 70
    32
  0
VERTEX
  5
26E8
  8
241
  6
CONTINUOUS
 10
59.742346999999931
 20
56.318243999999538
 30
0.0
 70
    32
  0
VERTEX
  5
26E9
  8
241
  6
CONTINUOUS
 10
62.50000000000005
 20
56.192999999999593
 30
0.0
 70
    32
  0
VERTEX
  5
26EA
  8
241
  6
CONTINUOUS
 10
65.257651999999936
 20
56.318243999999538
 30
0.0
 70
    32
  0
VERTEX
  5
26EB
  8
241
  6
CONTINUOUS
 10
68.015304000000071
 20
56.693974999999519
 30
0.0
 70
    32
  0
SEQEND
  5
26EC
  8
241
  6
CONTINUOUS
  0
LINE
  5
26ED
  8
240
  6
CONTINUOUS
 10
66.500000000000043
 20
57.099999999999518
 30
0.0
 11
68.015304000000071
 21
56.693974999999519
 31
0.0
  0
LINE
  5
26EE
  8
240
  6
CONTINUOUS
 10
48.00000000000005
 20
47.499999999999559
 30
0.0
 11
48.149999999999579
 21
47.499999999999559
 31
0.0
  0
LINE
  5
26EF
  8
240
  6
CONTINUOUS
 10
51.000000000000043
 20
56.999999999999559
 30
0.0
 11
55.50000000000005
 21
56.999999999999559
 31
0.0
  0
LINE
  5
26F0
  8
240
  6
CONTINUOUS
 10
48.00000000000005
 20
47.499999999999559
 30
0.0
 11
48.00000000000005
 21
53.999999999999552
 31
0.0
  0
ARC
  5
26F1
  8
240
  6
CONTINUOUS
 10
51.000000000000043
 20
53.999999999999552
 30
0.0
 40
3.0
 50
90.0
 51
180.0
  0
LINE
  5
26F2
  8
241
  6
CONTINUOUS
 10
58.867748174530327
 20
49.599999999999582
 30
0.0
 11
66.132251825469766
 21
49.599999999999582
 31
0.0
1001
GRPNAME
1000
PASTMD30
  0
LINE
  5
26F3
  8
241
  6
CONTINUOUS
 10
58.683671304540788
 20
47.999999999999723
 30
0.0
 11
58.867748174530327
 21
49.099999999999582
 31
0.0
1001
GRPNAME
1000
PASTMD30
  0
LINE
  5
26F4
  8
241
  6
CONTINUOUS
 10
58.183671304540297
 20
47.499999999999858
 30
0.0
 11
58.683671304540653
 21
47.999999999999559
 31
0.0
1001
GRPNAME
1000
PASTMD30
  0
LINE
  5
26F5
  8
241
  6
CONTINUOUS
 10
58.867748174530327
 20
49.099999999999582
 30
0.0
 11
58.867748174530327
 21
49.599999999999582
 31
0.0
1001
GRPNAME
1000
PASTMD30
  0
LINE
  5
26F6
  8
241
  6
CONTINUOUS
 10
66.316328695459305
 20
47.999999999999723
 30
0.0
 11
66.132251825469766
 21
49.099999999999582
 31
0.0
1001
GRPNAME
1000
PASTMD30
  0
LINE
  5
26F7
  8
241
  6
CONTINUOUS
 10
66.132251825469766
 20
49.099999999999582
 30
0.0
 11
66.132251825469766
 21
49.599999999999582
 31
0.0
1001
GRPNAME
1000
PASTMD30
  0
LINE
  5
26F9
  8
240
  6
CONTINUOUS
 10
58.500000000000043
 20
57.099999999999518
 30
0.0
 11
56.984694999999917
 21
56.693974999999519
 31
0.0
  0
POLYLINE
  5
26FA
  8
240
  6
CONTINUOUS
 66
     1
 10
0.0
 20
0.0
 30
0.0
 70
     8
  0
VERTEX
  5
26FB
  8
240
  6
CONTINUOUS
 10
55.50000000000005
 20
56.999999999999559
 30
0.0
 70
    32
  0
VERTEX
  5
26FC
  8
240
  6
CONTINUOUS
 10
55.871173999999932
 20
56.916686999999577
 30
0.0
 70
    32
  0
VERTEX
  5
26FD
  8
240
  6
CONTINUOUS
 10
56.242346999999931
 20
56.837911999999591
 30
0.0
 70
    32
  0
VERTEX
  5
26FE
  8
240
  6
CONTINUOUS
 10
56.613521000000041
 20
56.763674999999552
 30
0.0
 70
    32
  0
VERTEX
  5
26FF
  8
240
  6
CONTINUOUS
 10
56.984694999999917
 20
56.693974999999519
 30
0.0
 70
    32
  0
SEQEND
  5
2700
  8
240
  6
CONTINUOUS
  0
LINE
  5
2701
  8
240
  6
CONTINUOUS
 10
58.500000000000043
 20
57.099999999999518
 30
0.0
 11
66.500000000000043
 21
57.099999999999518
 31
0.0
  0
LINE
  5
2702
  8
240
  6
CONTINUOUS
 10
76.850000000000435
 20
47.499999999999503
 30
0.0
 11
84.347383999999977
 21
47.499999999999559
 31
0.0
  0
LINE
  5
2703
  8
240
  6
CONTINUOUS
 10
75.393276999999927
 20
57.681175999999532
 30
0.0
 11
85.424402999999899
 21
59.449933999999551
 31
0.0
  0
LINE
  5
2704
  8
241
  6
CONTINUOUS
 10
77.817002999999929
 20
54.90037499999957
 30
0.0
 11
86.082410999999908
 21
49.532755999999559
 31
0.0
  0
LINE
  5
2705
  8
241
  6
CONTINUOUS
 10
77.853263000000013
 20
55.592244999999537
 30
0.0
 11
86.418402999999941
 21
59.956402999999497
 31
0.0
  0
LINE
  5
2706
  8
241
  6
CONTINUOUS
 10
77.000000000000014
 20
47.499999999999559
 30
0.0
 11
77.000000000000014
 21
53.999999999999552
 31
0.0
  0
LINE
  5
2707
  8
240
  6
CONTINUOUS
 10
69.500000000000043
 20
56.999999999999559
 30
0.0
 11
75.000000000000028
 21
56.999999999999559
 31
0.0
  0
POLYLINE
  5
2708
  8
240
  6
CONTINUOUS
 66
     1
 10
0.0
 20
0.0
 30
0.0
 70
     8
  0
VERTEX
  5
2709
  8
240
  6
CONTINUOUS
 10
68.015304000000071
 20
56.693974999999519
 30
0.0
 70
    32
  0
VERTEX
  5
270A
  8
240
  6
CONTINUOUS
 10
68.386477999999954
 20
56.763674999999552
 30
0.0
 70
    32
  0
VERTEX
  5
270B
  8
240
  6
CONTINUOUS
 10
68.757651999999936
 20
56.837911999999591
 30
0.0
 70
    32
  0
VERTEX
  5
270C
  8
240
  6
CONTINUOUS
 10
69.128825999999933
 20
56.916686999999577
 30
0.0
 70
    32
  0
VERTEX
  5
270D
  8
240
  6
CONTINUOUS
 10
69.500000000000043
 20
56.999999999999559
 30
0.0
 70
    32
  0
SEQEND
  5
270E
  8
240
  6
CONTINUOUS
  0
ARC
  5
270F
  8
241
  6
CONTINUOUS
 10
74.000000000000028
 20
53.999999999999552
 30
0.0
 40
3.0
 50
0.0
 51
90.0
  0
ARC
  5
2710
  8
241
  6
CONTINUOUS
 10
78.034859000000026
 20
55.235842999999541
 30
0.0
 40
0.4
 50
116.9999999999999
 51
236.9999999999992
  0
LINE
  5
2711
  8
240
  6
CONTINUOUS
 10
75.000000000000028
 20
56.999999999999559
 30
0.0
 11
75.393276999999927
 21
57.681175999999532
 31
0.0
  0
LINE
  5
2712
  8
241
  6
CONTINUOUS
 10
86.999450999999965
 20
59.579065999999571
 30
0.0
 11
86.496351999999945
 21
49.979357999999543
 31
0.0
  0
CIRCLE
  5
2713
  8
246
  6
PHANTOM2
 10
83.577252999999956
 20
54.945377999999501
 30
0.0
 40
3.174999999999998
  0
LINE
  5
2714
  8
240
  6
CONTINUOUS
 10
84.700936999999882
 20
47.646446999999583
 30
0.0
 11
85.9187739999999
 21
48.864282999999553
 31
0.0
  0
ARC
  5
2715
  8
240
  6
CONTINUOUS
 10
84.347383999999977
 20
47.999999999999559
 30
0.0
 40
0.5
 50
270.0
 51
314.99999999999949
  0
ARC
  5
2716
  8
241
  6
CONTINUOUS
 10
86.096900000000034
 20
50.000291999999561
 30
0.0
 40
0.4
 50
236.9999999999992
 51
356.99999999999761
  0
ARC
  5
2717
  8
240
  6
CONTINUOUS
 10
85.56522099999998
 20
49.217836999999527
 30
0.0
 40
0.5
 50
314.99999999999949
 51
356.99999999999761
  0
LINE
  5
2718
  8
240
  6
CONTINUOUS
 10
86.085958999999946
 20
49.600441999999539
 30
0.0
 11
86.064535999999904
 21
49.191668999999543
 31
0.0
  0
ARC
  5
2719
  8
241
  6
CONTINUOUS
 10
86.599999999999937
 20
59.599999999999518
 30
0.0
 40
0.4
 50
356.99999999999761
 51
116.9999999999999
  0
LINE
  5
274A
  8
240
  6
CONTINUOUS
 10
-50.0
 20
22.999999999999989
 30
0.0
 11
-21.001751444115531
 21
23.00000000000006
 31
0.0
  0
LINE
  5
274B
  8
240
  6
CONTINUOUS
 10
-50.0
 20
-23.000000000000021
 30
0.0
 11
-21.00175144411557
 21
-22.99999999999994
 31
0.0
  0
LINE
  5
274C
  8
240
  6
CONTINUOUS
 10
-50.0
 20
-23.000000000000021
 30
0.0
 11
-50.0
 21
22.999999999999979
 31
0.0
  0
LINE
  5
274D
  8
240
  6
CONTINUOUS
 10
-2.998249555884493
 20
-22.99999999999994
 30
0.0
 11
-5.885000111028825
 21
-28.0
 31
0.0
  0
LINE
  5
274E
  8
240
  6
CONTINUOUS
 10
-21.00175144411557
 20
-22.99999999999994
 30
0.0
 11
-18.11500088897116
 21
-28.0
 31
0.0
  0
LINE
  5
274F
  8
240
  6
CONTINUOUS
 10
-18.11500088897116
 20
-28.0
 30
0.0
 11
-5.885000111028825
 21
-28.0
 31
0.0
  0
LINE
  5
2750
  8
245
  6
CENTER2
 10
-19.0
 20
14.15068100000002
 30
0.0
 11
-19.0
 21
-14.014123999999979
 31
0.0
  0
CIRCLE
  5
2751
  8
241
  6
CONTINUOUS
 10
-19.0
 20
0.0
 30
0.0
 40
10.124999999999989
  0
CIRCLE
  5
2752
  8
241
  6
CONTINUOUS
 10
-19.0
 20
0.0
 30
0.0
 40
7.5
  0
LINE
  5
2753
  8
241
  6
CONTINUOUS
 10
-21.00175144411557
 20
-22.99999999999994
 30
0.0
 11
-2.998249555884493
 21
-22.99999999999994
 31
0.0
  0
LINE
  5
2754
  8
240
  6
CONTINUOUS
 10
-2.998249555884493
 20
-22.99999999999994
 30
0.0
 11
-0.0000000000000515
 21
-23.0
 31
0.0
  0
LINE
  5
2755
  8
240
  6
CONTINUOUS
 10
-18.115000888971132
 20
28.0
 30
0.0
 11
-5.8850001110288321
 21
28.0
 31
0.0
  0
LINE
  5
2756
  8
241
  6
CONTINUOUS
 10
-21.001751444115531
 20
23.00000000000006
 30
0.0
 11
-2.998249555884521
 21
23.00000000000006
 31
0.0
  0
LINE
  5
2757
  8
240
  6
CONTINUOUS
 10
-21.001751444115531
 20
23.00000000000006
 30
0.0
 11
-18.115000888971132
 21
28.0
 31
0.0
  0
LINE
  5
2758
  8
240
  6
CONTINUOUS
 10
-2.998249555884521
 20
23.00000000000006
 30
0.0
 11
0.00000000000081
 21
23.0
 31
0.0
  0
LINE
  5
2759
  8
240
  6
CONTINUOUS
 10
-2.998249555884521
 20
23.00000000000006
 30
0.0
 11
-5.8850001110288321
 21
28.0
 31
0.0
  0
LINE
  5
275A
  8
250
  6
CONTINUOUS
 10
-46.520887748121218
 20
-37.553087686866832
 30
0.0
 11
-36.984367039381283
 21
-37.553087686866832
 31
0.0
  0
LINE
  5
275B
  8
250
  6
CONTINUOUS
 10
-36.984367039381283
 20
-37.553087686866832
 30
0.0
 11
-29.659992066468149
 21
-24.928865294181271
 31
0.0
  0
LINE
  5
275C
  8
250
  6
CONTINUOUS
 10
-29.659992066468149
 20
-24.928865294181271
 30
0.0
 11
-28.540894806663239
 21
-22.999999999999961
 31
0.0
  0
LINE
  5
275D
  8
250
  6
CONTINUOUS
 10
-29.406052134112539
 20
-25.076197242820442
 30
0.0
 11
-28.540894806663239
 21
-22.999999999999961
 31
0.0
  0
LINE
  5
275E
  8
250
  6
CONTINUOUS
 10
-28.540894806663239
 20
-22.999999999999961
 30
0.0
 11
-29.91393199882376
 21
-24.781533345542091
 31
0.0
  0
TEXT
  5
275F
  8
250
  6
CONTINUOUS
 10
-46.920887748121217
 20
-36.153087686866833
 30
0.0
 40
2.799999999999998
  1
CK7
  7
YOKO
  0
LINE
  5
2760
  8
247
  6
CONTINUOUS
 10
7.9999999999995071
 20
-34.250000000070393
 30
0.0
 11
7.9999999999995079
 21
-27.55769230803039
 31
0.0
  0
ARC
  5
2761
  8
247
  6
CONTINUOUS
 10
6.2500000000695071
 20
-34.250000000070393
 30
0.0
 40
1.7499999999299991
 50
180.0
 51
0.0
  0
ARC
  5
2762
  8
247
  6
CONTINUOUS
 10
6.2500000000695071
 20
-27.55769230803039
 30
0.0
 40
1.7499999999299991
 50
0.0
 51
180.0
  0
LINE
  5
2763
  8
247
  6
CONTINUOUS
 10
4.5000000001395071
 20
-33.384615384720391
 30
0.0
 11
7.5000000000195071
 21
-34.244851541962397
 31
0.0
  0
LINE
  5
2764
  8
247
  6
CONTINUOUS
 10
5.9230769231595071
 20
-32.484983818336218
 30
0.0
 11
5.9230769231595071
 21
-33.792676125976207
 31
0.0
  0
ARC
  5
2765
  8
247
  6
CONTINUOUS
 10
5.0495986677024831
 20
-32.145143816090183
 30
0.0
 40
0.5538165441895349
 50
72.997889675291589
 51
172.92416621851231
  0
ARC
  5
2766
  8
247
  6
CONTINUOUS
 10
4.936033044465284
 20
-32.566878323029179
 30
0.0
 40
0.9904354236226808
 50
4.7429368522014004
 51
73.849226273267618
1001
GENIUS_GENOBJ-N-FIL_13
1002
{
1000
OWNER
1000
GEN
1002
}
1001
GENIUS_GENODEF_13
1002
{
1000
HIER
1070
     0
1002
}
1002
{
1000
MANEDIT
1070
     0
1002
}
1002
{
1000
NOSEL
1070
     0
1002
}
1002
{
1000
BEHIND
1070
     0
1002
}
1002
{
1000
OTHER
1070
     0
1002
}
1002
{
1000
REACTOR
1002
}
  0
LINE
  5
2767
  8
247
  6
CONTINUOUS
 10
7.5000000000195071
 20
-32.937159234322401
 30
0.0
 11
7.5000000000195071
 21
-34.244851541962397
 31
0.0
  0
LINE
  5
2768
  8
247
  6
CONTINUOUS
 10
4.5000000001395071
 20
-33.384615384720391
 30
0.0
 11
4.5000000001395106
 21
-32.076923077080401
 31
0.0
  0
ARC
  5
2769
  8
247
  6
CONTINUOUS
 10
6.4820242326650641
 20
-32.560919636547361
 30
0.0
 40
0.5640818586791229
 50
65.990941652530523
 51
172.26344345906949
  0
ARC
  5
276A
  8
247
  6
CONTINUOUS
 10
6.4874290391861011
 20
-33.038262685347469
 30
0.0
 40
1.0176059446230981
 50
5.701985164258133
 51
77.277338436820912
1001
GENIUS_GENOBJ-N-FIL_13
1002
{
1000
OWNER
1000
GEN
1002
}
1001
GENIUS_GENODEF_13
1002
{
1000
HIER
1070
     0
1002
}
1002
{
1000
MANEDIT
1070
     0
1002
}
1002
{
1000
NOSEL
1070
     0
1002
}
1002
{
1000
BEHIND
1070
     0
1002
}
1002
{
1000
OTHER
1070
     0
1002
}
1002
{
1000
REACTOR
1002
}
  0
LINE
  5
276B
  8
247
  6
CONTINUOUS
 10
7.5000000000195071
 20
-31.283313080542399
 30
0.0
 11
4.5000000001395106
 21
-30.4230769233004
 31
0.0
  0
LINE
  5
276C
  8
247
  6
CONTINUOUS
 10
4.5000000001395106
 20
-28.000000000320391
 30
0.0
 11
4.5000000001395106
 21
-28.565736619456992
 31
0.0
  0
LINE
  5
276D
  8
247
  6
CONTINUOUS
 10
7.5000000000195071
 20
-29.461538461800391
 30
0.0
 11
7.5000000000195071
 21
-28.846153846440391
 31
0.0
  0
ARC
  5
276E
  8
247
  6
CONTINUOUS
 10
6.5832851359728943
 20
-27.708791209123252
 30
0.0
 40
2.2526500823422122
 50
202.3594881415267
 51
254.9932485428466
  0
ARC
  5
276F
  8
247
  6
CONTINUOUS
 10
5.3083126551940252
 20
-28.37406947921362
 30
0.0
 40
0.8906723995727782
 50
94.994589319075104
 51
155.16632895730359
1001
GENIUS_GENOBJ-N-FIL_13
1002
{
1000
OWNER
1000
GEN
1002
}
1001
GENIUS_GENODEF_13
1002
{
1000
HIER
1070
     0
1002
}
1002
{
1000
MANEDIT
1070
     0
1002
}
1002
{
1000
NOSEL
1070
     0
1002
}
1002
{
1000
BEHIND
1070
     0
1002
}
1002
{
1000
OTHER
1070
     0
1002
}
1002
{
1000
REACTOR
1002
}
  0
ARC
  5
2770
  8
247
  6
CONTINUOUS
 10
6.1601458886672651
 20
-29.226458886212981
 30
0.0
 40
1.392781735586712
 50
15.84609655577942
 51
82.325137004170557
  0
ARC
  5
2771
  8
247
  6
CONTINUOUS
 10
6.4592434315267964
 20
-28.642212725840771
 30
0.0
 40
1.324563662670287
 50
249.71360167049801
 51
321.78874565640751
1001
GENIUS_GENOBJ-N-FIL_13
1002
{
1000
OWNER
1000
GEN
1002
}
1001
GENIUS_GENODEF_13
1002
{
1000
HIER
1070
     0
1002
}
1002
{
1000
MANEDIT
1070
     0
1002
}
1002
{
1000
NOSEL
1070
     0
1002
}
1002
{
1000
BEHIND
1070
     0
1002
}
1002
{
1000
OTHER
1070
     0
1002
}
1002
{
1000
REACTOR
1002
}
  0
LINE
  5
2772
  8
247
  6
CONTINUOUS
 10
6.3461538462195106
 20
-28.538461538760391
 30
0.0
 11
6.3461538462195106
 21
-27.846153846480391
 31
0.0
  0
LINE
  5
2773
  8
247
  6
CONTINUOUS
 10
4.5000000001395106
 20
-34.250000000070393
 30
0.0
 11
4.5000000001395106
 21
-33.576923077020389
 31
0.0
  0
LINE
  5
277B
  8
241
  6
CONTINUOUS
 10
-0.0000000000000515
 20
-23.0
 30
0.0
 11
0.0
 21
23.0
 31
0.0
  0
VIEWPORT
  5
22
 67
     1
  8
0
 10
261.51769911504419
 20
148.5
 30
0.0
 40
523.0353982300885
 41
297.0
 68
     1
 69
     1
1001
ACAD
1000
MVIEW
1002
{
1070
    16
1010
0.0
1020
0.0
1030
0.0
1010
0.0
1020
0.0
1030
1.0
1040
0.0
1040
297.0
1040
261.51769911504419
1040
148.5
1040
50.0
1040
0.0
1040
0.0
1070
     0
1070
   100
1070
     1
1070
     1
1070
     0
1070
     0
1070
     0
1070
     0
1040
0.0
1040
0.0
1040
0.0
1040
1.0
1040
1.0
1040
10.0
1040
10.0
1070
     0
1002
{
1002
}
1002
}
1001
GENIUS_GENOBJ-N-SDF_13
1002
{
1000
OWNER
1000
GEN
1002
}
1001
GENIUS_GENODEF_13
1002
{
1000
HIER
1070
     0
1002
}
1002
{
1000
MANEDIT
1070
     0
1002
}
1002
{
1000
NOSEL
1070
     0
1002
}
1002
{
1000
BEHIND
1070
     0
1002
}
1002
{
1000
OTHER
1070
     0
1002
}
1002
{
1000
REACTOR
1002
}
1001
GENIUS_GENSCREG_15
1000
PF
1040
1.0
1000
DF
1040
1.0
1000
MIN
1011
0.0
1021
0.0
1031
0.0
1021
0.0
1031
0.0
1000
MAX
1011
523.0353982300885
1021
0.0
1031
0.0
1021
297.0
1031
0.0
1000
FLAGS
1070
     4
  0
ENDSEC
  0
EOF
