  0
SECTION
  2
HEADER
  9
$ACADVER
  1
AC1009
  9
$INSBASE
 10
0.0
 20
0.0
 30
0.0
  9
$EXTMIN
 10
-43.75527500000004
 20
-47.426867999999999
 30
0.0
  9
$EXTMAX
 10
105.443871995468
 20
82.000000000000014
 30
0.0
  9
$LIMMIN
 10
0.0
 20
0.0
  9
$LIMMAX
 10
297.0
 20
210.0
  9
$ORTHOMODE
 70
     1
  9
$REGENMODE
 70
     1
  9
$FILLMODE
 70
     1
  9
$QTEXTMODE
 70
     0
  9
$MIRRTEXT
 70
     1
  9
$DRAGMODE
 70
     2
  9
$LTSCALE
 40
10.0
  9
$OSMODE
 70
     7
  9
$ATTMODE
 70
     1
  9
$TEXTSIZE
 40
3.0
  9
$TRACEWID
 40
1.0
  9
$TEXTSTYLE
  7
YOKO
  9
$CLAYER
  8
240
  9
$CELTYPE
  6
BYLAYER
  9
$CECOLOR
 62
   256
  9
$DIMSCALE
 40
1.0
  9
$DIMASZ
 40
2.2299999999999991
  9
$DIMEXO
 40
0.5
  9
$DIMDLI
 40
7.0
  9
$DIMRND
 40
0.0
  9
$DIMDLE
 40
0.0
  9
$DIMEXE
 40
1.0
  9
$DIMTP
 40
0.0
  9
$DIMTM
 40
0.01
  9
$DIMTXT
 40
2.799999999999998
  9
$DIMCEN
 40
0.0
  9
$DIMTSZ
 40
0.0
  9
$DIMTOL
 70
     0
  9
$DIMLIM
 70
     0
  9
$DIMTIH
 70
     0
  9
$DIMTOH
 70
     0
  9
$DIMSE1
 70
     0
  9
$DIMSE2
 70
     0
  9
$DIMTAD
 70
     3
  9
$DIMZIN
 70
     9
  9
$DIMBLK
  1
OPEN
  9
$DIMASO
 70
     1
  9
$DIMSHO
 70
     1
  9
$DIMPOST
  1

  9
$DIMAPOST
  1

  9
$DIMALT
 70
     0
  9
$DIMALTD
 70
     2
  9
$DIMALTF
 40
25.399999999999999
  9
$DIMLFAC
 40
1.0
  9
$DIMTOFL
 70
     1
  9
$DIMTVP
 40
0.0
  9
$DIMTIX
 70
     1
  9
$DIMSOXD
 70
     0
  9
$DIMSAH
 70
     0
  9
$DIMBLK1
  1

  9
$DIMBLK2
  1

  9
$DIMSTYLE
  2
BIGT
  9
$DIMCLRD
 70
   256
  9
$DIMCLRE
 70
   256
  9
$DIMCLRT
 70
    40
  9
$DIMTFAC
 40
1.0
  9
$DIMGAP
 40
1.0
  9
$LUNITS
 70
     2
  9
$LUPREC
 70
     3
  9
$SKETCHINC
 40
1.0
  9
$FILLETRAD
 40
0.0
  9
$AUNITS
 70
     0
  9
$AUPREC
 70
     3
  9
$MENU
  1
.
  9
$ELEVATION
 40
0.0
  9
$PELEVATION
 40
0.0
  9
$THICKNESS
 40
0.0
  9
$LIMCHECK
 70
     0
  9
$BLIPMODE
 70
     0
  9
$CHAMFERA
 40
0.25
  9
$CHAMFERB
 40
0.25
  9
$SKPOLY
 70
     0
  9
$TDCREATE
 40
2453614.7124166209
  9
$TDUPDATE
 40
2460549.5774252079
  9
$TDINDWG
 40
0.0102061111
  9
$TDUSRTIMER
 40
0.0102059028
  9
$USRTIMER
 70
     1
  9
$ANGBASE
 50
0.0
  9
$ANGDIR
 70
     0
  9
$PDMODE
 70
    35
  9
$PDSIZE
 40
-5.0
  9
$PLINEWID
 40
0.0
  9
$COORDS
 70
     1
  9
$SPLFRAME
 70
     0
  9
$SPLINETYPE
 70
     6
  9
$SPLINESEGS
 70
     4
  9
$ATTDIA
 70
     1
  9
$ATTREQ
 70
     1
  9
$HANDLING
 70
     1
  9
$HANDSEED
  5
1AAB
  9
$SURFTAB1
 70
     6
  9
$SURFTAB2
 70
     6
  9
$SURFTYPE
 70
     6
  9
$SURFU
 70
     6
  9
$SURFV
 70
     6
  9
$UCSNAME
  2

  9
$UCSORG
 10
0.0
 20
0.0
 30
0.0
  9
$UCSXDIR
 10
1.0
 20
0.0
 30
0.0
  9
$UCSYDIR
 10
0.0
 20
1.0
 30
0.0
  9
$PUCSNAME
  2

  9
$PUCSORG
 10
0.0
 20
0.0
 30
0.0
  9
$PUCSXDIR
 10
1.0
 20
0.0
 30
0.0
  9
$PUCSYDIR
 10
0.0
 20
1.0
 30
0.0
  9
$USERI1
 70
     1
  9
$USERI2
 70
     0
  9
$USERI3
 70
     0
  9
$USERI4
 70
     0
  9
$USERI5
 70
     0
  9
$USERR1
 40
0.0
  9
$USERR2
 40
0.0
  9
$USERR3
 40
0.0
  9
$USERR4
 40
0.0
  9
$USERR5
 40
0.0
  9
$WORLDVIEW
 70
     1
  9
$SHADEDGE
 70
     3
  9
$SHADEDIF
 70
    70
  9
$TILEMODE
 70
     1
  9
$MAXACTVP
 70
    16
  9
$PLIMCHECK
 70
     0
  9
$PEXTMIN
 10
1.0000000000000000E+020
 20
1.0000000000000000E+020
 30
1.0000000000000000E+020
  9
$PEXTMAX
 10
-1.0000000000000000E+020
 20
-1.0000000000000000E+020
 30
-1.0000000000000000E+020
  9
$PLIMMIN
 10
0.0
 20
0.0
  9
$PLIMMAX
 10
420.0
 20
297.0
  9
$UNITMODE
 70
     0
  9
$VISRETAIN
 70
     1
  9
$PLINEGEN
 70
     0
  9
$PSLTSCALE
 70
     1
  0
ENDSEC
  0
SECTION
  2
TABLES
  0
TABLE
  2
VPORT
 70
     1
  0
VPORT
  2
*ACTIVE
 70
     0
 10
0.0
 20
0.0
 11
1.0
 21
1.0
 12
49.224587535110601
 22
37.197703673087027
 13
0.0
 23
0.0
 14
7.0
 24
7.0
 15
7.0
 25
7.0
 16
0.0
 26
0.0
 36
1.0
 17
0.0
 27
0.0
 37
0.0
 40
217.4469945313854
 41
2.0682680151706689
 42
50.0
 43
0.0
 44
0.0
 50
0.0
 51
0.0
 71
     0
 72
  2000
 73
     1
 74
     0
 75
     0
 76
     1
 77
     0
 78
     0
  0
ENDTAB
  0
TABLE
  2
LTYPE
 70
    18
  0
LTYPE
  2
CONTINUOUS
 70
     0
  3
Solid line
 72
    65
 73
     0
 40
0.0
  0
LTYPE
  2
CENTER2
 70
     0
  3
___ _ ___ _ ___ _ ___ _ ___ _ ___ _ ___ _ ___ _
 72
    65
 73
     4
 40
1.125
 49
0.75
 49
-0.125
 49
0.125
 49
-0.125
  0
LTYPE
  2
HIDDEN2
 70
     0
  3
_ _ _ _ _ _ _ _ _ _ _ _ _ _ _ _ _ _ _ _ _ _ _ _
 72
    65
 73
     2
 40
0.1875
 49
0.125
 49
-0.0625
  0
LTYPE
  2
PHANTOM2
 70
     0
  3
___ _ _ ___ _ _ ___ _ _ ___ _ _ ___ _ _ ___ _ _
 72
    65
 73
     6
 40
1.25
 49
0.625
 49
-0.125
 49
0.125
 49
-0.125
 49
0.125
 49
-0.125
  0
LTYPE
  2
CENTER
 70
     0
  3
____ _ ____ _ ____ _ ____ _ ____ _ ____ _ ____ 
 72
    65
 73
     4
 40
2.0
 49
1.25
 49
-0.25
 49
0.25
 49
-0.25
  0
LTYPE
  2
AMCONSTR
 70
     0
  3
_______________________
 72
    65
 73
     2
 40
9999.0
 49
9999.0
 49
0.0
  0
LTYPE
  2
HIDDEN
 70
     0
  3
Hidden __ __ __ __ __ __ __ __ __ __ __ __ __ _
 72
    65
 73
     2
 40
9.5249999999999986
 49
6.349999999999997
 49
-3.174999999999998
  0
LTYPE
  2
ACANSTGB
 70
     0
  3
__ . . __ . .
 72
    65
 73
     6
 40
0.35433070866
 49
0.15748031496
 49
-0.03937007874
 49
0.03937007874
 49
-0.03937007874
 49
0.03937007874
 49
-0.03937007874
  0
LTYPE
  2
ACANSTGL
 70
     0
  3
_ _ _ _ _
 72
    65
 73
     2
 40
0.11811023622
 49
0.07874015748
 49
-0.03937007874
  0
LTYPE
  2
AMZIGZAG2
 70
     0
  3
/\/-/\/-/\/-/\/-/\/-/\/
 72
    65
 73
     2
 40
0.4401
 49
0.0001
 49
-0.4400000000000002
  0
ENDTAB
  0
TABLE
  2
LAYER
 70
     9
  0
LAYER
  2
0
 70
     0
 62
     7
  6
CONTINUOUS
  0
LAYER
  2
240
 70
     0
 62
     4
  6
CONTINUOUS
  0
LAYER
  2
DEFPOINTS
 70
     0
 62
     7
  6
CONTINUOUS
  0
LAYER
  2
245
 70
     0
 62
     2
  6
CENTER2
  0
LAYER
  2
241
 70
     0
 62
   211
  6
CONTINUOUS
  0
LAYER
  2
242
 70
     0
 62
     3
  6
CONTINUOUS
  0
LAYER
  2
246
 70
     0
 62
     3
  6
PHANTOM2
  0
LAYER
  2
247
 70
     0
 62
    60
  6
CONTINUOUS
  0
LAYER
  2
250
 70
     0
 62
     3
  6
CONTINUOUS
  0
ENDTAB
  0
TABLE
  2
STYLE
 70
     6
  0
STYLE
  2
STANDARD
 70
     0
 40
0.0
 41
1.0
 50
0.0
 71
     0
 42
3.0
  3
romans.shx
  4
extfont.shx
  0
STYLE
  2
YOKO
 70
     0
 40
0.0
 41
1.0
 50
0.0
 71
     0
 42
3.0
  3
romans.shx
  4
extfont.shx
  0
STYLE
  2
ACANSGDT
 70
     0
 40
0.0
 41
1.0
 50
0.0
 71
     0
 42
3.0
  3
amgdt.shx
  4

  0
ENDTAB
  0
TABLE
  2
VIEW
 70
     0
  0
ENDTAB
  0
TABLE
  2
UCS
 70
     0
  0
ENDTAB
  0
TABLE
  2
APPID
 70
    39
  0
APPID
  2
ACAD
 70
     0
  0
APPID
  2
ACADANNOTATIVE
 70
     0
  0
APPID
  2
GLOBAL
 70
     0
  0
APPID
  2
DETAIL
 70
     0
  0
APPID
  2
GRPNAME
 70
     0
  0
APPID
  2
GPARA
 70
     0
  0
APPID
  2
MCAD_NO_VIS
 70
     0
  0
APPID
  2
ACAD_TEMP_GRAPHIC
 70
     0
  0
APPID
  2
ACATTRIBSERVICES
 70
     0
  0
APPID
  2
GENIUS_GENSCREG_15
 70
     0
  0
APPID
  2
GENIUS_GENODEF_13
 70
     0
  0
APPID
  2
GENIUS_GENOBJ-N-SDF_13
 70
     0
  0
APPID
  2
GENIUS_GENREC_14
 70
     0
  0
APPID
  2
GENIUS_GENOBJ-N-REC_13
 70
     0
  0
APPID
  2
GENIUS_GENDIMSH_14
 70
     0
  0
APPID
  2
GENIUS_GENOBJ-N-DIM_13
 70
     0
  0
APPID
  2
GENIUS_GENDIM_13
 70
     0
  0
APPID
  2
GENIUS_GENDTOL_13
 70
     0
  0
APPID
  2
GENIUS_GENOLIS_13
 70
     0
  0
APPID
  2
GENIUS_GENOENT_13
 70
     0
  0
APPID
  2
GENIUS_GENOBJ-F-FEM_13
 70
     0
  0
APPID
  2
GENIUS_GENOREF_13
 70
     0
  0
APPID
  2
GENIUS_GEFFEM_13
 70
     0
  0
APPID
  2
GENIUS_GEFFEMP_13
 70
     0
  0
APPID
  2
AD_DRAW
 70
     0
  0
APPID
  2
DESIGNERASSEMBLIES
 70
     0
  0
APPID
  2
ACADM_DIM_EDIT
 70
     0
  0
APPID
  2
AMDT_DM_ADJ
 70
     0
  0
APPID
  2
ITEMNAME
 70
     0
  0
APPID
  2
HATCH_TYPE
 70
     0
  0
APPID
  2
HATCH_DISPLAY
 70
     0
  0
APPID
  2
HATCH_DISTANCE
 70
     0
  0
APPID
  2
ACAD_DSTYLE_DIMBREAK
 70
     0
  0
APPID
  2
ACAD_DSTYLE_DIMJAG
 70
     0
  0
APPID
  2
ACAD_NAV_VCDISPLAY
 70
     0
  0
APPID
  2
ACAD_EXEMPT_FROM_CAD_STANDARDS
 70
     0
  0
APPID
  2
GENIUS_GENOBJ-N-FIL_13
 70
     0
  0
APPID
  2
ACAECLAYERSTANDARD
 70
     0
  0
APPID
  2
ACAD_MLEADERVER
 70
     0
  0
ENDTAB
  0
TABLE
  2
DIMSTYLE
 70
    10
  0
DIMSTYLE
  2
STANDARD
 70
     0
  3

  4

  5

  6

  7

 40
1.0
 41
0.18
 42
0.0625
 43
0.38
 44
0.18
 45
0.0
 46
0.0
 47
0.0
 48
0.0
140
0.18
141
0.09
142
0.0
143
25.399999999999999
144
1.0
145
0.0
146
1.0
147
0.09
 71
     0
 72
     0
 73
     1
 74
     1
 75
     0
 76
     0
 77
     0
 78
     0
170
     0
171
     2
172
     0
173
     0
174
     0
175
     0
176
     0
177
     0
178
     0
  0
DIMSTYLE
  2
BIGT
 70
     0
  3

  4

  5

  6

  7

 40
1.0
 41
2.2299999999999991
 42
0.5
 43
7.0
 44
1.0
 45
0.0
 46
0.0
 47
0.0
 48
0.01
140
2.799999999999998
141
0.0
142
0.0
143
25.399999999999999
144
1.0
145
0.0
146
1.0
147
1.0
 71
     0
 72
     0
 73
     0
 74
     0
 75
     0
 76
     0
 77
     3
 78
     9
170
     0
171
     2
172
     1
173
     0
174
     1
175
     0
176
   256
177
   256
178
    40
  0
DIMSTYLE
  2
AM_ANSI
 70
     0
  3

  4
mm
  5

  6

  7

 40
1.0
 41
0.1
 42
0.05
 43
0.5
 44
0.1
 45
0.0
 46
0.0
 47
0.1
 48
0.1
140
0.12
141
0.0
142
0.0
143
25.399999999999999
144
1.0
145
0.0
146
0.71
147
0.06
 71
     0
 72
     0
 73
     1
 74
     1
 75
     0
 76
     0
 77
     0
 78
     7
170
     0
171
     2
172
     0
173
     0
174
     0
175
     0
176
   256
177
   256
178
     2
  0
DIMSTYLE
  2
AM_ANSI$3
 70
     0
  3

  4
mm
  5

  6

  7

 40
1.0
 41
0.1
 42
0.05
 43
0.5
 44
0.1
 45
0.0
 46
0.0
 47
0.1
 48
0.1
140
0.12
141
0.0
142
0.0
143
25.399999999999999
144
1.0
145
0.0
146
0.71
147
0.06
 71
     0
 72
     0
 73
     1
 74
     1
 75
     0
 76
     0
 77
     0
 78
     7
170
     0
171
     2
172
     0
173
     0
174
     0
175
     0
176
   256
177
   256
178
     2
  0
DIMSTYLE
  2
AM_ANSI$4
 70
     0
  3

  4
mm
  5

  6

  7

 40
1.0
 41
0.1
 42
0.05
 43
0.5
 44
0.1
 45
0.0
 46
0.0
 47
0.1
 48
0.1
140
0.12
141
0.0
142
0.0
143
25.399999999999999
144
1.0
145
0.0
146
0.71
147
0.06
 71
     0
 72
     0
 73
     1
 74
     1
 75
     0
 76
     0
 77
     0
 78
     7
170
     0
171
     2
172
     0
173
     0
174
     0
175
     0
176
   256
177
   256
178
     2
  0
DIMSTYLE
  2
AM_ANSI$7
 70
     0
  3

  4
mm
  5

  6

  7

 40
1.0
 41
0.1
 42
0.05
 43
0.5
 44
0.1
 45
0.0
 46
0.0
 47
0.1
 48
0.1
140
0.24
141
0.0
142
0.0
143
25.399999999999999
144
1.0
145
0.0
146
0.71
147
0.06
 71
     0
 72
     0
 73
     1
 74
     1
 75
     0
 76
     0
 77
     0
 78
     7
170
     0
171
     2
172
     0
173
     0
174
     0
175
     0
176
   256
177
   256
178
     2
  0
DIMSTYLE
  2
AM_ANSI$SF
 70
     0
  3

  4
mm
  5

  6

  7

 40
1.0
 41
0.1
 42
0.05
 43
0.5
 44
0.1
 45
0.0
 46
0.0
 47
0.1
 48
0.1
140
0.12
141
0.0
142
0.0
143
25.399999999999999
144
1.0
145
0.0
146
0.71
147
0.06
 71
     0
 72
     0
 73
     1
 74
     1
 75
     1
 76
     1
 77
     0
 78
     7
170
     0
171
     2
172
     0
173
     0
174
     0
175
     0
176
   256
177
   256
178
     2
  0
DIMSTYLE
  2
AM_ANSI$SH
 70
     0
  3

  4
mm
  5

  6

  7

 40
1.0
 41
0.1
 42
0.05
 43
0.5
 44
0.1
 45
0.0
 46
0.0
 47
0.1
 48
0.1
140
0.12
141
0.0
142
0.0
143
25.399999999999999
144
1.0
145
0.0
146
0.71
147
0.06
 71
     0
 72
     0
 73
     1
 74
     1
 75
     1
 76
     1
 77
     0
 78
     7
170
     0
171
     2
172
     0
173
     1
174
     0
175
     0
176
   256
177
   256
178
     2
  0
ENDTAB
  0
ENDSEC
  0
SECTION
  2
BLOCKS
  0
BLOCK
  8
0
  2
$MODEL_SPACE
 70
     0
 10
0.0
 20
0.0
 30
0.0
  3
$MODEL_SPACE
  1

  0
ENDBLK
  5
1987
  8
0
  0
BLOCK
 67
     1
  8
0
  2
$PAPER_SPACE
 70
     0
 10
0.0
 20
0.0
 30
0.0
  3
$PAPER_SPACE
  1

  0
ENDBLK
  5
1983
 67
     1
  8
0
  0
BLOCK
  8
0
  2
_OPEN
 70
     0
 10
0.0
 20
0.0
 30
0.0
  3
_OPEN
  1

  0
LINE
  5
595
  8
0
  6
BYBLOCK
 62
     0
 10
-1.0
 20
0.1666666666666666
 30
0.0
 11
0.0
 21
0.0
 31
0.0
  0
LINE
  5
596
  8
0
  6
BYBLOCK
 62
     0
 10
-1.0
 20
-0.1666666666666666
 30
0.0
 11
0.0
 21
0.0
 31
0.0
  0
LINE
  5
597
  8
0
  6
BYBLOCK
 62
     0
 10
0.0
 20
0.0
 30
0.0
 11
-1.0
 21
0.0
 31
0.0
  0
ENDBLK
  5
599
  8
0
  0
BLOCK
  8
0
  2
_ACMFILLEDHALF
 70
     0
 10
0.0
 20
0.0
 30
0.0
  3
_ACMFILLEDHALF
  1

  0
TRACE
  5
16D4
  8
240
 62
     0
 10
-0.8
 20
0.0
 30
0.0
 11
-1.0
 21
0.166666666
 31
0.0
 12
0.0
 22
0.0
 32
0.0
 13
0.0
 23
0.0
 33
0.0
  0
LINE
  5
16D5
  8
240
 62
     0
 10
-1.0
 20
0.0
 30
0.0
 11
-0.8
 21
0.0
 31
0.0
  0
ENDBLK
  5
16D3
  8
0
  0
ENDSEC
  0
SECTION
  2
ENTITIES
  0
LINE
  5
1473
  8
250
  6
CONTINUOUS
 10
63.459937917523391
 20
55.398141256146097
 30
0.0
 11
64.5749379175234
 21
57.329377906585393
 31
0.0
  0
LINE
  5
1474
  8
250
  6
CONTINUOUS
 10
64.253065142450183
 20
57.515211239918727
 30
0.0
 11
63.459937917523391
 21
55.398141256146097
 31
0.0
  0
LINE
  5
1475
  8
250
  6
CONTINUOUS
 10
64.896810692596603
 20
57.143544573252058
 30
0.0
 11
63.459937917523391
 21
55.398141256146097
 31
0.0
  0
LINE
  5
1476
  8
250
  6
CONTINUOUS
 10
64.574937917523386
 20
57.329377906585393
 30
0.0
 11
71.702331516903342
 21
69.674385746252653
 31
0.0
1001
ACAD
1000
DSTYLE
1002
{
1070
     6
1000
OPEN
1070
    78
1070
     8
1070
   140
1040
3.0
1070
   173
1070
     1
1002
}
  0
LINE
  5
1477
  8
250
  6
CONTINUOUS
 10
90.999991719543402
 20
56.999999907313601
 30
0.0
 11
90.999991719543402
 21
54.769999907313611
 31
0.0
  0
LINE
  5
1478
  8
250
  6
CONTINUOUS
 10
91.371658386210044
 20
54.769999907313611
 30
0.0
 11
90.999991719543402
 21
56.999999907313601
 31
0.0
  0
LINE
  5
1479
  8
250
  6
CONTINUOUS
 10
90.628325052876704
 20
54.769999907313611
 30
0.0
 11
90.999991719543402
 21
56.999999907313601
 31
0.0
  0
TEXT
  5
147A
  8
250
  6
CONTINUOUS
 10
89.999991719543374
 20
5.4285714285714324
 30
0.0
 40
3.0
  1
153üj
 50
90.0
1001
ACAD
1000
MTEXTBEGIN
1070
    73
1070
     1
1070
    44
1040
1.0
1070
    74
1070
     0
1000
MTEXTEND
  0
TEXT
  5
147B
  8
250
  6
CONTINUOUS
 10
89.999991719543374
 20
2.7142857142857202
 30
0.0
 40
3.0
  1
\U+2205
 50
90.0
1001
ACAD
1000
MTEXTBEGIN
1070
    73
1070
     1
1070
    44
1040
1.0
1070
    74
1070
     0
1000
MTEXTEND
  0
TEXT
  5
147C
  8
250
  6
CONTINUOUS
 10
89.999991719543374
 20
-9.4571428571428502
 30
0.0
 40
3.0
  1
100ü`
 50
90.0
1001
ACAD
1000
MTEXTBEGIN
1070
    73
1070
     1
1070
    44
1040
1.0
1070
    74
1070
     0
1000
MTEXTEND
  0
TEXT
  5
147D
  8
250
  6
CONTINUOUS
 10
89.999991719543374
 20
-12.17142857142856
 30
0.0
 40
3.0
  1
\U+2205
 50
90.0
1001
ACAD
1000
MTEXTBEGIN
1070
    73
1070
     1
1070
    44
1040
1.0
1070
    74
1070
     0
1000
MTEXTEND
  0
TEXT
  5
147E
  8
250
  6
CONTINUOUS
 10
89.999991719543374
 20
-15.77142857142856
 30
0.0
 40
3.0
  1
üi
 50
90.0
1001
ACAD
1000
MTEXTBEGIN
1070
    73
1070
     1
1070
    44
1040
1.0
1070
    74
1070
     0
1000
MTEXTEND
  0
LINE
  5
147F
  8
250
  6
CONTINUOUS
 10
0.000000000000002
 20
63.0
 30
0.0
 11
2.2299999999999991
 21
63.0
 31
0.0
  0
LINE
  5
1480
  8
250
  6
CONTINUOUS
 10
2.2299999999999991
 20
63.371666666666663
 30
0.0
 11
0.000000000000002
 21
63.0
 31
0.0
  0
LINE
  5
1481
  8
250
  6
CONTINUOUS
 10
2.2299999999999991
 20
62.62833333333333
 30
0.0
 11
0.000000000000002
 21
63.0
 31
0.0
  0
LINE
  5
1482
  8
250
  6
CONTINUOUS
 10
71.0
 20
63.0
 30
0.0
 11
68.769999999999996
 21
63.0
 31
0.0
  0
LINE
  5
1483
  8
250
  6
CONTINUOUS
 10
68.769999999999996
 20
62.62833333333333
 30
0.0
 11
71.0
 21
63.0
 31
0.0
  0
LINE
  5
1484
  8
250
  6
CONTINUOUS
 10
68.769999999999996
 20
63.37166666666667
 30
0.0
 11
71.0
 21
63.0
 31
0.0
  0
TEXT
  5
1485
  8
250
  6
CONTINUOUS
 10
33.071428571428569
 20
64.0
 30
0.0
 40
3.0
  1
71
1001
ACAD
1000
MTEXTBEGIN
1070
    73
1070
     1
1070
    44
1040
1.0
1070
    74
1070
     0
1000
MTEXTEND
  0
LINE
  5
148B
  8
250
  6
CONTINUOUS
 10
2.2300000000000022
 20
63.0
 30
0.0
 11
68.769999999999996
 21
63.0
 31
0.0
  0
LINE
  5
148C
  8
250
  6
CONTINUOUS
 10
71.0
 20
57.079065907313527
 30
0.0
 11
71.0
 21
64.0
 31
0.0
  0
LINE
  5
148D
  8
250
  6
CONTINUOUS
 10
0.0
 20
30.100000000000019
 30
0.0
 11
0.0000000000000021
 21
64.0
 31
0.0
  0
LINE
  5
148E
  8
250
  6
CONTINUOUS
 10
90.999991719543402
 20
54.769999907313611
 30
0.0
 11
90.999991719543345
 21
-16.771428571428569
 31
0.0
  0
LINE
  5
148F
  8
250
  6
CONTINUOUS
 10
71.10054799999989
 20
56.999999907313608
 30
0.0
 11
91.999991719543374
 21
56.999999907313601
 31
0.0
  0
TEXT
  5
1490
  8
250
  6
CONTINUOUS
 10
74.130902945474773
 20
70.674385746252668
 30
0.0
 40
3.0
  1
ENH6-1,TC11
  7
YOKO
1001
ITEMNAME
1000
LNSP3
1001
ACAD
1000
MTEXTBEGIN
1070
    73
1070
     1
1070
    44
1040
1.0
1070
    74
1070
     0
1000
MTEXTEND
  0
LINE
  5
14B2
  8
250
  6
CONTINUOUS
 10
71.702331516903342
 20
69.674385746252653
 30
0.0
 11
105.443871995468
 21
69.674385746252653
 31
0.0
1001
ITEMNAME
1000
LNSP2
  0
TEXT
  5
14B4
  8
241
  6
CONTINUOUS
 10
-42.0
 20
77.0
 30
0.0
 40
5.0
  1
EWN100-203CKB6
  7
YOKO
 11
-42.0
 21
77.0
 31
0.0
 73
     1
  0
LINE
  5
16F7
  8
240
  6
CONTINUOUS
 10
0.5
 20
32.0
 30
0.0
 11
19.0
 21
32.0
 31
0.0
  0
LINE
  5
16F8
  8
240
  6
CONTINUOUS
 10
0.5
 20
-32.0
 30
0.0
 11
19.0
 21
-32.0
 31
0.0
  0
LINE
  5
16F9
  8
245
  6
CENTER2
 10
-43.75527500000004
 20
0.0
 30
0.0
 11
73.0305239999999
 21
0.0
 31
0.0
  0
LINE
  5
16FD
  8
241
  6
CONTINUOUS
 10
0.5
 20
30.100000000000019
 30
0.0
 11
0.5
 21
-30.099999999999959
 31
0.0
  0
LINE
  5
170C
  8
240
  6
CONTINUOUS
 10
0.0
 20
-29.599999999999959
 30
0.0
 11
0.0
 21
-18.0
 31
0.0
  0
LINE
  5
170E
  8
240
  6
CONTINUOUS
 10
0.0
 20
-29.599999999999959
 30
0.0
 11
0.5
 21
-30.099999999999959
 31
0.0
  0
LINE
  5
1710
  8
240
  6
CONTINUOUS
 10
0.5
 20
-30.099999999999959
 30
0.0
 11
0.5
 21
-32.0
 31
0.0
  0
LINE
  5
1786
  8
240
  6
CONTINUOUS
 10
0.0
 20
29.600000000000019
 30
0.0
 11
0.0
 21
18.58301299999999
 31
0.0
  0
LINE
  5
178B
  8
240
  6
CONTINUOUS
 10
0.0
 20
18.00000000000011
 30
0.0
 11
0.0
 21
18.58301299999999
 31
0.0
  0
LINE
  5
178D
  8
240
  6
CONTINUOUS
 10
0.0
 20
29.600000000000019
 30
0.0
 11
0.5
 21
30.100000000000019
 31
0.0
  0
LINE
  5
178E
  8
240
  6
CONTINUOUS
 10
0.5
 20
32.0
 30
0.0
 11
0.5
 21
30.100000000000019
 31
0.0
  0
LINE
  5
178F
  8
241
  6
CONTINUOUS
 10
49.0
 20
-7.4433759999999989
 30
0.0
 11
49.0
 21
-4.5566239999999949
 31
0.0
  0
LINE
  5
1790
  8
241
  6
CONTINUOUS
 10
44.0
 20
-4.5566239999999949
 30
0.0
 11
44.0
 21
-7.4433759999999989
 31
0.0
  0
CIRCLE
  5
1791
  8
241
  6
CONTINUOUS
 10
46.5
 20
-6.0
 30
0.0
 40
5.25
  0
CIRCLE
  5
1792
  8
242
  6
CONTINUOUS
 10
46.5
 20
-6.0
 30
0.0
 40
5.0
  0
ARC
  5
1793
  8
241
  6
CONTINUOUS
 10
96.939407999999958
 20
0.0
 30
0.0
 40
77.939408
 50
157.70051300000151
 51
202.29948799999869
  0
LINE
  5
1794
  8
241
  6
CONTINUOUS
 10
19.0
 20
32.0
 30
0.0
 11
19.0
 21
-32.0
 31
0.0
  0
LINE
  5
1795
  8
240
  6
CONTINUOUS
 10
67.199999999999932
 20
40.100000000000001
 30
0.0
 11
67.199999999999932
 21
-40.499999999999993
 31
0.0
  0
LINE
  5
1796
  8
241
  6
CONTINUOUS
 10
24.82884499999988
 20
-29.573942999999979
 30
0.0
 11
24.82884499999988
 21
29.573942999999979
 31
0.0
  0
LINE
  5
1797
  8
245
  6
CENTER2
 10
46.5
 20
54.852491999999977
 30
0.0
 11
46.5
 21
-47.426867999999999
 31
0.0
  0
LINE
  5
1798
  8
241
  6
CONTINUOUS
 10
44.0
 20
-7.4433759999999989
 30
0.0
 11
46.5
 21
-8.8867510000000021
 31
0.0
  0
LINE
  5
179A
  8
241
  6
CONTINUOUS
 10
63.949999999999932
 20
-41.39999999999997
 30
0.0
 11
29.049999999999951
 21
-41.39999999999997
 31
0.0
  0
LINE
  5
179B
  8
241
  6
CONTINUOUS
 10
24.82884499999988
 20
-29.573942999999979
 30
0.0
 11
67.199999999999932
 21
-29.573942999999979
 31
0.0
  0
LINE
  5
179C
  8
240
  6
CONTINUOUS
 10
40.25
 20
-44.401030999999989
 30
0.0
 11
29.049999999999951
 21
-41.39999999999997
 31
0.0
  0
LINE
  5
179D
  8
240
  6
CONTINUOUS
 10
19.0
 20
-32.5
 30
0.0
 11
24.82884499999988
 21
-45.0
 31
0.0
  0
LINE
  5
179E
  8
240
  6
CONTINUOUS
 10
28.5
 20
-41.39999999999997
 30
0.0
 11
26.421538999999932
 21
-45.0
 31
0.0
  0
LINE
  5
179F
  8
240
  6
CONTINUOUS
 10
24.82884499999988
 20
-45.0
 30
0.0
 11
26.421538999999932
 21
-45.0
 31
0.0
  0
LINE
  5
17A0
  8
240
  6
CONTINUOUS
 10
29.049999999999951
 20
-41.39999999999997
 30
0.0
 11
28.5
 21
-41.39999999999997
 31
0.0
  0
LINE
  5
17A1
  8
240
  6
CONTINUOUS
 10
19.0
 20
-32.0
 30
0.0
 11
19.0
 21
-32.5
 31
0.0
  0
LINE
  5
17A2
  8
240
  6
CONTINUOUS
 10
52.75
 20
-44.401030999999989
 30
0.0
 11
63.949999999999932
 21
-41.39999999999997
 31
0.0
  0
LINE
  5
17A3
  8
240
  6
CONTINUOUS
 10
40.25
 20
-44.401030999999989
 30
0.0
 11
52.75
 21
-44.401030999999989
 31
0.0
  0
LINE
  5
17A4
  8
240
  6
CONTINUOUS
 10
66.680384000000004
 20
-41.39999999999997
 30
0.0
 11
63.949999999999932
 21
-41.39999999999997
 31
0.0
  0
LINE
  5
17A5
  8
240
  6
CONTINUOUS
 10
67.199999999999932
 20
-40.499999999999993
 30
0.0
 11
66.680384000000004
 21
-41.39999999999997
 31
0.0
  0
LINE
  5
17A6
  8
241
  6
CONTINUOUS
 10
46.5
 20
-8.8867510000000021
 30
0.0
 11
49.0
 21
-7.4433759999999989
 31
0.0
  0
LINE
  5
17A7
  8
240
  6
CONTINUOUS
 10
31.797208920981351
 20
43.238133254290489
 30
0.0
 11
19.0
 21
32.5
 31
0.0
  0
LINE
  5
17A8
  8
245
  6
CENTER2
 10
40.245747999999907
 20
21.0
 30
0.0
 11
52.995597999999973
 21
21.0
 31
0.0
  0
LINE
  5
17A9
  8
241
  6
CONTINUOUS
 10
44.0
 20
19.556623999999989
 30
0.0
 11
46.5
 21
18.113248999999989
 31
0.0
  0
CIRCLE
  5
17AA
  8
241
  6
CONTINUOUS
 10
46.5
 20
21.0
 30
0.0
 40
5.25
  0
CIRCLE
  5
17AB
  8
242
  6
CONTINUOUS
 10
46.5
 20
21.0
 30
0.0
 40
5.0
  0
LINE
  5
17AC
  8
241
  6
CONTINUOUS
 10
46.5
 20
23.886751
 30
0.0
 11
44.0
 21
22.443376000000001
 31
0.0
  0
LINE
  5
17AD
  8
245
  6
CENTER2
 10
39.933343999999927
 20
-6.0
 30
0.0
 11
52.444011999999937
 21
-6.0
 31
0.0
  0
LINE
  5
17AE
  8
241
  6
CONTINUOUS
 10
46.5
 20
-3.113248999999993
 30
0.0
 11
44.0
 21
-4.5566239999999949
 31
0.0
  0
LINE
  5
17AF
  8
241
  6
CONTINUOUS
 10
24.82884499999988
 20
29.573942999999979
 30
0.0
 11
67.199999999999932
 21
29.573942999999979
 31
0.0
  0
LINE
  5
17B0
  8
240
  6
CONTINUOUS
 10
19.0
 20
32.5
 30
0.0
 11
19.0
 21
32.0
 31
0.0
  0
LINE
  5
17B1
  8
241
  6
CONTINUOUS
 10
44.0
 20
22.443376000000001
 30
0.0
 11
44.0
 21
19.556623999999989
 31
0.0
  0
LINE
  5
17B2
  8
241
  6
CONTINUOUS
 10
49.0
 20
-4.5566239999999949
 30
0.0
 11
46.5
 21
-3.113248999999993
 31
0.0
  0
LINE
  5
17B3
  8
241
  6
CONTINUOUS
 10
46.5
 20
18.113248999999989
 30
0.0
 11
49.0
 21
19.556623999999989
 31
0.0
  0
LINE
  5
17B4
  8
241
  6
CONTINUOUS
 10
49.0
 20
22.443376000000001
 30
0.0
 11
46.5
 21
23.886751
 31
0.0
  0
LINE
  5
17B5
  8
241
  6
CONTINUOUS
 10
49.0
 20
19.556623999999989
 30
0.0
 11
49.0
 21
22.443376000000001
 31
0.0
  0
LINE
  5
17B6
  8
241
  6
CONTINUOUS
 10
46.501156888860628
 20
46.299999907313591
 30
0.0
 11
43.102373888860527
 21
46.299999907313591
 31
0.0
  0
LINE
  5
17B7
  8
241
  6
CONTINUOUS
 10
32.414500999999973
 20
43.756102999999989
 30
0.0
 11
61.200547999999912
 21
40.730567999999977
 31
0.0
  0
LINE
  5
17B8
  8
241
  6
CONTINUOUS
 10
42.869363888860597
 20
46.102742907313562
 30
0.0
 11
42.601157413063973
 21
44.499999907313587
 31
0.0
  0
LINE
  5
17B9
  8
241
  6
CONTINUOUS
 10
32.130360051054389
 20
44.499999907313587
 30
0.0
 11
42.601157413064008
 21
44.499999907313587
 31
0.0
  0
LINE
  5
17BA
  8
240
  6
CONTINUOUS
 10
32.130360051053977
 20
44.499999907313601
 30
0.0
 11
31.798405355719161
 21
44.168897527158222
 31
0.0
  0
LINE
  5
17BB
  8
240
  6
CONTINUOUS
 10
31.797208920981351
 20
43.238133254290489
 30
0.0
 11
31.798405355719161
 21
44.168897527158222
 31
0.0
  0
LINE
  5
17BC
  8
241
  6
CONTINUOUS
 10
32.414500999999973
 20
43.756102999999989
 30
0.0
 11
31.797208920860371
 21
43.238133160175451
 31
0.0
  0
LINE
  5
17BD
  8
241
  6
CONTINUOUS
 10
42.869363888860597
 20
46.102742907313562
 30
0.0
 11
43.102373888860527
 21
46.299999907313591
 31
0.0
  0
LINE
  5
17BE
  8
241
  6
CONTINUOUS
 10
50.401156888860513
 20
44.499999907313558
 30
0.0
 11
60.851156888860537
 21
44.499999907313587
 31
0.0
  0
LINE
  5
17BF
  8
241
  6
CONTINUOUS
 10
50.401156888860612
 20
44.499999907313587
 30
0.0
 11
50.13294988886053
 21
46.102742907313562
 31
0.0
  0
LINE
  5
17C0
  8
241
  6
CONTINUOUS
 10
46.501156888860628
 20
46.299999907313591
 30
0.0
 11
49.899939888860608
 21
46.299999907313591
 31
0.0
  0
LINE
  5
17C1
  8
241
  6
CONTINUOUS
 10
49.899939888860608
 20
46.299999907313591
 30
0.0
 11
50.13294988886053
 21
46.102742907313562
 31
0.0
  0
LINE
  5
17C2
  8
240
  6
CONTINUOUS
 10
61.200547999999912
 20
40.730567999999977
 30
0.0
 11
67.199999999999932
 21
40.100000000000001
 31
0.0
  0
LINE
  5
17C3
  8
240
  6
CONTINUOUS
 10
60.851156888860537
 20
44.499999907313587
 30
0.0
 11
61.201156888860552
 21
44.149999907313607
 31
0.0
  0
LINE
  5
17C4
  8
240
  6
CONTINUOUS
 10
61.201156888860552
 20
44.149999907313607
 30
0.0
 11
61.201156888860467
 21
40.730504003183107
 31
0.0
  0
LINE
  5
17C5
  8
241
  6
CONTINUOUS
 10
42.868296174530222
 20
46.59999990731361
 30
0.0
 11
50.132799825469682
 21
46.59999990731361
 31
0.0
1001
GRPNAME
1000
PASTMD30
  0
LINE
  5
17C7
  8
240
  6
CONTINUOUS
 10
32.000547999999952
 20
44.499999907313601
 30
0.0
 11
32.130360051053977
 21
44.499999907313601
 31
0.0
  0
ARC
  5
17C8
  8
240
  6
CONTINUOUS
 10
35.000547999999981
 20
50.999999907313587
 30
0.0
 40
3.0
 50
90.0
 51
180.0
  0
LINE
  5
17C9
  8
240
  6
CONTINUOUS
 10
32.000547999999952
 20
44.499999907313601
 30
0.0
 11
32.000547999999981
 21
50.999999907313587
 31
0.0
  0
LINE
  5
17CA
  8
241
  6
CONTINUOUS
 10
42.684219304540697
 20
44.999999907313772
 30
0.0
 11
42.868296174530222
 21
46.099999907313617
 31
0.0
1001
GRPNAME
1000
PASTMD30
  0
LINE
  5
17CB
  8
241
  6
CONTINUOUS
 10
42.184219304540548
 20
44.499999907313601
 30
0.0
 11
42.684219304540562
 21
44.999999907313587
 31
0.0
1001
GRPNAME
1000
PASTMD30
  0
LINE
  5
17CC
  8
241
  6
CONTINUOUS
 10
42.868296174530222
 20
46.099999907313617
 30
0.0
 11
42.868296174530222
 21
46.59999990731361
 31
0.0
1001
GRPNAME
1000
PASTMD30
  0
LINE
  5
17CD
  8
240
  6
CONTINUOUS
 10
35.000547999999981
 20
53.999999907313587
 30
0.0
 11
39.500547999999988
 21
53.999999907313587
 31
0.0
  0
LINE
  5
17CE
  8
240
  6
CONTINUOUS
 10
42.500547999999959
 20
54.09999990731361
 30
0.0
 11
40.985243999999959
 21
53.693974907313617
 31
0.0
  0
LINE
  5
17CF
  8
241
  6
CONTINUOUS
 10
71.0
 20
56.579065907313542
 30
0.0
 11
70.496899999999982
 21
46.979357907313563
 31
0.0
  0
LINE
  5
17D0
  8
240
  6
CONTINUOUS
 10
59.393824999999978
 20
54.681175907313602
 30
0.0
 11
69.42495099999995
 21
56.449933907313557
 31
0.0
  0
CIRCLE
  5
17D1
  8
246
  6
PHANTOM2
 10
67.577800999999894
 20
51.945377907313592
 30
0.0
 40
3.174999999999998
  0
LINE
  5
17D2
  8
241
  6
CONTINUOUS
 10
61.853810999999929
 20
52.592244907313592
 30
0.0
 11
70.418951999999862
 21
56.956402907313567
 31
0.0
  0
LINE
  5
17D3
  8
240
  6
CONTINUOUS
 10
60.851156888860537
 20
44.499999907313587
 30
0.0
 11
68.347931999999901
 21
44.499999907313601
 31
0.0
  0
LINE
  5
17D4
  8
241
  6
CONTINUOUS
 10
61.817551999999957
 20
51.900374907313591
 30
0.0
 11
70.082959999999929
 21
46.532755907313529
 31
0.0
  0
LINE
  5
17D5
  8
240
  6
CONTINUOUS
 10
53.500547999999966
 20
53.999999907313587
 30
0.0
 11
59.000547999999966
 21
53.999999907313587
 31
0.0
  0
LINE
  5
17D6
  8
241
  6
CONTINUOUS
 10
50.816876695459321
 20
44.499999907313601
 30
0.0
 11
50.316876695459342
 21
44.999999907313587
 31
0.0
1001
GRPNAME
1000
PASTMD30
  0
LINE
  5
17D7
  8
241
  6
CONTINUOUS
 10
50.316876695459221
 20
44.999999907313772
 30
0.0
 11
50.132799825469682
 21
46.099999907313617
 31
0.0
1001
GRPNAME
1000
PASTMD30
  0
LINE
  5
17D8
  8
241
  6
CONTINUOUS
 10
50.132799825469682
 20
46.099999907313617
 30
0.0
 11
50.132799825469682
 21
46.59999990731361
 31
0.0
1001
GRPNAME
1000
PASTMD30
  0
LINE
  5
17D9
  8
240
  6
CONTINUOUS
 10
42.500547999999959
 20
54.09999990731361
 30
0.0
 11
50.500547999999981
 21
54.09999990731361
 31
0.0
  0
LINE
  5
17DA
  8
240
  6
CONTINUOUS
 10
50.500547999999981
 20
54.09999990731361
 30
0.0
 11
52.01585199999986
 21
53.693974907313617
 31
0.0
  0
LINE
  5
17DB
  8
241
  6
CONTINUOUS
 10
61.000547999999966
 20
44.499999907313601
 30
0.0
 11
61.000547999999966
 21
50.999999907313587
 31
0.0
  0
ARC
  5
17DC
  8
241
  6
CONTINUOUS
 10
58.000547999999981
 20
50.999999907313587
 30
0.0
 40
3.0
 50
0.0
 51
90.0
  0
LINE
  5
17DD
  8
240
  6
CONTINUOUS
 10
59.000547999999966
 20
53.999999907313587
 30
0.0
 11
59.393824999999978
 21
54.681175907313602
 31
0.0
  0
ARC
  5
17DE
  8
241
  6
CONTINUOUS
 10
62.035406999999957
 20
52.235842907313561
 30
0.0
 40
0.4
 50
116.9999999999999
 51
236.99999999999829
  0
ARC
  5
17DF
  8
241
  6
CONTINUOUS
 10
70.097448999999855
 20
47.000291907313589
 30
0.0
 40
0.4
 50
236.99999999999829
 51
357.00000000000108
  0
LINE
  5
17E0
  8
240
  6
CONTINUOUS
 10
68.701485999999917
 20
44.646446907313567
 30
0.0
 11
69.919322999999963
 21
45.864283907313578
 31
0.0
  0
LINE
  5
17E1
  8
240
  6
CONTINUOUS
 10
70.08650699999987
 20
46.600441907313567
 30
0.0
 11
70.065083999999928
 21
46.191668907313563
 31
0.0
  0
ARC
  5
17E2
  8
240
  6
CONTINUOUS
 10
69.565768999999889
 20
46.217836907313568
 30
0.0
 40
0.5
 50
315.00000000000028
 51
357.00000000000108
  0
ARC
  5
17E3
  8
240
  6
CONTINUOUS
 10
68.347931999999901
 20
44.999999907313587
 30
0.0
 40
0.5
 50
270.0
 51
315.00000000000028
  0
ARC
  5
17E4
  8
241
  6
CONTINUOUS
 10
70.600547999999876
 20
56.59999990731361
 30
0.0
 40
0.4
 50
357.00000000000108
 51
116.9999999999999
  0
LINE
  5
17E5
  8
240
  6
CONTINUOUS
 10
52.01585199999986
 20
53.693974907313617
 30
0.0
 11
52.387025999999977
 21
53.763674907313607
 31
0.0
  0
LINE
  5
17E6
  8
240
  6
CONTINUOUS
 10
52.387025999999977
 20
53.763674907313607
 30
0.0
 11
52.758199999999981
 21
53.83791190731354
 31
0.0
  0
LINE
  5
17E7
  8
240
  6
CONTINUOUS
 10
52.758199999999981
 20
53.83791190731354
 30
0.0
 11
53.129373999999842
 21
53.916686907313569
 31
0.0
  0
LINE
  5
17E8
  8
240
  6
CONTINUOUS
 10
53.129373999999842
 20
53.916686907313569
 30
0.0
 11
53.500547999999966
 21
53.999999907313587
 31
0.0
  0
LINE
  5
17E9
  8
240
  6
CONTINUOUS
 10
39.500547999999988
 20
53.999999907313587
 30
0.0
 11
39.87172199999997
 21
53.916686907313569
 31
0.0
  0
LINE
  5
17EA
  8
240
  6
CONTINUOUS
 10
39.87172199999997
 20
53.916686907313569
 30
0.0
 11
40.242895999999952
 21
53.83791190731354
 31
0.0
  0
LINE
  5
17EB
  8
240
  6
CONTINUOUS
 10
40.242895999999952
 20
53.83791190731354
 30
0.0
 11
40.614069999999842
 21
53.763674907313607
 31
0.0
  0
LINE
  5
17EC
  8
240
  6
CONTINUOUS
 10
40.614069999999842
 20
53.763674907313607
 30
0.0
 11
40.985243999999959
 21
53.693974907313617
 31
0.0
  0
LINE
  5
17ED
  8
241
  6
CONTINUOUS
 10
40.985243999999959
 20
53.693974907313617
 30
0.0
 11
43.742895999999959
 21
53.318243907313587
 31
0.0
  0
LINE
  5
17EE
  8
241
  6
CONTINUOUS
 10
43.742895999999959
 20
53.318243907313587
 30
0.0
 11
46.500547999999966
 21
53.192999907313613
 31
0.0
  0
LINE
  5
17EF
  8
241
  6
CONTINUOUS
 10
46.500547999999966
 20
53.192999907313613
 30
0.0
 11
49.258199999999981
 21
53.318243907313587
 31
0.0
  0
LINE
  5
17F0
  8
241
  6
CONTINUOUS
 10
49.258199999999981
 20
53.318243907313587
 30
0.0
 11
52.01585199999986
 21
53.693974907313617
 31
0.0
  0
LINE
  5
1816
  8
241
  6
CONTINUOUS
 10
0.0000000000000853
 20
17.999999999999972
 30
0.0
 11
-0.0000000000000853
 21
-18.0
 31
0.0
  0
LINE
  5
1817
  8
240
  6
CONTINUOUS
 10
-40.0
 20
-18.0
 30
0.0
 11
-40.0
 21
18.000000000000011
 31
0.0
  0
LINE
  5
1818
  8
245
  6
CENTER2
 10
-15.99999999999997
 20
9.4657429999999358
 30
0.0
 11
-15.99999999999997
 21
-9.8178660000000182
 31
0.0
  0
LINE
  5
1819
  8
241
  6
CONTINUOUS
 10
-16.005726960257299
 20
-18.0
 30
0.0
 11
-2.033863362127815
 21
-17.999999999999979
 31
0.0
  0
CIRCLE
  5
181A
  8
241
  6
CONTINUOUS
 10
-15.99999999999997
 20
-0.0000000000000377
 30
0.0
 40
5.9835000000000003
  0
CIRCLE
  5
181B
  8
241
  6
CONTINUOUS
 10
-15.99999999999997
 20
-0.0000000000000377
 30
0.0
 40
4.5
  0
LINE
  5
181C
  8
240
  6
CONTINUOUS
 10
-40.0
 20
-18.0
 30
0.0
 11
-16.005726960257189
 21
-18.0
 31
0.0
  0
LINE
  5
181D
  8
240
  6
CONTINUOUS
 10
-16.005726960257189
 20
-18.0
 30
0.0
 11
-13.98499967329049
 21
-21.499999999999989
 31
0.0
  0
LINE
  5
181E
  8
240
  6
CONTINUOUS
 10
-13.98499967329049
 20
-21.499999999999989
 30
0.0
 11
-4.0150001454207871
 21
-21.499999999999989
 31
0.0
  0
LINE
  5
181F
  8
240
  6
CONTINUOUS
 10
-1.9942741274754181
 20
-17.999999999999979
 30
0.0
 11
-0.0000000000003471
 21
-17.999999999999972
 31
0.0
  0
LINE
  5
1820
  8
241
  6
CONTINUOUS
 10
-16.005726332254351
 20
17.999999999999979
 30
0.0
 11
-1.9942747554780591
 21
17.999999999999979
 31
0.0
  0
LINE
  5
1821
  8
240
  6
CONTINUOUS
 10
-40.0
 20
18.000000000000011
 30
0.0
 11
-16.00572633225439
 21
17.999999999999979
 31
0.0
  0
LINE
  5
1822
  8
240
  6
CONTINUOUS
 10
-16.00572633225439
 20
17.999999999999979
 30
0.0
 11
-13.98499977795762
 21
21.499999999999989
 31
0.0
  0
LINE
  5
1823
  8
240
  6
CONTINUOUS
 10
-1.99427475547746
 20
17.999999999999321
 30
0.0
 11
-4.0150000407537201
 21
21.499999999999989
 31
0.0
  0
LINE
  5
1824
  8
240
  6
CONTINUOUS
 10
-13.98499977795762
 20
21.499999999999989
 30
0.0
 11
-4.0150000407537201
 21
21.499999999999989
 31
0.0
  0
LINE
  5
1825
  8
240
  6
CONTINUOUS
 10
-1.99427475547746
 20
17.999999999999321
 30
0.0
 11
0.0000000000000091
 21
18.000000000000011
 31
0.0
  0
LINE
  5
1826
  8
250
  6
CONTINUOUS
 10
-39.406958351595229
 20
-31.117814320735992
 30
0.0
 11
-29.14029168492857
 21
-31.117814320735992
 31
0.0
  0
LINE
  5
1827
  8
250
  6
CONTINUOUS
 10
-29.14029168492857
 20
-31.117814320735992
 30
0.0
 11
-23.201514282673951
 21
-19.968209595057321
 31
0.0
  0
LINE
  5
1828
  8
250
  6
CONTINUOUS
 10
-23.201514282673941
 20
-19.968209595057321
 30
0.0
 11
-22.153157954928361
 21
-18.0
 31
0.0
  0
LINE
  5
1829
  8
250
  6
CONTINUOUS
 10
-22.94239457486529
 20
-20.106228323350798
 30
0.0
 11
-22.153157954928361
 21
-18.0
 31
0.0
  0
LINE
  5
182A
  8
250
  6
CONTINUOUS
 10
-22.153157954928361
 20
-18.0
 30
0.0
 11
-23.460633990482599
 21
-19.830190866763878
 31
0.0
  0
TEXT
  5
182B
  8
250
  6
CONTINUOUS
 10
-39.806958351595242
 20
-29.717814320735989
 30
0.0
 40
2.799999999999998
  1
CK6
  7
YOKO
  0
LINE
  5
182C
  8
240
  6
CONTINUOUS
 10
-1.9942747554773741
 20
-17.999999999999329
 30
0.0
 11
-4.015000040753617
 21
-21.500000000000011
 31
0.0
  0
LINE
  5
1847
  8
247
  6
CONTINUOUS
 10
7.9999999999999529
 20
-24.000000000069878
 30
0.0
 11
7.9999999999999583
 21
-17.307692308029878
 31
0.0
  0
ARC
  5
1848
  8
247
  6
CONTINUOUS
 10
6.2500000000699583
 20
-24.000000000069878
 30
0.0
 40
1.7499999999299991
 50
180.0
 51
0.0
  0
ARC
  5
1849
  8
247
  6
CONTINUOUS
 10
6.2500000000699583
 20
-17.307692308029878
 30
0.0
 40
1.7499999999299991
 50
0.0
 51
180.0
  0
LINE
  5
184A
  8
247
  6
CONTINUOUS
 10
4.5000000001399583
 20
-23.134615384719879
 30
0.0
 11
7.5000000000199529
 21
-23.9948515419619
 31
0.0
  0
LINE
  5
184B
  8
247
  6
CONTINUOUS
 10
5.9230769231599583
 20
-22.234983818335721
 30
0.0
 11
5.9230769231599583
 21
-23.54267612597571
 31
0.0
  0
ARC
  5
184C
  8
247
  6
CONTINUOUS
 10
5.0495986677029343
 20
-21.895143816089671
 30
0.0
 40
0.5538165441895349
 50
72.997889675291617
 51
172.92416621851231
  0
ARC
  5
184D
  8
247
  6
CONTINUOUS
 10
4.9360330444657343
 20
-22.316878323028671
 30
0.0
 40
0.9904354236226808
 50
4.7429368522013924
 51
73.849226273267618
1001
GENIUS_GENOBJ-N-FIL_13
1002
{
1000
OWNER
1000
GEN
1002
}
1001
GENIUS_GENODEF_13
1002
{
1000
HIER
1070
     0
1002
}
1002
{
1000
MANEDIT
1070
     0
1002
}
1002
{
1000
NOSEL
1070
     0
1002
}
1002
{
1000
BEHIND
1070
     0
1002
}
1002
{
1000
OTHER
1070
     0
1002
}
1002
{
1000
REACTOR
1002
}
  0
LINE
  5
184E
  8
247
  6
CONTINUOUS
 10
7.5000000000199529
 20
-22.6871592343219
 30
0.0
 11
7.5000000000199529
 21
-23.9948515419619
 31
0.0
  0
LINE
  5
184F
  8
247
  6
CONTINUOUS
 10
4.5000000001399583
 20
-23.134615384719879
 30
0.0
 11
4.5000000001399592
 21
-21.826923077079901
 31
0.0
  0
ARC
  5
1850
  8
247
  6
CONTINUOUS
 10
6.4820242326655091
 20
-22.310919636546849
 30
0.0
 40
0.5640818586791229
 50
65.99094165253058
 51
172.26344345906949
  0
ARC
  5
1851
  8
247
  6
CONTINUOUS
 10
6.487429039186547
 20
-22.788262685346961
 30
0.0
 40
1.0176059446230981
 50
5.7019851642581392
 51
77.277338436820884
1001
GENIUS_GENOBJ-N-FIL_13
1002
{
1000
OWNER
1000
GEN
1002
}
1001
GENIUS_GENODEF_13
1002
{
1000
HIER
1070
     0
1002
}
1002
{
1000
MANEDIT
1070
     0
1002
}
1002
{
1000
NOSEL
1070
     0
1002
}
1002
{
1000
BEHIND
1070
     0
1002
}
1002
{
1000
OTHER
1070
     0
1002
}
1002
{
1000
REACTOR
1002
}
  0
LINE
  5
1852
  8
247
  6
CONTINUOUS
 10
7.5000000000199529
 20
-21.033313080541902
 30
0.0
 11
4.5000000001399592
 21
-20.173076923299892
 31
0.0
  0
LINE
  5
1853
  8
247
  6
CONTINUOUS
 10
4.5000000001399592
 20
-17.750000000319869
 30
0.0
 11
4.5000000001399592
 21
-18.31573661945648
 31
0.0
  0
LINE
  5
1854
  8
247
  6
CONTINUOUS
 10
7.5000000000199529
 20
-19.211538461799879
 30
0.0
 11
7.5000000000199529
 21
-18.596153846439879
 31
0.0
  0
ARC
  5
1855
  8
247
  6
CONTINUOUS
 10
6.5832851359733411
 20
-17.45879120912273
 30
0.0
 40
2.2526500823422122
 50
202.3594881415267
 51
254.9932485428466
  0
ARC
  5
1856
  8
247
  6
CONTINUOUS
 10
5.308312655194471
 20
-18.124069479213102
 30
0.0
 40
0.8906723995727782
 50
94.994589319075104
 51
155.16632895730359
1001
GENIUS_GENOBJ-N-FIL_13
1002
{
1000
OWNER
1000
GEN
1002
}
1001
GENIUS_GENODEF_13
1002
{
1000
HIER
1070
     0
1002
}
1002
{
1000
MANEDIT
1070
     0
1002
}
1002
{
1000
NOSEL
1070
     0
1002
}
1002
{
1000
BEHIND
1070
     0
1002
}
1002
{
1000
OTHER
1070
     0
1002
}
1002
{
1000
REACTOR
1002
}
  0
ARC
  5
1857
  8
247
  6
CONTINUOUS
 10
6.1601458886677172
 20
-18.97645888621248
 30
0.0
 40
1.392781735586712
 50
15.846096555779249
 51
82.325137004170557
  0
ARC
  5
1858
  8
247
  6
CONTINUOUS
 10
6.459243431527244
 20
-18.392212725840231
 30
0.0
 40
1.324563662670287
 50
249.71360167049809
 51
321.78874565640768
1001
GENIUS_GENOBJ-N-FIL_13
1002
{
1000
OWNER
1000
GEN
1002
}
1001
GENIUS_GENODEF_13
1002
{
1000
HIER
1070
     0
1002
}
1002
{
1000
MANEDIT
1070
     0
1002
}
1002
{
1000
NOSEL
1070
     0
1002
}
1002
{
1000
BEHIND
1070
     0
1002
}
1002
{
1000
OTHER
1070
     0
1002
}
1002
{
1000
REACTOR
1002
}
  0
LINE
  5
1859
  8
247
  6
CONTINUOUS
 10
6.3461538462199591
 20
-18.288461538759879
 30
0.0
 11
6.3461538462199591
 21
-17.596153846479861
 31
0.0
  0
LINE
  5
185A
  8
247
  6
CONTINUOUS
 10
4.5000000001399592
 20
-24.000000000069878
 30
0.0
 11
4.5000000001399592
 21
-23.326923077019892
 31
0.0
  0
VIEWPORT
  5
22
 67
     1
  8
0
 10
261.51769911504419
 20
148.5
 30
0.0
 40
523.0353982300885
 41
297.0
 68
     1
 69
     1
1001
ACAD
1000
MVIEW
1002
{
1070
    16
1010
0.0
1020
0.0
1030
0.0
1010
0.0
1020
0.0
1030
1.0
1040
0.0
1040
297.0
1040
261.51769911504419
1040
148.5
1040
50.0
1040
0.0
1040
0.0
1070
     0
1070
   100
1070
     1
1070
     1
1070
     0
1070
     0
1070
     0
1070
     0
1040
0.0
1040
0.0
1040
0.0
1040
1.0
1040
1.0
1040
10.0
1040
10.0
1070
     0
1002
{
1002
}
1002
}
1001
GENIUS_GENODEF_13
1002
{
1000
HIER
1070
     0
1002
}
1002
{
1000
MANEDIT
1070
     0
1002
}
1002
{
1000
NOSEL
1070
     0
1002
}
1002
{
1000
BEHIND
1070
     0
1002
}
1002
{
1000
OTHER
1070
     0
1002
}
1002
{
1000
REACTOR
1002
}
1001
GENIUS_GENOBJ-N-SDF_13
1002
{
1000
OWNER
1000
GEN
1002
}
1001
GENIUS_GENSCREG_15
1000
PF
1040
1.0
1000
DF
1040
1.0
1000
MIN
1011
0.0
1021
0.0
1031
0.0
1021
0.0
1031
0.0
1000
MAX
1011
523.0353982300885
1021
0.0
1031
0.0
1021
297.0
1031
0.0
1000
FLAGS
1070
     4
  0
ENDSEC
  0
EOF
