  0
SECTION
  2
HEADER
  9
$ACADVER
  1
AC1009
  9
$INSBASE
 10
0.0
 20
0.0
 30
0.0
  9
$EXTMIN
 10
-29.081267362700029
 20
-13.033142573875971
 30
0.0
  9
$EXTMAX
 10
25.333333333333321
 20
40.0
 30
0.0
  9
$LIMMIN
 10
0.0
 20
0.0
  9
$LIMMAX
 10
297.0
 20
210.0
  9
$ORTHOMODE
 70
     1
  9
$REGENMODE
 70
     1
  9
$FILLMODE
 70
     1
  9
$QTEXTMODE
 70
     0
  9
$MIRRTEXT
 70
     1
  9
$DRAGMODE
 70
     2
  9
$LTSCALE
 40
10.0
  9
$OSMODE
 70
    45
  9
$ATTMODE
 70
     1
  9
$TEXTSIZE
 40
3.0
  9
$TRACEWID
 40
1.0
  9
$TEXTSTYLE
  7
YOKO
  9
$CLAYER
  8
240
  9
$CELTYPE
  6
BYLAYER
  9
$CECOLOR
 62
   256
  9
$DIMSCALE
 40
1.0
  9
$DIMASZ
 40
2.2299999999999991
  9
$DIMEXO
 40
0.5
  9
$DIMDLI
 40
7.0
  9
$DIMRND
 40
0.0
  9
$DIMDLE
 40
0.0
  9
$DIMEXE
 40
1.0
  9
$DIMTP
 40
0.0
  9
$DIMTM
 40
0.01
  9
$DIMTXT
 40
2.799999999999998
  9
$DIMCEN
 40
0.0
  9
$DIMTSZ
 40
0.0
  9
$DIMTOL
 70
     0
  9
$DIMLIM
 70
     0
  9
$DIMTIH
 70
     0
  9
$DIMTOH
 70
     0
  9
$DIMSE1
 70
     0
  9
$DIMSE2
 70
     0
  9
$DIMTAD
 70
     3
  9
$DIMZIN
 70
     9
  9
$DIMBLK
  1
OPEN
  9
$DIMASO
 70
     1
  9
$DIMSHO
 70
     1
  9
$DIMPOST
  1

  9
$DIMAPOST
  1

  9
$DIMALT
 70
     0
  9
$DIMALTD
 70
     2
  9
$DIMALTF
 40
25.399999999999999
  9
$DIMLFAC
 40
1.0
  9
$DIMTOFL
 70
     1
  9
$DIMTVP
 40
0.0
  9
$DIMTIX
 70
     1
  9
$DIMSOXD
 70
     0
  9
$DIMSAH
 70
     0
  9
$DIMBLK1
  1

  9
$DIMBLK2
  1

  9
$DIMSTYLE
  2
BIGT
  9
$DIMCLRD
 70
   256
  9
$DIMCLRE
 70
   256
  9
$DIMCLRT
 70
    40
  9
$DIMTFAC
 40
1.0
  9
$DIMGAP
 40
1.0
  9
$LUNITS
 70
     2
  9
$LUPREC
 70
     6
  9
$SKETCHINC
 40
1.0
  9
$FILLETRAD
 40
0.0
  9
$AUNITS
 70
     0
  9
$AUPREC
 70
     6
  9
$MENU
  1
.
  9
$ELEVATION
 40
0.0
  9
$PELEVATION
 40
0.0
  9
$THICKNESS
 40
0.0
  9
$LIMCHECK
 70
     0
  9
$BLIPMODE
 70
     0
  9
$CHAMFERA
 40
0.3
  9
$CHAMFERB
 40
0.3
  9
$SKPOLY
 70
     0
  9
$TDCREATE
 40
2457001.6559283449
  9
$TDUPDATE
 40
2459467.5976391789
  9
$TDINDWG
 40
0.0664597338
  9
$TDUSRTIMER
 40
0.0664596412
  9
$USRTIMER
 70
     1
  9
$ANGBASE
 50
0.0
  9
$ANGDIR
 70
     0
  9
$PDMODE
 70
     1
  9
$PDSIZE
 40
0.0
  9
$PLINEWID
 40
0.0
  9
$COORDS
 70
     1
  9
$SPLFRAME
 70
     0
  9
$SPLINETYPE
 70
     6
  9
$SPLINESEGS
 70
     4
  9
$ATTDIA
 70
     1
  9
$ATTREQ
 70
     1
  9
$HANDLING
 70
     1
  9
$HANDSEED
  5
536F
  9
$SURFTAB1
 70
     6
  9
$SURFTAB2
 70
     6
  9
$SURFTYPE
 70
     6
  9
$SURFU
 70
     6
  9
$SURFV
 70
     6
  9
$UCSNAME
  2

  9
$UCSORG
 10
0.0
 20
0.0
 30
0.0
  9
$UCSXDIR
 10
1.0
 20
0.0
 30
0.0
  9
$UCSYDIR
 10
0.0
 20
1.0
 30
0.0
  9
$PUCSNAME
  2

  9
$PUCSORG
 10
0.0
 20
0.0
 30
0.0
  9
$PUCSXDIR
 10
1.0
 20
0.0
 30
0.0
  9
$PUCSYDIR
 10
0.0
 20
1.0
 30
0.0
  9
$USERI1
 70
     1
  9
$USERI2
 70
     0
  9
$USERI3
 70
     0
  9
$USERI4
 70
     0
  9
$USERI5
 70
     0
  9
$USERR1
 40
0.0
  9
$USERR2
 40
0.0
  9
$USERR3
 40
0.0
  9
$USERR4
 40
0.0
  9
$USERR5
 40
0.0
  9
$WORLDVIEW
 70
     1
  9
$SHADEDGE
 70
     3
  9
$SHADEDIF
 70
    70
  9
$TILEMODE
 70
     1
  9
$MAXACTVP
 70
    16
  9
$PLIMCHECK
 70
     0
  9
$PEXTMIN
 10
1.0000000000000000E+020
 20
1.0000000000000000E+020
 30
1.0000000000000000E+020
  9
$PEXTMAX
 10
-1.0000000000000000E+020
 20
-1.0000000000000000E+020
 30
-1.0000000000000000E+020
  9
$PLIMMIN
 10
0.0
 20
0.0
  9
$PLIMMAX
 10
420.0
 20
297.0
  9
$UNITMODE
 70
     0
  9
$VISRETAIN
 70
     1
  9
$PLINEGEN
 70
     0
  9
$PSLTSCALE
 70
     1
  0
ENDSEC
  0
SECTION
  2
TABLES
  0
TABLE
  2
VPORT
 70
     1
  0
VPORT
  2
*ACTIVE
 70
     0
 10
0.0
 20
0.0
 11
1.0
 21
1.0
 12
2.326265323949797
 22
-4.3048232474171746
 13
0.0
 23
0.0
 14
7.0
 24
7.0
 15
7.0
 25
7.0
 16
0.0
 26
0.0
 36
1.0
 17
0.0
 27
0.0
 37
0.0
 40
102.9726209449357
 41
1.74798927613941
 42
50.0
 43
0.0
 44
0.0
 50
0.0
 51
0.0
 71
     0
 72
  2000
 73
     1
 74
     0
 75
     0
 76
     1
 77
     0
 78
     0
  0
ENDTAB
  0
TABLE
  2
LTYPE
 70
    16
  0
LTYPE
  2
CONTINUOUS
 70
     0
  3
Solid line
 72
    65
 73
     0
 40
0.0
  0
LTYPE
  2
CENTER2
 70
     0
  3
___ _ ___ _ ___ _ ___ _ ___ _ ___ _ ___ _ ___ _
 72
    65
 73
     4
 40
1.125
 49
0.75
 49
-0.125
 49
0.125
 49
-0.125
  0
LTYPE
  2
HIDDEN2
 70
     0
  3
_ _ _ _ _ _ _ _ _ _ _ _ _ _ _ _ _ _ _ _ _ _ _ _
 72
    65
 73
     2
 40
0.1875
 49
0.125
 49
-0.0625
  0
LTYPE
  2
PHANTOM2
 70
     0
  3
___ _ _ ___ _ _ ___ _ _ ___ _ _ ___ _ _ ___ _ _
 72
    65
 73
     6
 40
1.25
 49
0.625
 49
-0.125
 49
0.125
 49
-0.125
 49
0.125
 49
-0.125
  0
LTYPE
  2
AMCONSTR
 70
     0
  3
_______________________
 72
    65
 73
     2
 40
9999.0
 49
9999.0
 49
0.0
  0
LTYPE
  2
HIDDEN
 70
     0
  3
Hidden __ __ __ __ __ __ __ __ __ __ __ __ __ _
 72
    65
 73
     2
 40
0.375
 49
0.25
 49
-0.125
  0
LTYPE
  2
CENTER
 70
     0
  3
Center ____ _ ____ _ ____ _ ____ _ ____ _ ____
 72
    65
 73
     4
 40
2.0
 49
1.25
 49
-0.25
 49
0.25
 49
-0.25
  0
LTYPE
  2
AMZIGZAG2
 70
     0
  3
/\/-/\/-/\/-/\/-/\/-/\/
 72
    65
 73
     2
 40
0.4401
 49
0.0001
 49
-0.4400000000000003
  0
LTYPE
  2
ACANSTGB
 70
     0
  3
__ . . __ . .
 72
    65
 73
     6
 40
0.35433070866
 49
0.15748031496
 49
-0.03937007874
 49
0.03937007874
 49
-0.03937007874
 49
0.03937007874
 49
-0.03937007874
  0
LTYPE
  2
ACANSTGL
 70
     0
  3
_ _ _ _ _
 72
    65
 73
     2
 40
0.11811023622
 49
0.07874015748
 49
-0.03937007874
  0
LTYPE
  2
AM_ISO02W050
 70
     0
  3
__ __ __ __ __ __ __ __ __ __ __ __ __ __ __
 72
    65
 73
     2
 40
7.5
 49
6.0
 49
-1.5
  0
LTYPE
  2
AM_ISO08W050
 70
     0
  3
____ . ____ . ____ . ____ . ____ . ____ . ____
 72
    65
 73
     4
 40
18.0
 49
12.0
 49
-1.5
 49
3.0
 49
-1.5
  0
LTYPE
  2
AM_ISO09W050
 70
     0
  3
_____ . . _____ . . _____ . . ____ .. ____
 72
    65
 73
     6
 40
22.5
 49
12.0
 49
-1.5
 49
3.0
 49
-1.5
 49
3.0
 49
-1.5
  0
LTYPE
  2
AM_ISO08W050X2
 70
     0
  3
__ . __ . __ . __ . __ . __
 72
    65
 73
     4
 40
9.0
 49
6.0
 49
-0.75
 49
1.5
 49
-0.75
  0
LTYPE
  2
AM_ISO02W050X2
 70
     0
  3
 _ _ _ _ _ _ _ _ _ _ _ _
 72
    65
 73
     2
 40
3.75
 49
3.0
 49
-0.75
  0
LTYPE
  2
AMZIGZAG
 70
     0
  3
/\/-/\/-/\/-/\/-/\/-/\/
 72
    65
 73
     2
 40
11.0001
 49
0.0001
 49
-11.0
  0
ENDTAB
  0
TABLE
  2
LAYER
 70
     9
  0
LAYER
  2
0
 70
     0
 62
     7
  6
CONTINUOUS
  0
LAYER
  2
240
 70
     0
 62
     4
  6
CONTINUOUS
  0
LAYER
  2
241
 70
     0
 62
   211
  6
CONTINUOUS
  0
LAYER
  2
DEFPOINTS
 70
     0
 62
     7
  6
CONTINUOUS
  0
LAYER
  2
245
 70
     0
 62
     2
  6
CENTER2
  0
LAYER
  2
243
 70
     0
 62
   211
  6
HIDDEN2
  0
LAYER
  2
250
 70
     0
 62
     3
  6
CONTINUOUS
  0
LAYER
  2
247
 70
     0
 62
    60
  6
CONTINUOUS
  0
LAYER
  2
NOCUT
 70
     0
 62
     7
  6
CONTINUOUS
  0
ENDTAB
  0
TABLE
  2
STYLE
 70
     6
  0
STYLE
  2
STANDARD
 70
     0
 40
0.0
 41
1.0
 50
0.0
 71
     0
 42
3.0
  3
romans.shx
  4
extfont.shx
  0
STYLE
  2
ANNOTATIVE
 70
     0
 40
0.0
 41
1.0
 50
0.0
 71
     0
 42
0.2
  3
txt
  4

  0
STYLE
  2
YOKO
 70
     0
 40
0.0
 41
1.0
 50
0.0
 71
     0
 42
3.0
  3
romans.shx
  4
extfont.shx
  0
STYLE
  2
ACANSGDT
 70
     0
 40
0.0
 41
1.0
 50
0.0
 71
     0
 42
3.0
  3
amgdt.shx
  4

  0
STYLE
  2

 70
     1
 40
0.0
 41
1.0
 50
0.0
 71
     0
 42
3.0
  3
genltshp.shx
  4

  0
STYLE
  2
ACANSTS
 70
     0
 40
0.0
 41
1.0
 50
0.0
 71
     0
 42
3.0
  3
romans.shx
  4
extfont.shx
  0
ENDTAB
  0
TABLE
  2
VIEW
 70
     0
  0
ENDTAB
  0
TABLE
  2
UCS
 70
     0
  0
ENDTAB
  0
TABLE
  2
APPID
 70
    46
  0
APPID
  2
ACAD
 70
     0
  0
APPID
  2
ACADANNOTATIVE
 70
     0
  0
APPID
  2
GLOBAL
 70
     0
  0
APPID
  2
DETAIL
 70
     0
  0
APPID
  2
GRPNAME
 70
     0
  0
APPID
  2
GPARA
 70
     0
  0
APPID
  2
MCAD_NO_VIS
 70
     0
  0
APPID
  2
ACAD_TEMP_GRAPHIC
 70
     0
  0
APPID
  2
ACATTRIBSERVICES
 70
     0
  0
APPID
  2
GENIUS_GENSCREG_15
 70
     0
  0
APPID
  2
GENIUS_GENODEF_13
 70
     0
  0
APPID
  2
GENIUS_GENOBJ-N-SDF_13
 70
     0
  0
APPID
  2
GENIUS_GENREC_14
 70
     0
  0
APPID
  2
GENIUS_GENOBJ-N-REC_13
 70
     0
  0
APPID
  2
GENIUS_GENDIMSH_14
 70
     0
  0
APPID
  2
GENIUS_GENOBJ-N-DIM_13
 70
     0
  0
APPID
  2
GENIUS_GENDIM_13
 70
     0
  0
APPID
  2
GENIUS_GENDTOL_13
 70
     0
  0
APPID
  2
GENIUS_GENOLIS_13
 70
     0
  0
APPID
  2
GENIUS_GENOENT_13
 70
     0
  0
APPID
  2
GENIUS_GENOBJ-F-FEM_13
 70
     0
  0
APPID
  2
GENIUS_GENOREF_13
 70
     0
  0
APPID
  2
GENIUS_GEFFEM_13
 70
     0
  0
APPID
  2
GENIUS_GEFFEMP_13
 70
     0
  0
APPID
  2
AD_DRAW
 70
     0
  0
APPID
  2
DESIGNERASSEMBLIES
 70
     0
  0
APPID
  2
ACADM_DIM_EDIT
 70
     0
  0
APPID
  2
AMDT_DM_ADJ
 70
     0
  0
APPID
  2
ITEMNAME
 70
     0
  0
APPID
  2
GENIUS_GENOBJ-N-FIL_13
 70
     0
  0
APPID
  2
GENIUS_GENFIL_13
 70
     0
  0
APPID
  2
GENIUS_GENOBJ-N-CHA_13
 70
     0
  0
APPID
  2
ACAD_NAV_VCDISPLAY
 70
     0
  0
APPID
  2
HATCH_TYPE
 70
     0
  0
APPID
  2
HATCH_DISPLAY
 70
     0
  0
APPID
  2
HATCH_DISTANCE
 70
     0
  0
APPID
  2
ACAD_DSTYLE_DIMJAG
 70
     0
  0
APPID
  2
ACAD_DSTYLE_DIMBREAK
 70
     0
  0
APPID
  2
ACAD_EXEMPT_FROM_CAD_STANDARDS
 70
     0
  0
APPID
  2
ACAECLAYERSTANDARD
 70
     0
  0
APPID
  2
ACAD_DSTYLE_DIMINSPECT
 70
     0
  0
APPID
  2
ACAD_MLEADERVER
 70
     0
  0
APPID
  2
ACAD_DSTYLE_DIMARC_LENGTH_
 70
     0
  0
APPID
  2
ACAD_DSTYLE_DIM_LINETYPE
 70
     0
  0
APPID
  2
ACAD_DSTYLE_DIM_EXT1_LINETYPE
 70
     0
  0
APPID
  2
ACAD_DSTYLE_DIM_EXT2_LINETYPE
 70
     0
  0
ENDTAB
  0
TABLE
  2
DIMSTYLE
 70
     9
  0
DIMSTYLE
  2
STANDARD
 70
     0
  3

  4

  5

  6

  7

 40
1.0
 41
0.18
 42
0.0625
 43
0.38
 44
0.18
 45
0.0
 46
0.0
 47
0.0
 48
0.0
140
0.18
141
0.09
142
0.0
143
25.399999999999999
144
1.0
145
0.0
146
1.0
147
0.09
 71
     0
 72
     0
 73
     1
 74
     1
 75
     0
 76
     0
 77
     0
 78
     0
170
     0
171
     2
172
     0
173
     0
174
     0
175
     0
176
     0
177
     0
178
     0
  0
DIMSTYLE
  2
ANNOTATIVE
 70
     0
  3

  4

  5

  6

  7

 40
1.0
 41
0.18
 42
0.0625
 43
0.38
 44
0.18
 45
0.0
 46
0.0
 47
0.0
 48
0.0
140
0.18
141
0.09
142
0.0
143
25.399999999999999
144
1.0
145
0.0
146
1.0
147
0.09
 71
     0
 72
     0
 73
     1
 74
     1
 75
     0
 76
     0
 77
     0
 78
     0
170
     0
171
     2
172
     0
173
     0
174
     0
175
     0
176
     0
177
     0
178
     0
  0
DIMSTYLE
  2
BIGT
 70
     0
  3

  4

  5

  6

  7

 40
1.0
 41
2.2299999999999991
 42
0.5
 43
7.0
 44
1.0
 45
0.0
 46
0.0
 47
0.0
 48
0.01
140
2.799999999999998
141
0.0
142
0.0
143
25.399999999999999
144
1.0
145
0.0
146
1.0
147
1.0
 71
     0
 72
     0
 73
     0
 74
     0
 75
     0
 76
     0
 77
     3
 78
     9
170
     0
171
     2
172
     1
173
     0
174
     1
175
     0
176
   256
177
   256
178
    40
  0
DIMSTYLE
  2
AM_ANSI
 70
     0
  3

  4
mm
  5

  6

  7

 40
1.0
 41
0.12
 42
0.05
 43
0.5
 44
0.1
 45
0.0
 46
0.0
 47
0.1
 48
0.1
140
0.12
141
0.0
142
0.0
143
25.399999999999999
144
1.0
145
0.0
146
0.71
147
0.06
 71
     0
 72
     0
 73
     1
 74
     1
 75
     0
 76
     0
 77
     0
 78
     7
170
     0
171
     2
172
     0
173
     0
174
     0
175
     0
176
   256
177
   256
178
     2
  0
DIMSTYLE
  2
AM_ANSI$3
 70
     0
  3

  4
mm
  5

  6

  7

 40
1.0
 41
0.12
 42
0.05
 43
0.5
 44
0.1
 45
0.0
 46
0.0
 47
0.1
 48
0.1
140
0.12
141
0.0
142
0.0
143
25.399999999999999
144
1.0
145
0.0
146
0.71
147
0.06
 71
     0
 72
     0
 73
     1
 74
     1
 75
     0
 76
     0
 77
     0
 78
     7
170
     0
171
     2
172
     0
173
     0
174
     0
175
     0
176
   256
177
   256
178
     2
  0
DIMSTYLE
  2
AM_ANSI$4
 70
     0
  3

  4
mm
  5

  6

  7

 40
1.0
 41
0.12
 42
0.05
 43
0.5
 44
0.1
 45
0.0
 46
0.0
 47
0.1
 48
0.1
140
0.12
141
0.0
142
0.0
143
25.399999999999999
144
1.0
145
0.0
146
0.71
147
0.06
 71
     0
 72
     0
 73
     1
 74
     1
 75
     0
 76
     0
 77
     0
 78
     7
170
     0
171
     2
172
     0
173
     0
174
     0
175
     0
176
   256
177
   256
178
     2
  0
DIMSTYLE
  2
AM_ANSI$7
 70
     0
  3

  4
mm
  5

  6

  7

 40
1.0
 41
0.12
 42
0.05
 43
0.5
 44
0.1
 45
0.0
 46
0.0
 47
0.1
 48
0.1
140
0.12
141
0.0
142
0.0
143
25.399999999999999
144
1.0
145
0.0
146
0.71
147
0.06
 71
     0
 72
     0
 73
     1
 74
     1
 75
     0
 76
     0
 77
     0
 78
     7
170
     0
171
     2
172
     0
173
     0
174
     0
175
     0
176
   256
177
   256
178
     2
  0
DIMSTYLE
  2
AM_ANSI$SF
 70
     0
  3

  4
mm
  5

  6

  7

 40
1.0
 41
0.12
 42
0.05
 43
0.5
 44
0.1
 45
0.0
 46
0.0
 47
0.1
 48
0.1
140
0.12
141
0.0
142
0.0
143
25.399999999999999
144
1.0
145
0.0
146
0.71
147
0.06
 71
     0
 72
     0
 73
     1
 74
     1
 75
     1
 76
     1
 77
     0
 78
     7
170
     0
171
     2
172
     0
173
     0
174
     0
175
     0
176
   256
177
   256
178
     2
  0
DIMSTYLE
  2
AM_ANSI$SH
 70
     0
  3

  4
mm
  5

  6

  7

 40
1.0
 41
0.12
 42
0.05
 43
0.5
 44
0.1
 45
0.0
 46
0.0
 47
0.1
 48
0.1
140
0.12
141
0.0
142
0.0
143
25.399999999999999
144
1.0
145
0.0
146
0.71
147
0.06
 71
     0
 72
     0
 73
     1
 74
     1
 75
     1
 76
     1
 77
     0
 78
     7
170
     0
171
     2
172
     0
173
     1
174
     0
175
     0
176
   256
177
   256
178
     2
  0
ENDTAB
  0
ENDSEC
  0
SECTION
  2
BLOCKS
  0
BLOCK
  8
0
  2
$MODEL_SPACE
 70
     0
 10
0.0
 20
0.0
 30
0.0
  3
$MODEL_SPACE
  1

  0
ENDBLK
  5
524C
  8
0
  0
BLOCK
 67
     1
  8
0
  2
$PAPER_SPACE
 70
     0
 10
0.0
 20
0.0
 30
0.0
  3
$PAPER_SPACE
  1

  0
ENDBLK
  5
5248
 67
     1
  8
0
  0
BLOCK
  8
0
  2
_OPEN
 70
     0
 10
0.0
 20
0.0
 30
0.0
  3
_OPEN
  1

  0
LINE
  5
47B8
  8
0
  6
BYBLOCK
 62
     0
 10
-1.0
 20
0.1666666666666666
 30
0.0
 11
0.0
 21
0.0
 31
0.0
  0
LINE
  5
47B9
  8
0
  6
BYBLOCK
 62
     0
 10
-1.0
 20
-0.1666666666666666
 30
0.0
 11
0.0
 21
0.0
 31
0.0
  0
LINE
  5
47BA
  8
0
  6
BYBLOCK
 62
     0
 10
0.0
 20
0.0
 30
0.0
 11
-1.0
 21
0.0
 31
0.0
  0
ENDBLK
  5
47BB
  8
0
  0
BLOCK
  8
0
  2
*U3
 70
     1
 10
0.0
 20
0.0
 30
0.0
  3
*U3
  1

  0
TEXT
  5
48B2
  8
250
 10
23.190637674177999
 20
-2.6666666666666621
 30
0.0
 40
2.799999999999998
  1
\U+22054
 50
90.0
  0
ENDBLK
  5
48B4
  8
0
  0
BLOCK
  8
0
  2
_ACMFILLEDHALF
 70
     0
 10
0.0
 20
0.0
 30
0.0
  3
_ACMFILLEDHALF
  1

  0
TRACE
  5
49EE
  8
241
 62
     0
 10
-0.8
 20
0.0
 30
0.0
 11
-1.0
 21
0.166666666
 31
0.0
 12
0.0
 22
0.0
 32
0.0
 13
0.0
 23
0.0
 33
0.0
  0
LINE
  5
49EF
  8
241
 62
     0
 10
-1.0
 20
0.0
 30
0.0
 11
-0.8
 21
0.0
 31
0.0
  0
ENDBLK
  5
49ED
  8
0
  0
ENDSEC
  0
SECTION
  2
ENTITIES
  0
TEXT
  5
4340
  8
241
  6
CONTINUOUS
 10
-28.0
 20
35.0
 30
0.0
 40
5.0
  1
EWN04-7ST10
  7
YOKO
 11
-28.0
 21
35.0
 31
0.0
 73
     1
  0
LINE
  5
4351
  8
245
  6
CENTER2
 10
-26.140322871567658
 20
0.0
 30
0.0
 11
17.190636674177991
 21
0.0
 31
0.0
  0
LINE
  5
4354
  8
241
  6
CONTINUOUS
 10
0.0000000000000269
 20
-5.0006556990000899
 30
0.0
 11
0.0000000000005613
 21
5.0006556990000259
 31
0.0
  0
LINE
  5
4502
  8
243
  6
HIDDEN2
 10
5.1733689449970051
 20
-2.0
 30
0.0
 11
14.000000000001769
 21
-2.0
 31
0.0
  0
LINE
  5
4503
  8
243
  6
HIDDEN2
 10
5.1733689449970051
 20
2.0
 30
0.0
 11
14.00000000000108
 21
2.0
 31
0.0
  0
LINE
  5
459E
  8
250
  6
CONTINUOUS
 10
-0.0000000000000955
 20
9.75
 30
0.0
 11
-0.0000000000000947
 21
22.0
 31
0.0
  0
LINE
  5
459F
  8
250
  6
CONTINUOUS
 10
13.99999999999987
 20
9.4499999999999993
 30
0.0
 11
13.99999999999987
 21
22.0
 31
0.0
  0
LINE
  5
45A0
  8
250
  6
CONTINUOUS
 10
2.2299999999999041
 20
21.0
 30
0.0
 11
11.76999999999987
 21
21.0
 31
0.0
  0
LINE
  5
45A4
  8
250
  6
CONTINUOUS
 10
14.50000000000108
 20
1.999999999999998
 30
0.0
 11
25.190637674177999
 21
1.999999999999992
 31
0.0
  0
LINE
  5
45A5
  8
250
  6
CONTINUOUS
 10
14.500000000001769
 20
-2.0
 30
0.0
 11
25.190637674177999
 21
-2.0000000000000031
 31
0.0
  0
LINE
  5
45A6
  8
250
  6
CONTINUOUS
 10
24.190637674177999
 20
4.2299999999999951
 30
0.0
 11
24.190637674177999
 21
6.4599999999999964
 31
0.0
  0
LINE
  5
45A7
  8
250
  6
CONTINUOUS
 10
24.190637674177999
 20
-4.2300000000000031
 30
0.0
 11
24.190637674177999
 21
-6.4599999999999991
 31
0.0
  0
LINE
  5
45A8
  8
250
  6
CONTINUOUS
 10
24.190637674177999
 20
1.999999999999992
 30
0.0
 11
24.190637674177999
 21
-2.0000000000000031
 31
0.0
  0
INSERT
  5
45AB
  8
250
  6
CONTINUOUS
  2
*U3
 10
0.0
 20
0.0
 30
0.0
  0
TEXT
  5
45AC
  8
250
  6
CONTINUOUS
 10
4.0666666666665554
 20
22.0
 30
0.0
 40
2.799999999999998
  1
14
  0
LINE
  5
45AD
  8
250
  6
CONTINUOUS
 10
11.76999999999987
 20
21.37166666666667
 30
0.0
 11
13.99999999999987
 21
21.0
 31
0.0
  0
LINE
  5
45AE
  8
250
  6
CONTINUOUS
 10
11.76999999999987
 20
20.62833333333333
 30
0.0
 11
13.99999999999987
 21
21.0
 31
0.0
  0
LINE
  5
45AF
  8
250
  6
CONTINUOUS
 10
13.99999999999987
 20
21.0
 30
0.0
 11
11.76999999999987
 21
21.0
 31
0.0
  0
LINE
  5
45B0
  8
250
  6
CONTINUOUS
 10
2.2299999999999041
 20
20.62833333333333
 30
0.0
 11
-0.0000000000000948
 21
21.0
 31
0.0
  0
LINE
  5
45B1
  8
250
  6
CONTINUOUS
 10
2.2299999999999041
 20
21.37166666666667
 30
0.0
 11
-0.0000000000000948
 21
21.0
 31
0.0
  0
LINE
  5
45B2
  8
250
  6
CONTINUOUS
 10
-0.0000000000000948
 20
21.0
 30
0.0
 11
2.2299999999999041
 21
21.0
 31
0.0
  0
LINE
  5
45B3
  8
250
  6
CONTINUOUS
 10
23.81897100751133
 20
-4.2300000000000031
 30
0.0
 11
24.190637674177999
 21
-2.0000000000000031
 31
0.0
  0
LINE
  5
45B4
  8
250
  6
CONTINUOUS
 10
24.562304340844658
 20
-4.2300000000000031
 30
0.0
 11
24.190637674177999
 21
-2.0000000000000031
 31
0.0
  0
LINE
  5
45B5
  8
250
  6
CONTINUOUS
 10
24.190637674177999
 20
-2.0000000000000031
 30
0.0
 11
24.190637674177999
 21
-4.2300000000000031
 31
0.0
  0
LINE
  5
45B6
  8
250
  6
CONTINUOUS
 10
24.562304340844658
 20
4.2299999999999951
 30
0.0
 11
24.190637674177999
 21
1.999999999999992
 31
0.0
  0
LINE
  5
45B7
  8
250
  6
CONTINUOUS
 10
23.81897100751133
 20
4.2299999999999951
 30
0.0
 11
24.190637674177999
 21
1.999999999999992
 31
0.0
  0
LINE
  5
45B8
  8
250
  6
CONTINUOUS
 10
24.190637674177999
 20
1.999999999999992
 30
0.0
 11
24.190637674177999
 21
4.2299999999999951
 31
0.0
  0
LINE
  5
4A4C
  8
250
  6
CONTINUOUS
 10
-29.081267362700029
 20
-13.033142573875971
 30
0.0
 11
-17.387097578300949
 21
-13.033142573875971
 31
0.0
  0
LINE
  5
4A4D
  8
250
  6
CONTINUOUS
 10
-17.387097578300949
 20
-13.033142573875971
 30
0.0
 11
-14.068918162271061
 21
-6.957774490071996
 31
0.0
  0
LINE
  5
4A4E
  8
250
  6
CONTINUOUS
 10
-14.068918162271061
 20
-6.957774490071996
 30
0.0
 11
-12.999999999999959
 21
-5.000655699000041
 31
0.0
  0
LINE
  5
4A4F
  8
250
  6
CONTINUOUS
 10
-13.81125858650082
 20
-7.098500235223641
 30
0.0
 11
-12.999999999999959
 21
-5.000655699000041
 31
0.0
  0
LINE
  5
4A50
  8
250
  6
CONTINUOUS
 10
-12.999999999999959
 20
-5.000655699000041
 30
0.0
 11
-14.32657773804131
 21
-6.8170487449203581
 31
0.0
  0
TEXT
  5
4A51
  8
250
  6
CONTINUOUS
 10
-28.022870549421508
 20
-11.63314257387596
 30
0.0
 40
2.799999999999998
  1
ST10
  7
YOKO
  0
LINE
  5
4A52
  8
247
  6
CONTINUOUS
 10
3.9999999999999512
 20
-5.5000000000006271
 30
0.0
 11
4.0
 21
-1.792307692536645
 31
0.0
  0
LINE
  5
4A53
  8
247
  6
CONTINUOUS
 10
2.0
 20
-4.8639147999909804
 30
0.0
 11
3.679999999932805
 21
-5.3456470480465121
 31
0.0
  0
LINE
  5
4A54
  8
247
  6
CONTINUOUS
 10
2.796923076891197
 20
-4.3601211228158521
 30
0.0
 11
2.796923076891197
 21
-5.0924288150942543
 31
0.0
  0
ARC
  5
4A55
  8
247
  6
CONTINUOUS
 10
2.307775253835278
 20
-4.1698107215580684
 30
0.0
 40
0.3101372647461394
 50
72.997889675292015
 51
172.92416621851231
  0
ARC
  5
4A56
  8
247
  6
CONTINUOUS
 10
2.2441785048224121
 20
-4.4059820454439107
 30
0.0
 40
0.5546438372287014
 50
4.7429368522013924
 51
73.849226273266339
1001
GENIUS_GENOBJ-N-FIL_13
1002
{
1000
OWNER
1000
GEN
1002
}
1001
GENIUS_GENODEF_13
1002
{
1000
HIER
1070
     0
1002
}
1002
{
1000
MANEDIT
1070
     0
1002
}
1002
{
1000
NOSEL
1070
     0
1002
}
1002
{
1000
BEHIND
1070
     0
1002
}
1002
{
1000
OTHER
1070
     0
1002
}
1002
{
1000
REACTOR
1002
}
  0
LINE
  5
4A57
  8
247
  6
CONTINUOUS
 10
3.679999999932805
 20
-4.6133393557681091
 30
0.0
 11
3.679999999932805
 21
-5.3456470480465121
 31
0.0
  0
LINE
  5
4A58
  8
247
  6
CONTINUOUS
 10
2.0
 20
-4.8639147999909831
 30
0.0
 11
2.0
 21
-4.1316071077125844
 31
0.0
  0
ARC
  5
4A59
  8
247
  6
CONTINUOUS
 10
3.1099335702142992
 20
-4.4026451810140861
 30
0.0
 40
0.3158858408603088
 50
65.990941652528861
 51
172.26344345906949
  0
ARC
  5
4A5A
  8
247
  6
CONTINUOUS
 10
3.1129602618660561
 20
-4.6699572883421521
 30
0.0
 40
0.5698593289889349
 50
5.701985164258085
 51
77.277338436822262
1001
GENIUS_GENOBJ-N-FIL_13
1002
{
1000
OWNER
1000
GEN
1002
}
1001
GENIUS_GENODEF_13
1002
{
1000
HIER
1070
     0
1002
}
1002
{
1000
MANEDIT
1070
     0
1002
}
1002
{
1000
NOSEL
1070
     0
1002
}
1002
{
1000
BEHIND
1070
     0
1002
}
1002
{
1000
OTHER
1070
     0
1002
}
1002
{
1000
REACTOR
1002
}
  0
LINE
  5
4A5B
  8
247
  6
CONTINUOUS
 10
3.679999999932805
 20
-3.8471855096513181
 30
0.0
 11
2.0
 21
-3.3654532615957962
 31
0.0
  0
LINE
  5
4A5C
  8
247
  6
CONTINUOUS
 10
2.0
 20
-2.1685301847269911
 30
0.0
 11
2.0
 21
-2.4853426914434902
 31
0.0
  0
LINE
  5
4A5D
  8
247
  6
CONTINUOUS
 10
3.679999999932805
 20
-2.9869917231557901
 30
0.0
 11
3.679999999932805
 21
-2.6423763385541981
 31
0.0
  0
ARC
  5
4A5E
  8
247
  6
CONTINUOUS
 10
3.1666396760666871
 20
-2.0054532616565921
 30
0.0
 40
1.261484046111637
 50
202.35948814152729
 51
254.993248542846
  0
ARC
  5
4A5F
  8
247
  6
CONTINUOUS
 10
2.452655086830509
 20
-2.3780090929072002
 30
0.0
 40
0.4987765437607558
 50
94.994589319075374
 51
155.16632895730359
1001
GENIUS_GENOBJ-N-FIL_13
1002
{
1000
OWNER
1000
GEN
1002
}
1001
GENIUS_GENODEF_13
1002
{
1000
HIER
1070
     0
1002
}
1002
{
1000
MANEDIT
1070
     0
1002
}
1002
{
1000
NOSEL
1070
     0
1002
}
1002
{
1000
BEHIND
1070
     0
1002
}
1002
{
1000
OTHER
1070
     0
1002
}
1002
{
1000
REACTOR
1002
}
  0
ARC
  5
4A60
  8
247
  6
CONTINUOUS
 10
2.9296816975755511
 20
-2.855347160826843
 30
0.0
 40
0.7799577719285588
 50
15.846096555779919
 51
82.325137004169164
  0
ARC
  5
4A61
  8
247
  6
CONTINUOUS
 10
3.0971763215768542
 20
-2.528169311018396
 30
0.0
 40
0.7417556510953607
 50
249.71360167049701
 51
321.78874565640962
1001
GENIUS_GENOBJ-N-FIL_13
1002
{
1000
OWNER
1000
GEN
1002
}
1001
GENIUS_GENODEF_13
1002
{
1000
HIER
1070
     0
1002
}
1002
{
1000
MANEDIT
1070
     0
1002
}
1002
{
1000
NOSEL
1070
     0
1002
}
1002
{
1000
BEHIND
1070
     0
1002
}
1002
{
1000
OTHER
1070
     0
1002
}
1002
{
1000
REACTOR
1002
}
  0
LINE
  5
4A62
  8
247
  6
CONTINUOUS
 10
3.0338461538047801
 20
-2.4700686462533921
 30
0.0
 11
3.0338461538047801
 21
-2.0823763385765921
 31
0.0
  0
ARC
  5
4A63
  8
247
  6
CONTINUOUS
 10
3.0
 20
-5.5000000000006271
 30
0.0
 40
1.0
 50
180.0
 51
0.0
  0
LINE
  5
4A64
  8
247
  6
CONTINUOUS
 10
2.0
 20
-5.5000000000006271
 30
0.0
 11
2.0
 21
-5.1430769231318232
 31
0.0
  0
ARC
  5
4A65
  8
247
  6
CONTINUOUS
 10
3.0
 20
-1.792307692536633
 30
0.0
 40
1.0
 50
0.0
 51
180.0
  0
LINE
  5
4DE3
  8
240
  6
CONTINUOUS
 10
-25.0
 20
-5.000655699000208
 30
0.0
 11
-25.0
 21
5.000655699000025
 31
0.0
  0
LINE
  5
4DE4
  8
240
  6
CONTINUOUS
 10
-25.0
 20
5.000655699000025
 30
0.0
 11
0.0000000000005542
 21
5.000655699000025
 31
0.0
  0
LINE
  5
4DEB
  8
240
  6
CONTINUOUS
 10
-25.0
 20
-5.000655699000208
 30
0.0
 11
0.000000000000135
 21
-5.0006556990000899
 31
0.0
  0
LINE
  5
50C1
  8
240
  6
CONTINUOUS
 10
14.000000000000281
 20
-7.5999999999999988
 30
0.0
 11
1.599999999903519
 21
-7.5999999999999988
 31
0.0
  0
LINE
  5
50C3
  8
240
  6
CONTINUOUS
 10
1.599999999903519
 20
-7.5999999999999988
 30
0.0
 11
0.6473720560002941
 21
-9.25
 31
0.0
  0
LINE
  5
50C4
  8
240
  6
CONTINUOUS
 10
0.6473720560002941
 20
-9.25
 30
0.0
 11
0.2500000000002941
 21
-9.25
 31
0.0
  0
LINE
  5
50C5
  8
240
  6
CONTINUOUS
 10
0.2500000000002941
 20
-9.25
 30
0.0
 11
0.0000000000002941
 21
-9.0
 31
0.0
  0
LINE
  5
50C7
  8
240
  6
CONTINUOUS
 10
0.0000000000002941
 20
8.9986896020000007
 30
0.0
 11
0.2500000000002941
 21
9.2486896020000007
 31
0.0
  0
LINE
  5
50ED
  8
240
  6
CONTINUOUS
 10
11.501292560000291
 20
9.25
 30
0.0
 11
12.78756443500029
 21
9.25
 31
0.0
  0
ARC
  5
50EE
  8
240
  6
CONTINUOUS
 10
12.78756443500029
 20
8.6500000000000004
 30
0.0
 40
0.6
 50
29.999999999
 51
90.0
  0
LINE
  5
50EF
  8
240
  6
CONTINUOUS
 10
13.30717967700029
 20
8.9499999999999975
 30
0.0
 11
14.000000000000281
 21
7.75
 31
0.0
  0
LINE
  5
50F0
  8
240
  6
CONTINUOUS
 10
14.000000000000281
 20
7.75
 30
0.0
 11
14.000000000000281
 21
-7.5999999999999988
 31
0.0
  0
LINE
  5
50F6
  8
240
  6
CONTINUOUS
 10
12.16211352100029
 20
-7.5999999999999988
 30
0.0
 11
8.5064605510002966
 21
-9.0399999999999991
 31
0.0
  0
LINE
  5
50F7
  8
240
  6
CONTINUOUS
 10
8.5064605510002966
 20
-9.0399999999999991
 30
0.0
 11
5.493539449000294
 21
-9.0399999999999991
 31
0.0
  0
LINE
  5
50F8
  8
240
  6
CONTINUOUS
 10
5.493539449000294
 20
-9.0399999999999991
 30
0.0
 11
1.837886607000293
 21
-7.5999999999999988
 31
0.0
  0
LINE
  5
510A
  8
240
  6
CONTINUOUS
 10
2.5006930130002929
 20
9.2486896020000007
 30
0.0
 11
0.2500000000002941
 21
9.2486896020000007
 31
0.0
  0
LINE
  5
510C
  8
245
  6
CENTER2
 10
7.0000000000002931
 20
9.8808858320000006
 30
0.0
 11
7.0000000000002931
 21
-9.7045224440000002
 31
0.0
  0
LINE
  5
510E
  8
NOCUT
 10
0.0000000000002941
 20
8.9986896020000007
 30
0.0
 11
0.2500000000002941
 21
9.2486896020000007
 31
0.0
  0
LINE
  5
5112
  8
NOCUT
 10
14.000000000000281
 20
7.75
 30
0.0
 11
14.000000000000281
 21
0.0
 31
0.0
  0
LINE
  5
511B
  8
240
  6
CONTINUOUS
 10
0.0000000000005542
 20
5.000655699000025
 30
0.0
 11
0.0000000000005542
 21
8.9986896020000007
 31
0.0
  0
LINE
  5
511C
  8
240
  6
CONTINUOUS
 10
0.000000000000135
 20
-5.0006556990000899
 30
0.0
 11
0.000000000000135
 21
-9.0
 31
0.0
  0
ARC
  5
5179
  8
240
  6
CONTINUOUS
 10
6.99981651909318
 20
17.328654973642301
 30
0.0
 40
9.2481323914624074
 50
240.8898636319673
 51
299.12681976205772
  0
VIEWPORT
  5
22
 67
     1
  8
0
 10
261.51769911504419
 20
148.5
 30
0.0
 40
523.0353982300885
 41
297.0
 68
     1
 69
     1
1001
ACAD
1000
MVIEW
1002
{
1070
    16
1010
0.0
1020
0.0
1030
0.0
1010
0.0
1020
0.0
1030
1.0
1040
0.0
1040
297.0
1040
261.51769911504419
1040
148.5
1040
50.0
1040
0.0
1040
0.0
1070
     0
1070
   100
1070
     1
1070
     1
1070
     0
1070
     0
1070
     0
1070
     0
1040
0.0
1040
0.0
1040
0.0
1040
1.0
1040
1.0
1040
10.0
1040
10.0
1070
     0
1002
{
1002
}
1002
}
1001
GENIUS_GENODEF_13
1002
{
1000
HIER
1070
     0
1002
}
1002
{
1000
MANEDIT
1070
     0
1002
}
1002
{
1000
NOSEL
1070
     0
1002
}
1002
{
1000
BEHIND
1070
     0
1002
}
1002
{
1000
OTHER
1070
     0
1002
}
1002
{
1000
REACTOR
1002
}
1001
GENIUS_GENOBJ-N-SDF_13
1002
{
1000
OWNER
1000
GEN
1002
}
1001
GENIUS_GENSCREG_15
1000
PF
1040
1.0
1000
DF
1040
1.0
1000
MIN
1011
0.0
1021
0.0
1031
0.0
1021
0.0
1031
0.0
1000
MAX
1011
523.0353982300885
1021
0.0
1031
0.0
1021
297.0
1031
0.0
1000
FLAGS
1070
     4
  0
ENDSEC
  0
EOF
