  0
SECTION
  2
HEADER
  9
$ACADVER
  1
AC1009
  9
$INSBASE
 10
0.0
 20
0.0
 30
0.0
  9
$EXTMIN
 10
-33.15769699293957
 20
-20.97390749826808
 30
0.0
  9
$EXTMAX
 10
35.000000000000028
 20
47.000000000000007
 30
0.0
  9
$LIMMIN
 10
0.0
 20
0.0
  9
$LIMMAX
 10
297.0
 20
210.0
  9
$ORTHOMODE
 70
     0
  9
$REGENMODE
 70
     1
  9
$FILLMODE
 70
     1
  9
$QTEXTMODE
 70
     0
  9
$MIRRTEXT
 70
     1
  9
$DRAGMODE
 70
     2
  9
$LTSCALE
 40
10.0
  9
$OSMODE
 70
    45
  9
$ATTMODE
 70
     1
  9
$TEXTSIZE
 40
3.0
  9
$TRACEWID
 40
1.0
  9
$TEXTSTYLE
  7
YOKO
  9
$CLAYER
  8
240
  9
$CELTYPE
  6
BYLAYER
  9
$CECOLOR
 62
   256
  9
$DIMSCALE
 40
1.0
  9
$DIMASZ
 40
2.2299999999999991
  9
$DIMEXO
 40
0.5
  9
$DIMDLI
 40
7.0
  9
$DIMRND
 40
0.0
  9
$DIMDLE
 40
0.0
  9
$DIMEXE
 40
1.0
  9
$DIMTP
 40
0.0
  9
$DIMTM
 40
0.01
  9
$DIMTXT
 40
2.799999999999998
  9
$DIMCEN
 40
0.0
  9
$DIMTSZ
 40
0.0
  9
$DIMTOL
 70
     0
  9
$DIMLIM
 70
     0
  9
$DIMTIH
 70
     0
  9
$DIMTOH
 70
     0
  9
$DIMSE1
 70
     0
  9
$DIMSE2
 70
     0
  9
$DIMTAD
 70
     3
  9
$DIMZIN
 70
     9
  9
$DIMBLK
  1
OPEN
  9
$DIMASO
 70
     1
  9
$DIMSHO
 70
     1
  9
$DIMPOST
  1

  9
$DIMAPOST
  1

  9
$DIMALT
 70
     0
  9
$DIMALTD
 70
     2
  9
$DIMALTF
 40
25.399999999999999
  9
$DIMLFAC
 40
1.0
  9
$DIMTOFL
 70
     1
  9
$DIMTVP
 40
0.0
  9
$DIMTIX
 70
     1
  9
$DIMSOXD
 70
     0
  9
$DIMSAH
 70
     0
  9
$DIMBLK1
  1

  9
$DIMBLK2
  1

  9
$DIMSTYLE
  2
BIGT
  9
$DIMCLRD
 70
   256
  9
$DIMCLRE
 70
   256
  9
$DIMCLRT
 70
    40
  9
$DIMTFAC
 40
1.0
  9
$DIMGAP
 40
1.0
  9
$LUNITS
 70
     2
  9
$LUPREC
 70
     3
  9
$SKETCHINC
 40
1.0
  9
$FILLETRAD
 40
0.0
  9
$AUNITS
 70
     0
  9
$AUPREC
 70
     3
  9
$MENU
  1
.
  9
$ELEVATION
 40
0.0
  9
$PELEVATION
 40
0.0
  9
$THICKNESS
 40
0.0
  9
$LIMCHECK
 70
     0
  9
$BLIPMODE
 70
     0
  9
$CHAMFERA
 40
0.25
  9
$CHAMFERB
 40
0.25
  9
$SKPOLY
 70
     0
  9
$TDCREATE
 40
2456393.3907970032
  9
$TDUPDATE
 40
2457856.6414802782
  9
$TDINDWG
 40
0.0133816782
  9
$TDUSRTIMER
 40
0.0133816667
  9
$USRTIMER
 70
     1
  9
$ANGBASE
 50
0.0
  9
$ANGDIR
 70
     0
  9
$PDMODE
 70
     1
  9
$PDSIZE
 40
0.0
  9
$PLINEWID
 40
0.0
  9
$COORDS
 70
     1
  9
$SPLFRAME
 70
     0
  9
$SPLINETYPE
 70
     6
  9
$SPLINESEGS
 70
     4
  9
$ATTDIA
 70
     1
  9
$ATTREQ
 70
     1
  9
$HANDLING
 70
     1
  9
$HANDSEED
  5
18C0
  9
$SURFTAB1
 70
     6
  9
$SURFTAB2
 70
     6
  9
$SURFTYPE
 70
     6
  9
$SURFU
 70
     6
  9
$SURFV
 70
     6
  9
$UCSNAME
  2

  9
$UCSORG
 10
0.0
 20
0.0
 30
0.0
  9
$UCSXDIR
 10
1.0
 20
0.0
 30
0.0
  9
$UCSYDIR
 10
0.0
 20
1.0
 30
0.0
  9
$PUCSNAME
  2

  9
$PUCSORG
 10
0.0
 20
0.0
 30
0.0
  9
$PUCSXDIR
 10
1.0
 20
0.0
 30
0.0
  9
$PUCSYDIR
 10
0.0
 20
1.0
 30
0.0
  9
$USERI1
 70
     1
  9
$USERI2
 70
     0
  9
$USERI3
 70
     0
  9
$USERI4
 70
     0
  9
$USERI5
 70
     0
  9
$USERR1
 40
0.0
  9
$USERR2
 40
0.0
  9
$USERR3
 40
0.0
  9
$USERR4
 40
0.0
  9
$USERR5
 40
0.0
  9
$WORLDVIEW
 70
     1
  9
$SHADEDGE
 70
     3
  9
$SHADEDIF
 70
    70
  9
$TILEMODE
 70
     1
  9
$MAXACTVP
 70
    16
  9
$PLIMCHECK
 70
     0
  9
$PEXTMIN
 10
1.0000000000000000E+020
 20
1.0000000000000000E+020
 30
1.0000000000000000E+020
  9
$PEXTMAX
 10
-1.0000000000000000E+020
 20
-1.0000000000000000E+020
 30
-1.0000000000000000E+020
  9
$PLIMMIN
 10
0.0
 20
0.0
  9
$PLIMMAX
 10
420.0
 20
297.0
  9
$UNITMODE
 70
     0
  9
$VISRETAIN
 70
     1
  9
$PLINEGEN
 70
     0
  9
$PSLTSCALE
 70
     1
  0
ENDSEC
  0
SECTION
  2
TABLES
  0
TABLE
  2
VPORT
 70
     1
  0
VPORT
  2
*ACTIVE
 70
     0
 10
0.0
 20
0.0
 11
1.0
 21
1.0
 12
10.959104523029209
 22
22.38429853817777
 13
0.0
 23
0.0
 14
7.0
 24
7.0
 15
7.0
 25
7.0
 16
0.0
 26
0.0
 36
1.0
 17
0.0
 27
0.0
 37
0.0
 40
114.0829581458804
 41
1.6510745891276859
 42
50.0
 43
0.0
 44
0.0
 50
0.0
 51
0.0
 71
     0
 72
  2000
 73
     1
 74
     0
 75
     0
 76
     1
 77
     0
 78
     0
  0
ENDTAB
  0
TABLE
  2
LTYPE
 70
    21
  0
LTYPE
  2
CONTINUOUS
 70
     0
  3
Solid line
 72
    65
 73
     0
 40
0.0
  0
LTYPE
  2
CENTER2
 70
     0
  3
___ _ ___ _ ___ _ ___ _ ___ _ ___ _ ___ _ ___ _
 72
    65
 73
     4
 40
1.125
 49
0.75
 49
-0.125
 49
0.125
 49
-0.125
  0
LTYPE
  2
HIDDEN2
 70
     0
  3
_ _ _ _ _ _ _ _ _ _ _ _ _ _ _ _ _ _ _ _ _ _ _ _
 72
    65
 73
     2
 40
0.1875
 49
0.125
 49
-0.0625
  0
LTYPE
  2
PHANTOM2
 70
     0
  3
___ _ _ ___ _ _ ___ _ _ ___ _ _ ___ _ _ ___ _ _
 72
    65
 73
     6
 40
1.25
 49
0.625
 49
-0.125
 49
0.125
 49
-0.125
 49
0.125
 49
-0.125
  0
LTYPE
  2
CENTER
 70
     0
  3
____ _ ____ _ ____ _ ____ _ ____ _ ____ _ ____ 
 72
    65
 73
     4
 40
2.0
 49
1.25
 49
-0.25
 49
0.25
 49
-0.25
  0
LTYPE
  2
AMCONSTR
 70
     0
  3
_______________________
 72
    65
 73
     2
 40
9999.0
 49
9999.0
 49
0.0
  0
LTYPE
  2
HIDDEN
 70
     0
  3
Hidden __ __ __ __ __ __ __ __ __ __ __ __ __ _
 72
    65
 73
     2
 40
9.5249999999999986
 49
6.3499999999999979
 49
-3.174999999999998
  0
LTYPE
  2
AMZIGZAG2
 70
     0
  3
/\/-/\/-/\/-/\/-/\/-/\/
 72
    65
 73
     2
 40
0.4401
 49
0.0001
 49
-0.4400000000000002
  0
LTYPE
  2
ACANSTGB
 70
     0
  3
__ . . __ . .
 72
    65
 73
     6
 40
0.35433070866
 49
0.15748031496
 49
-0.03937007874
 49
0.03937007874
 49
-0.03937007874
 49
0.03937007874
 49
-0.03937007874
  0
LTYPE
  2
ACANSTGL
 70
     0
  3
_ _ _ _ _
 72
    65
 73
     2
 40
0.11811023622
 49
0.07874015748
 49
-0.03937007874
  0
ENDTAB
  0
TABLE
  2
LAYER
 70
    15
  0
LAYER
  2
0
 70
     0
 62
     7
  6
CONTINUOUS
  0
LAYER
  2
245
 70
     0
 62
     2
  6
CENTER2
  0
LAYER
  2
DEFPOINTS
 70
     0
 62
     7
  6
CONTINUOUS
  0
LAYER
  2
240
 70
     0
 62
     4
  6
CONTINUOUS
  0
LAYER
  2
241
 70
     0
 62
   211
  6
CONTINUOUS
  0
LAYER
  2
243
 70
     0
 62
   211
  6
HIDDEN2
  0
LAYER
  2
247
 70
     0
 62
    60
  6
CONTINUOUS
  0
LAYER
  2
250
 70
     0
 62
     3
  6
CONTINUOUS
  0
ENDTAB
  0
TABLE
  2
STYLE
 70
    11
  0
STYLE
  2
STANDARD
 70
     0
 40
0.0
 41
1.0
 50
0.0
 71
     0
 42
3.0
  3
romans.shx
  4
extfont.shx
  0
STYLE
  2
YOKO
 70
     0
 40
0.0
 41
1.0
 50
0.0
 71
     0
 42
3.0
  3
romans.shx
  4
extfont.shx
  0
STYLE
  2
ACANSGDT
 70
     0
 40
0.0
 41
1.0
 50
0.0
 71
     0
 42
3.0
  3
amgdt.shx
  4

  0
ENDTAB
  0
TABLE
  2
VIEW
 70
     0
  0
ENDTAB
  0
TABLE
  2
UCS
 70
     0
  0
ENDTAB
  0
TABLE
  2
APPID
 70
    35
  0
APPID
  2
ACAD
 70
     0
  0
APPID
  2
ACADANNOTATIVE
 70
     0
  0
APPID
  2
GLOBAL
 70
     0
  0
APPID
  2
DETAIL
 70
     0
  0
APPID
  2
GRPNAME
 70
     0
  0
APPID
  2
GPARA
 70
     0
  0
APPID
  2
MCAD_NO_VIS
 70
     0
  0
APPID
  2
ACAD_TEMP_GRAPHIC
 70
     0
  0
APPID
  2
ACATTRIBSERVICES
 70
     0
  0
APPID
  2
GENIUS_GENSCREG_15
 70
     0
  0
APPID
  2
GENIUS_GENODEF_13
 70
     0
  0
APPID
  2
GENIUS_GENOBJ-N-SDF_13
 70
     0
  0
APPID
  2
GENIUS_GENREC_14
 70
     0
  0
APPID
  2
GENIUS_GENOBJ-N-REC_13
 70
     0
  0
APPID
  2
GENIUS_GENDIMSH_14
 70
     0
  0
APPID
  2
GENIUS_GENOBJ-N-DIM_13
 70
     0
  0
APPID
  2
GENIUS_GENDIM_13
 70
     0
  0
APPID
  2
GENIUS_GENDTOL_13
 70
     0
  0
APPID
  2
GENIUS_GENOLIS_13
 70
     0
  0
APPID
  2
GENIUS_GENOENT_13
 70
     0
  0
APPID
  2
GENIUS_GENOBJ-F-FEM_13
 70
     0
  0
APPID
  2
GENIUS_GENOREF_13
 70
     0
  0
APPID
  2
GENIUS_GEFFEM_13
 70
     0
  0
APPID
  2
GENIUS_GEFFEMP_13
 70
     0
  0
APPID
  2
AD_DRAW
 70
     0
  0
APPID
  2
DESIGNERASSEMBLIES
 70
     0
  0
APPID
  2
ACADM_DIM_EDIT
 70
     0
  0
APPID
  2
AMDT_DM_ADJ
 70
     0
  0
APPID
  2
ITEMNAME
 70
     0
  0
APPID
  2
CONTENTBLOCKICON
 70
     0
  0
APPID
  2
ACAD_DSTYLE_DIMBREAK
 70
     0
  0
APPID
  2
ACAD_DSTYLE_DIMJAG
 70
     0
  0
APPID
  2
ACAD_NAV_VCDISPLAY
 70
     0
  0
APPID
  2
GENIUS_GENOBJ-N-FIL_13
 70
     0
  0
APPID
  2
ACAD_MLEADERVER
 70
     0
  0
ENDTAB
  0
TABLE
  2
DIMSTYLE
 70
    33
  0
DIMSTYLE
  2
STANDARD
 70
     0
  3

  4

  5

  6

  7

 40
1.0
 41
0.18
 42
0.0625
 43
0.38
 44
0.18
 45
0.0
 46
0.0
 47
0.0
 48
0.0
140
0.18
141
0.09
142
0.0
143
25.399999999999999
144
1.0
145
0.0
146
1.0
147
0.09
 71
     0
 72
     0
 73
     1
 74
     1
 75
     0
 76
     0
 77
     0
 78
     0
170
     0
171
     2
172
     0
173
     0
174
     0
175
     0
176
     0
177
     0
178
     0
  0
DIMSTYLE
  2
BIGT
 70
     0
  3

  4

  5

  6

  7

 40
1.0
 41
2.2299999999999991
 42
0.5
 43
7.0
 44
1.0
 45
0.0
 46
0.0
 47
0.0
 48
0.01
140
2.799999999999998
141
0.0
142
0.0
143
25.399999999999999
144
1.0
145
0.0
146
1.0
147
1.0
 71
     0
 72
     0
 73
     0
 74
     0
 75
     0
 76
     0
 77
     3
 78
     9
170
     0
171
     2
172
     1
173
     0
174
     1
175
     0
176
   256
177
   256
178
    40
  0
DIMSTYLE
  2
AM_ANSI
 70
     0
  3

  4
mm
  5

  6

  7

 40
1.0
 41
0.1
 42
0.05
 43
0.5
 44
0.1
 45
0.0
 46
0.0
 47
0.1
 48
0.1
140
0.12
141
0.0
142
0.0
143
25.399999999999999
144
1.0
145
0.0
146
0.71
147
0.06
 71
     0
 72
     0
 73
     1
 74
     1
 75
     0
 76
     0
 77
     0
 78
     7
170
     0
171
     2
172
     0
173
     0
174
     0
175
     0
176
   256
177
   256
178
     2
  0
DIMSTYLE
  2
AM_ANSI$3
 70
     0
  3

  4
mm
  5

  6

  7

 40
1.0
 41
0.1
 42
0.05
 43
0.5
 44
0.1
 45
0.0
 46
0.0
 47
0.1
 48
0.1
140
0.12
141
0.0
142
0.0
143
25.399999999999999
144
1.0
145
0.0
146
0.71
147
0.06
 71
     0
 72
     0
 73
     1
 74
     1
 75
     0
 76
     0
 77
     0
 78
     7
170
     0
171
     2
172
     0
173
     0
174
     0
175
     0
176
   256
177
   256
178
     2
  0
DIMSTYLE
  2
AM_ANSI$4
 70
     0
  3

  4
mm
  5

  6

  7

 40
1.0
 41
0.1
 42
0.05
 43
0.5
 44
0.1
 45
0.0
 46
0.0
 47
0.1
 48
0.1
140
0.12
141
0.0
142
0.0
143
25.399999999999999
144
1.0
145
0.0
146
0.71
147
0.06
 71
     0
 72
     0
 73
     1
 74
     1
 75
     0
 76
     0
 77
     0
 78
     7
170
     0
171
     2
172
     0
173
     0
174
     0
175
     0
176
   256
177
   256
178
     2
  0
DIMSTYLE
  2
AM_ANSI$7
 70
     0
  3

  4
mm
  5

  6

  7

 40
1.0
 41
0.1
 42
0.05
 43
0.5
 44
0.1
 45
0.0
 46
0.0
 47
0.1
 48
0.1
140
0.24
141
0.0
142
0.0
143
25.399999999999999
144
1.0
145
0.0
146
0.71
147
0.06
 71
     0
 72
     0
 73
     1
 74
     1
 75
     0
 76
     0
 77
     0
 78
     7
170
     0
171
     2
172
     0
173
     0
174
     0
175
     0
176
   256
177
   256
178
     2
  0
DIMSTYLE
  2
AM_ANSI$SF
 70
     0
  3

  4
mm
  5

  6

  7

 40
1.0
 41
0.1
 42
0.05
 43
0.5
 44
0.1
 45
0.0
 46
0.0
 47
0.1
 48
0.1
140
0.12
141
0.0
142
0.0
143
25.399999999999999
144
1.0
145
0.0
146
0.71
147
0.06
 71
     0
 72
     0
 73
     1
 74
     1
 75
     1
 76
     1
 77
     0
 78
     7
170
     0
171
     2
172
     0
173
     0
174
     0
175
     0
176
   256
177
   256
178
     2
  0
DIMSTYLE
  2
AM_ANSI$SH
 70
     0
  3

  4
mm
  5

  6

  7

 40
1.0
 41
0.1
 42
0.05
 43
0.5
 44
0.1
 45
0.0
 46
0.0
 47
0.1
 48
0.1
140
0.12
141
0.0
142
0.0
143
25.399999999999999
144
1.0
145
0.0
146
0.71
147
0.06
 71
     0
 72
     0
 73
     1
 74
     1
 75
     1
 76
     1
 77
     0
 78
     7
170
     0
171
     2
172
     0
173
     1
174
     0
175
     0
176
   256
177
   256
178
     2
  0
ENDTAB
  0
ENDSEC
  0
SECTION
  2
BLOCKS
  0
BLOCK
  8
0
  2
$MODEL_SPACE
 70
     0
 10
0.0
 20
0.0
 30
0.0
  3
$MODEL_SPACE
  1

  0
ENDBLK
  5
16C7
  8
0
  0
BLOCK
 67
     1
  8
0
  2
$PAPER_SPACE
 70
     0
 10
0.0
 20
0.0
 30
0.0
  3
$PAPER_SPACE
  1

  0
ENDBLK
  5
16C3
 67
     1
  8
0
  0
BLOCK
  8
0
  2
_OPEN
 70
     0
 10
0.0
 20
0.0
 30
0.0
  3
_OPEN
  1

  0
LINE
  5
15E4
  8
0
  6
BYBLOCK
 62
     0
 10
-1.0
 20
0.1666666666666666
 30
0.0
 11
0.0
 21
0.0
 31
0.0
  0
LINE
  5
15E5
  8
0
  6
BYBLOCK
 62
     0
 10
-1.0
 20
-0.1666666666666666
 30
0.0
 11
0.0
 21
0.0
 31
0.0
  0
LINE
  5
15E6
  8
0
  6
BYBLOCK
 62
     0
 10
0.0
 20
0.0
 30
0.0
 11
-1.0
 21
0.0
 31
0.0
  0
ENDBLK
  5
15E7
  8
0
  0
BLOCK
  8
0
  2
_ACMFILLEDHALF
 70
     0
 10
0.0
 20
0.0
 30
0.0
  3
_ACMFILLEDHALF
  1

  0
TRACE
  5
1793
  8
245
 62
     0
 10
-0.8
 20
0.0
 30
0.0
 11
-1.0
 21
0.166666666
 31
0.0
 12
0.0
 22
0.0
 32
0.0
 13
0.0
 23
0.0
 33
0.0
  0
LINE
  5
1794
  8
245
 62
     0
 10
-1.0
 20
0.0
 30
0.0
 11
-0.8
 21
0.0
 31
0.0
  0
ENDBLK
  5
1792
  8
0
  0
ENDSEC
  0
SECTION
  2
ENTITIES
  0
LINE
  5
13DD
  8
240
  6
CONTINUOUS
 10
22.00000000000006
 20
-12.700000000000021
 30
0.0
 11
21.99999999999994
 21
15.000000000000201
 31
0.0
  0
LINE
  5
13DF
  8
240
  6
CONTINUOUS
 10
0.0
 20
-15.0
 30
0.0
 11
0.0
 21
-9.0
 31
0.0
  0
LINE
  5
13E0
  8
240
  6
CONTINUOUS
 10
9.6212812921100408
 20
-14.9
 30
0.0
 11
13.578718707889999
 21
-14.9
 31
0.0
  0
LINE
  5
13E1
  8
241
  6
CONTINUOUS
 10
3.6500000000000332
 20
-12.700000000000021
 30
0.0
 11
19.550000000000011
 21
-12.700000000000021
 31
0.0
  0
LINE
  5
13E2
  8
241
  6
CONTINUOUS
 10
3.6500000000000332
 20
-13.30000000000001
 30
0.0
 11
19.550000000000011
 21
-13.30000000000001
 31
0.0
  0
LINE
  5
13E3
  8
240
  6
CONTINUOUS
 10
3.30000000000001
 20
-12.700000000000021
 30
0.0
 11
1.0000000000000551
 21
-15.0
 31
0.0
  0
LINE
  5
13E6
  8
240
  6
CONTINUOUS
 10
0.0
 20
-15.0
 30
0.0
 11
1.0000000000000551
 21
-15.0
 31
0.0
  0
LINE
  5
13E7
  8
240
  6
CONTINUOUS
 10
9.6212812921100408
 20
-14.9
 30
0.0
 11
3.6500000000000332
 21
-13.30000000000007
 31
0.0
  0
LINE
  5
13E8
  8
240
  6
CONTINUOUS
 10
3.6500000000000332
 20
-13.30000000000001
 30
0.0
 11
3.6500000000000332
 21
-12.700000000000021
 31
0.0
  0
LINE
  5
13E9
  8
240
  6
CONTINUOUS
 10
3.30000000000001
 20
-12.700000000000021
 30
0.0
 11
3.6500000000000332
 21
-12.700000000000021
 31
0.0
  0
LINE
  5
13EA
  8
240
  6
CONTINUOUS
 10
13.578718707889999
 20
-14.9
 30
0.0
 11
19.550000000000011
 21
-13.30000000000007
 31
0.0
  0
LINE
  5
13EB
  8
240
  6
CONTINUOUS
 10
19.550000000000011
 20
-12.700000000000021
 30
0.0
 11
22.00000000000006
 21
-12.700000000000021
 31
0.0
  0
LINE
  5
13EC
  8
240
  6
CONTINUOUS
 10
19.550000000000011
 20
-13.30000000000001
 30
0.0
 11
19.550000000000011
 21
-12.700000000000021
 31
0.0
  0
LINE
  5
13F1
  8
245
  6
CENTER2
 10
26.300000000000011
 20
0.0
 30
0.0
 11
-23.02998189190566
 21
0.0
 31
0.0
  0
LINE
  5
13FE
  8
240
  6
CONTINUOUS
 10
0.0
 20
14.999999999999989
 30
0.0
 11
21.99999999999994
 21
15.000000000000201
 31
0.0
  0
LINE
  5
1402
  8
241
  6
CONTINUOUS
 10
0.0
 20
-9.0
 30
0.0
 11
0.0
 21
9.0
 31
0.0
  0
LINE
  5
1407
  8
240
  6
CONTINUOUS
 10
0.0
 20
14.999999999999989
 30
0.0
 11
0.0
 21
9.0
 31
0.0
  0
LINE
  5
1494
  8
243
  6
HIDDEN2
 10
22.000000000000021
 20
-3.5
 30
0.0
 11
6.6711311267935107
 21
-3.5
 31
0.0
  0
LINE
  5
149A
  8
243
  6
HIDDEN2
 10
22.0
 20
3.5
 30
0.0
 11
6.6711311267935107
 21
3.5
 31
0.0
  0
TEXT
  5
1501
  8
241
  6
CONTINUOUS
 10
-21.0
 20
42.0
 30
0.0
 40
5.0
  1
EWN04-15CK3
  7
YOKO
 11
-21.0
 21
42.0
 31
0.0
 73
     1
  0
LINE
  5
1539
  8
250
  6
CONTINUOUS
 10
0.0
 20
15.499999999999989
 30
0.0
 11
0.0000000000000009
 21
29.0
 31
0.0
  0
LINE
  5
153A
  8
250
  6
CONTINUOUS
 10
21.99999999999994
 20
15.500000000000201
 30
0.0
 11
21.99999999999994
 21
29.0
 31
0.0
  0
LINE
  5
153B
  8
250
  6
CONTINUOUS
 10
2.2299999999999991
 20
28.0
 30
0.0
 11
19.769999999999929
 21
28.0
 31
0.0
  0
LINE
  5
153F
  8
250
  6
CONTINUOUS
 10
22.5
 20
3.5
 30
0.0
 11
35.000000000000028
 21
3.499999999999996
 31
0.0
  0
LINE
  5
1540
  8
250
  6
CONTINUOUS
 10
22.500000000000028
 20
-3.5
 30
0.0
 11
35.000000000000028
 21
-3.5000000000000031
 31
0.0
  0
LINE
  5
1541
  8
250
  6
CONTINUOUS
 10
34.000000000000043
 20
1.2699999999999949
 30
0.0
 11
34.000000000000043
 21
-1.270000000000002
 31
0.0
  0
TEXT
  5
1545
  8
250
  6
CONTINUOUS
 10
8.3333333333333055
 20
29.0
 30
0.0
 40
2.799999999999998
  1
22
  0
LINE
  5
1546
  8
250
  6
CONTINUOUS
 10
19.769999999999929
 20
28.371666666666659
 30
0.0
 11
21.99999999999994
 21
28.0
 31
0.0
  0
LINE
  5
1547
  8
250
  6
CONTINUOUS
 10
19.769999999999929
 20
27.62833333333333
 30
0.0
 11
21.99999999999994
 21
28.0
 31
0.0
  0
LINE
  5
1548
  8
250
  6
CONTINUOUS
 10
21.99999999999994
 20
28.0
 30
0.0
 11
19.769999999999929
 21
28.0
 31
0.0
  0
LINE
  5
1549
  8
250
  6
CONTINUOUS
 10
2.2299999999999991
 20
27.62833333333333
 30
0.0
 11
0.0000000000000008
 21
28.0
 31
0.0
  0
LINE
  5
154A
  8
250
  6
CONTINUOUS
 10
2.2299999999999991
 20
28.371666666666659
 30
0.0
 11
0.0000000000000008
 21
28.0
 31
0.0
  0
LINE
  5
154B
  8
250
  6
CONTINUOUS
 10
0.0000000000000008
 20
28.0
 30
0.0
 11
2.2299999999999991
 21
28.0
 31
0.0
  0
TEXT
  5
154C
  8
250
  6
CONTINUOUS
 10
33.000000000000043
 20
-2.4666666666666641
 30
0.0
 40
2.799999999999998
  1
\U+22057
 50
90.0
  0
LINE
  5
154D
  8
250
  6
CONTINUOUS
 10
34.371666666666691
 20
-1.270000000000002
 30
0.0
 11
34.000000000000043
 21
-3.5000000000000031
 31
0.0
  0
LINE
  5
154E
  8
250
  6
CONTINUOUS
 10
33.628333333333359
 20
-1.270000000000002
 30
0.0
 11
34.000000000000043
 21
-3.5000000000000031
 31
0.0
  0
LINE
  5
154F
  8
250
  6
CONTINUOUS
 10
34.000000000000043
 20
-3.5000000000000031
 30
0.0
 11
34.000000000000043
 21
-1.270000000000002
 31
0.0
  0
LINE
  5
1550
  8
250
  6
CONTINUOUS
 10
33.628333333333359
 20
1.2699999999999949
 30
0.0
 11
34.000000000000043
 21
3.499999999999996
 31
0.0
  0
LINE
  5
1551
  8
250
  6
CONTINUOUS
 10
34.371666666666691
 20
1.2699999999999949
 30
0.0
 11
34.000000000000043
 21
3.499999999999996
 31
0.0
  0
LINE
  5
1552
  8
250
  6
CONTINUOUS
 10
34.000000000000043
 20
3.499999999999996
 30
0.0
 11
34.000000000000043
 21
1.2699999999999949
 31
0.0
  0
LINE
  5
17DA
  8
240
  6
CONTINUOUS
 10
-20.0
 20
-8.9999999999999911
 30
0.0
 11
-20.0
 21
8.9999999999999911
 31
0.0
  0
LINE
  5
17DB
  8
240
  6
CONTINUOUS
 10
-20.0
 20
-8.9999999999999911
 30
0.0
 11
0.0000000000000284
 21
-8.9999999999999716
 31
0.0
  0
CIRCLE
  5
17DE
  8
241
  6
CONTINUOUS
 10
-8.0000000000000231
 20
-0.0000000000000995
 30
0.0
 40
2.9904999999999982
  0
CIRCLE
  5
17DF
  8
241
  6
CONTINUOUS
 10
-8.0000000000000231
 20
-0.0000000000000995
 30
0.0
 40
2.25
  0
LINE
  5
17E0
  8
245
  6
CENTER2
 10
-8.0000000000000231
 20
4.0476119999998561
 30
0.0
 11
-8.0000000000000231
 21
-3.9881560000001031
 31
0.0
  0
LINE
  5
17E1
  8
240
  6
CONTINUOUS
 10
-20.0
 20
8.9999999999999911
 30
0.0
 11
0.0000000000000426
 21
8.9999999999999432
 31
0.0
  0
LINE
  5
17E2
  8
250
  6
CONTINUOUS
 10
-24.994284614108409
 20
-19.052553054088211
 30
0.0
 11
-16.042736603975971
 21
-19.052553054088211
 31
0.0
  0
LINE
  5
17E3
  8
250
  6
CONTINUOUS
 10
-16.042736603975971
 20
-19.052553054088211
 30
0.0
 11
-11.947411334816611
 21
-10.98830079559097
 31
0.0
  0
LINE
  5
17E4
  8
250
  6
CONTINUOUS
 10
-11.947411334816611
 20
-10.98830079559097
 30
0.0
 11
-10.937678723551461
 21
-9.0000000000000089
 31
0.0
  0
LINE
  5
17E5
  8
250
  6
CONTINUOUS
 10
-11.68564657028999
 20
-11.121234615166349
 30
0.0
 11
-10.937678723551461
 21
-9.0000000000000089
 31
0.0
  0
LINE
  5
17E6
  8
250
  6
CONTINUOUS
 10
-10.937678723551461
 20
-9.0000000000000089
 30
0.0
 11
-12.20917609934326
 21
-10.85536697601558
 31
0.0
  0
TEXT
  5
17E7
  8
250
  6
CONTINUOUS
 10
-25.394284614108411
 20
-17.761820145766698
 30
0.0
 40
2.799999999999998
  1
CK3
  7
YOKO
  0
LINE
  5
17E8
  8
247
  6
CONTINUOUS
 10
4.0000000000011351
 20
-8.5000000000000302
 30
0.0
 11
4.0000000000011804
 21
-4.7923076925360482
 31
0.0
  0
LINE
  5
17E9
  8
247
  6
CONTINUOUS
 10
2.0000000000011791
 20
-7.86391479999038
 30
0.0
 11
3.6799999999339841
 21
-8.3456470480459082
 31
0.0
  0
LINE
  5
17EA
  8
247
  6
CONTINUOUS
 10
2.7969230768923792
 20
-7.3601211228152499
 30
0.0
 11
2.7969230768923792
 21
-8.0924288150936476
 31
0.0
  0
ARC
  5
17EB
  8
247
  6
CONTINUOUS
 10
2.3077752538364602
 20
-7.1698107215574662
 30
0.0
 40
0.3101372647461394
 50
72.997889675292001
 51
172.92416621851231
  0
ARC
  5
17EC
  8
247
  6
CONTINUOUS
 10
2.2441785048235912
 20
-7.4059820454433112
 30
0.0
 40
0.5546438372287014
 50
4.7429368522013959
 51
73.849226273266339
1001
GENIUS_GENOBJ-N-FIL_13
1002
{
1000
OWNER
1000
GEN
1002
}
1001
GENIUS_GENODEF_13
1002
{
1000
HIER
1070
     0
1002
}
1002
{
1000
MANEDIT
1070
     0
1002
}
1002
{
1000
NOSEL
1070
     0
1002
}
1002
{
1000
BEHIND
1070
     0
1002
}
1002
{
1000
OTHER
1070
     0
1002
}
1002
{
1000
REACTOR
1002
}
  0
LINE
  5
17ED
  8
247
  6
CONTINUOUS
 10
3.6799999999339841
 20
-7.6133393557675113
 30
0.0
 11
3.6799999999339841
 21
-8.3456470480459082
 31
0.0
  0
LINE
  5
17EE
  8
247
  6
CONTINUOUS
 10
2.0000000000011791
 20
-7.8639147999903862
 30
0.0
 11
2.0000000000011791
 21
-7.131607107711984
 31
0.0
  0
ARC
  5
17EF
  8
247
  6
CONTINUOUS
 10
3.1099335702154791
 20
-7.4026451810134901
 30
0.0
 40
0.3158858408603088
 50
65.990941652528889
 51
172.26344345906949
  0
ARC
  5
17F0
  8
247
  6
CONTINUOUS
 10
3.1129602618672361
 20
-7.6699572883415552
 30
0.0
 40
0.5698593289889349
 50
5.701985164258037
 51
77.277338436822262
1001
GENIUS_GENOBJ-N-FIL_13
1002
{
1000
OWNER
1000
GEN
1002
}
1001
GENIUS_GENODEF_13
1002
{
1000
HIER
1070
     0
1002
}
1002
{
1000
MANEDIT
1070
     0
1002
}
1002
{
1000
NOSEL
1070
     0
1002
}
1002
{
1000
BEHIND
1070
     0
1002
}
1002
{
1000
OTHER
1070
     0
1002
}
1002
{
1000
REACTOR
1002
}
  0
LINE
  5
17F1
  8
247
  6
CONTINUOUS
 10
3.6799999999339841
 20
-6.847185509650723
 30
0.0
 11
2.0000000000011791
 21
-6.3654532615951966
 31
0.0
  0
LINE
  5
17F2
  8
247
  6
CONTINUOUS
 10
2.0000000000011791
 20
-5.168530184726392
 30
0.0
 11
2.0000000000011791
 21
-5.4853426914428889
 31
0.0
  0
LINE
  5
17F3
  8
247
  6
CONTINUOUS
 10
3.6799999999339841
 20
-5.9869917231551932
 30
0.0
 11
3.6799999999339841
 21
-5.6423763385535981
 31
0.0
  0
ARC
  5
17F4
  8
247
  6
CONTINUOUS
 10
3.1666396760678701
 20
-5.0054532616559921
 30
0.0
 40
1.261484046111637
 50
202.35948814152729
 51
254.993248542846
  0
ARC
  5
17F5
  8
247
  6
CONTINUOUS
 10
2.4526550868316912
 20
-5.378009092906602
 30
0.0
 40
0.4987765437607558
 50
94.994589319075374
 51
155.16632895730359
1001
GENIUS_GENOBJ-N-FIL_13
1002
{
1000
OWNER
1000
GEN
1002
}
1001
GENIUS_GENODEF_13
1002
{
1000
HIER
1070
     0
1002
}
1002
{
1000
MANEDIT
1070
     0
1002
}
1002
{
1000
NOSEL
1070
     0
1002
}
1002
{
1000
BEHIND
1070
     0
1002
}
1002
{
1000
OTHER
1070
     0
1002
}
1002
{
1000
REACTOR
1002
}
  0
ARC
  5
17F6
  8
247
  6
CONTINUOUS
 10
2.929681697576731
 20
-5.8553471608262431
 30
0.0
 40
0.7799577719285588
 50
15.84609655577998
 51
82.325137004169164
  0
ARC
  5
17F7
  8
247
  6
CONTINUOUS
 10
3.097176321578035
 20
-5.5281693110177983
 30
0.0
 40
0.7417556510953607
 50
249.71360167049701
 51
321.78874565640962
1001
GENIUS_GENOBJ-N-FIL_13
1002
{
1000
OWNER
1000
GEN
1002
}
1001
GENIUS_GENODEF_13
1002
{
1000
HIER
1070
     0
1002
}
1002
{
1000
MANEDIT
1070
     0
1002
}
1002
{
1000
NOSEL
1070
     0
1002
}
1002
{
1000
BEHIND
1070
     0
1002
}
1002
{
1000
OTHER
1070
     0
1002
}
1002
{
1000
REACTOR
1002
}
  0
LINE
  5
17F8
  8
247
  6
CONTINUOUS
 10
3.03384615380596
 20
-5.4700686462527921
 30
0.0
 11
3.03384615380596
 21
-5.082376338575993
 31
0.0
  0
ARC
  5
17F9
  8
247
  6
CONTINUOUS
 10
3.0000000000011791
 20
-8.5000000000000302
 30
0.0
 40
1.0
 50
180.0
 51
0.0
  0
LINE
  5
17FA
  8
247
  6
CONTINUOUS
 10
2.0000000000011791
 20
-8.5000000000000302
 30
0.0
 11
2.0000000000011791
 21
-8.1430769231312201
 31
0.0
  0
ARC
  5
17FB
  8
247
  6
CONTINUOUS
 10
3.0000000000011791
 20
-4.7923076925360331
 30
0.0
 40
1.0
 50
0.0
 51
180.0
  0
VIEWPORT
  5
22
 67
     1
  8
0
 10
261.51769911504419
 20
148.5
 30
0.0
 40
523.0353982300885
 41
297.0
 68
     1
 69
     1
1001
ACAD
1000
MVIEW
1002
{
1070
    16
1010
0.0
1020
0.0
1030
0.0
1010
0.0
1020
0.0
1030
1.0
1040
0.0
1040
297.0
1040
261.51769911504419
1040
148.5
1040
50.0
1040
0.0
1040
0.0
1070
     0
1070
   100
1070
     1
1070
     1
1070
     0
1070
     0
1070
     0
1070
     0
1040
0.0
1040
0.0
1040
0.0
1040
1.0
1040
1.0
1040
10.0
1040
10.0
1070
     0
1002
{
1002
}
1002
}
1001
GENIUS_GENODEF_13
1002
{
1000
HIER
1070
     0
1002
}
1002
{
1000
MANEDIT
1070
     0
1002
}
1002
{
1000
NOSEL
1070
     0
1002
}
1002
{
1000
BEHIND
1070
     0
1002
}
1002
{
1000
OTHER
1070
     0
1002
}
1002
{
1000
REACTOR
1002
}
1001
GENIUS_GENOBJ-N-SDF_13
1002
{
1000
OWNER
1000
GEN
1002
}
1001
GENIUS_GENSCREG_15
1000
PF
1040
1.0
1000
DF
1040
1.0
1000
MIN
1011
0.0
1021
0.0
1031
0.0
1021
0.0
1031
0.0
1000
MAX
1011
523.0353982300885
1021
0.0
1031
0.0
1021
297.0
1031
0.0
1000
FLAGS
1070
     4
  0
ENDSEC
  0
EOF
