  0
SECTION
  2
HEADER
  9
$ACADVER
  1
AC1009
  9
$INSBASE
 10
0.0
 20
0.0
 30
0.0
  9
$EXTMIN
 10
-42.010359930166032
 20
-32.560958227912131
 30
-0.0015258207003583
  9
$EXTMAX
 10
92.015067006910954
 20
82.014427647244247
 30
0.0000000349246037
  9
$LIMMIN
 10
0.0
 20
0.0
  9
$LIMMAX
 10
297.0
 20
210.0
  9
$ORTHOMODE
 70
     0
  9
$REGENMODE
 70
     1
  9
$FILLMODE
 70
     1
  9
$QTEXTMODE
 70
     0
  9
$MIRRTEXT
 70
     1
  9
$DRAGMODE
 70
     2
  9
$LTSCALE
 40
10.0
  9
$OSMODE
 70
   639
  9
$ATTMODE
 70
     1
  9
$TEXTSIZE
 40
3.0
  9
$TRACEWID
 40
1.0
  9
$TEXTSTYLE
  7
YOKO
  9
$CLAYER
  8
240
  9
$CELTYPE
  6
BYLAYER
  9
$CECOLOR
 62
   256
  9
$DIMSCALE
 40
1.0
  9
$DIMASZ
 40
2.2299999999999991
  9
$DIMEXO
 40
0.5
  9
$DIMDLI
 40
2.5
  9
$DIMRND
 40
0.0
  9
$DIMDLE
 40
0.0
  9
$DIMEXE
 40
1.0
  9
$DIMTP
 40
0.0
  9
$DIMTM
 40
0.0
  9
$DIMTXT
 40
3.0
  9
$DIMCEN
 40
0.0
  9
$DIMTSZ
 40
0.0
  9
$DIMTOL
 70
     0
  9
$DIMLIM
 70
     0
  9
$DIMTIH
 70
     0
  9
$DIMTOH
 70
     0
  9
$DIMSE1
 70
     0
  9
$DIMSE2
 70
     0
  9
$DIMTAD
 70
     3
  9
$DIMZIN
 70
     8
  9
$DIMBLK
  1
OPEN
  9
$DIMASO
 70
     1
  9
$DIMSHO
 70
     1
  9
$DIMPOST
  1

  9
$DIMAPOST
  1

  9
$DIMALT
 70
     0
  9
$DIMALTD
 70
     2
  9
$DIMALTF
 40
25.399999999999999
  9
$DIMLFAC
 40
1.0
  9
$DIMTOFL
 70
     1
  9
$DIMTVP
 40
0.0
  9
$DIMTIX
 70
     0
  9
$DIMSOXD
 70
     0
  9
$DIMSAH
 70
     0
  9
$DIMBLK1
  1

  9
$DIMBLK2
  1

  9
$DIMSTYLE
  2
BIGT
  9
$DIMCLRD
 70
   256
  9
$DIMCLRE
 70
   256
  9
$DIMCLRT
 70
    40
  9
$DIMTFAC
 40
1.0
  9
$DIMGAP
 40
1.0
  9
$LUNITS
 70
     2
  9
$LUPREC
 70
     2
  9
$SKETCHINC
 40
1.0
  9
$FILLETRAD
 40
0.0
  9
$AUNITS
 70
     0
  9
$AUPREC
 70
     3
  9
$MENU
  1
.
  9
$ELEVATION
 40
0.0
  9
$PELEVATION
 40
0.0
  9
$THICKNESS
 40
0.0
  9
$LIMCHECK
 70
     0
  9
$BLIPMODE
 70
     0
  9
$CHAMFERA
 40
10.0
  9
$CHAMFERB
 40
10.0
  9
$SKPOLY
 70
     0
  9
$TDCREATE
 40
2452227.4576188079
  9
$TDUPDATE
 40
2453614.7262646412
  9
$TDINDWG
 40
0.114225081
  9
$TDUSRTIMER
 40
0.114225081
  9
$USRTIMER
 70
     1
  9
$ANGBASE
 50
0.0
  9
$ANGDIR
 70
     0
  9
$PDMODE
 70
    35
  9
$PDSIZE
 40
-5.0
  9
$PLINEWID
 40
0.0
  9
$COORDS
 70
     2
  9
$SPLFRAME
 70
     0
  9
$SPLINETYPE
 70
     6
  9
$SPLINESEGS
 70
     8
  9
$ATTDIA
 70
     1
  9
$ATTREQ
 70
     1
  9
$HANDLING
 70
     1
  9
$HANDSEED
  5
29D5
  9
$SURFTAB1
 70
     6
  9
$SURFTAB2
 70
     6
  9
$SURFTYPE
 70
     6
  9
$SURFU
 70
     6
  9
$SURFV
 70
     6
  9
$UCSNAME
  2

  9
$UCSORG
 10
0.0
 20
0.0
 30
0.0
  9
$UCSXDIR
 10
1.0
 20
0.0
 30
0.0
  9
$UCSYDIR
 10
0.0
 20
1.0
 30
0.0
  9
$PUCSNAME
  2

  9
$PUCSORG
 10
0.0
 20
0.0
 30
0.0
  9
$PUCSXDIR
 10
1.0
 20
0.0
 30
0.0
  9
$PUCSYDIR
 10
0.0
 20
1.0
 30
0.0
  9
$USERI1
 70
     1
  9
$USERI2
 70
     0
  9
$USERI3
 70
     0
  9
$USERI4
 70
     0
  9
$USERI5
 70
     0
  9
$USERR1
 40
0.0
  9
$USERR2
 40
0.0
  9
$USERR3
 40
0.0
  9
$USERR4
 40
0.0
  9
$USERR5
 40
0.0
  9
$WORLDVIEW
 70
     1
  9
$SHADEDGE
 70
     3
  9
$SHADEDIF
 70
    70
  9
$TILEMODE
 70
     1
  9
$MAXACTVP
 70
    16
  9
$PLIMCHECK
 70
     0
  9
$PEXTMIN
 10
1.0000000000000000E+020
 20
1.0000000000000000E+020
 30
1.0000000000000000E+020
  9
$PEXTMAX
 10
-1.0000000000000000E+020
 20
-1.0000000000000000E+020
 30
-1.0000000000000000E+020
  9
$PLIMMIN
 10
0.0
 20
0.0
  9
$PLIMMAX
 10
420.0
 20
297.0
  9
$UNITMODE
 70
     0
  9
$VISRETAIN
 70
     0
  9
$PLINEGEN
 70
     0
  9
$PSLTSCALE
 70
     1
  0
ENDSEC
  0
SECTION
  2
TABLES
  0
TABLE
  2
VPORT
 70
     7
  0
VPORT
  2
*ACTIVE
 70
     0
 10
0.0
 20
0.0
 11
1.0
 21
1.0
 12
25.002353538372461
 22
24.726734709666069
 13
0.0
 23
0.0
 14
7.0
 24
7.0
 15
7.0
 25
7.0
 16
0.0
 26
0.0
 36
1.0
 17
0.0
 27
0.0
 37
0.0
 40
115.26215142485761
 41
1.4779999999999991
 42
50.0
 43
0.0
 44
0.0
 50
0.0
 51
0.0
 71
     0
 72
  2000
 73
     1
 74
     0
 75
     0
 76
     0
 77
     0
 78
     0
  0
ENDTAB
  0
TABLE
  2
LTYPE
 70
    15
  0
LTYPE
  2
CONTINUOUS
 70
     0
  3
Solid line
 72
    65
 73
     0
 40
0.0
  0
LTYPE
  2
CENTER2
 70
     0
  3
___ _ ___ _ ___ _ ___ _ ___ _ ___ _ ___ _ ___ _
 72
    65
 73
     4
 40
1.125
 49
0.75
 49
-0.125
 49
0.125
 49
-0.125
  0
LTYPE
  2
PHANTOM2
 70
     0
  3
___ _ _ ___ _ _ ___ _ _ ___ _ _ ___ _ _ ___ _ _
 72
    65
 73
     6
 40
1.25
 49
0.625
 49
-0.125
 49
0.125
 49
-0.125
 49
0.125
 49
-0.125
  0
LTYPE
  2
HIDDEN
 70
     0
  3
Hidden __ __ __ __ __ __ __ __ __ __ __ __ __ _
 72
    65
 73
     2
 40
9.5249999999999986
 49
6.3499999999999988
 49
-3.1749999999999989
  0
LTYPE
  2
CENTER
 70
     0
  3
Center ____ _ ____ _ ____ _ ____ _ ____ _ ____
 72
    65
 73
     4
 40
50.799999999999997
 49
31.75
 49
-6.3499999999999988
 49
6.3499999999999988
 49
-6.3499999999999988
  0
LTYPE
  2
AM_ISO02W050
 70
     0
  3
__ __ __ __ __ __ __ __ __ __ __ __ __ __ __
 72
    65
 73
     2
 40
7.5
 49
6.0
 49
-1.5
  0
LTYPE
  2
AM_ISO08W050
 70
     0
  3
____ . ____ . ____ . ____ . ____ . ____ . ____
 72
    65
 73
     4
 40
18.0
 49
12.0
 49
-1.5
 49
3.0
 49
-1.5
  0
LTYPE
  2
AM_ISO09W050
 70
     0
  3
_____ . . _____ . . _____ . . ____ .. ____
 72
    65
 73
     6
 40
22.5
 49
12.0
 49
-1.5
 49
3.0
 49
-1.5
 49
3.0
 49
-1.5
  0
LTYPE
  2
AMCONSTR
 70
     0
  3
_______________________
 72
    65
 73
     2
 40
9999.0
 49
9999.0
 49
0.0
  0
LTYPE
  2
AM_ISO08W050X2
 70
     0
  3
__ . __ . __ . __ . __ . __
 72
    65
 73
     4
 40
9.0
 49
6.0
 49
-0.75
 49
1.5
 49
-0.75
  0
LTYPE
  2
AM_ISO02W050X2
 70
     0
  3
 _ _ _ _ _ _ _ _ _ _ _ _
 72
    65
 73
     2
 40
3.75
 49
3.0
 49
-0.75
  0
LTYPE
  2
AMZIGZAG
 70
     0
  3
/\/-/\/-/\/-/\/-/\/-/\/
 72
    65
 73
     2
 40
11.0001
 49
0.0001
 49
-11.0
  0
LTYPE
  2
ACISOWELD
 70
     0
  3
_ _ _ _ _
 72
    65
 73
     2
 40
2.0
 49
2.0
 49
-1.0
  0
LTYPE
  2
ACISOTGB
 70
     0
  3
__ . . __ . .
 72
    65
 73
     6
 40
9.0
 49
4.0
 49
-1.0
 49
1.0
 49
-1.0
 49
1.0
 49
-1.0
  0
LTYPE
  2
ACISOTGL
 70
     0
  3
_ _ _ _ _
 72
    65
 73
     2
 40
3.0
 49
2.0
 49
-1.0
  0
ENDTAB
  0
TABLE
  2
LAYER
 70
     9
  0
LAYER
  2
0
 70
     0
 62
     7
  6
CONTINUOUS
  0
LAYER
  2
240
 70
     0
 62
     4
  6
CONTINUOUS
  0
LAYER
  2
241
 70
     0
 62
   211
  6
CONTINUOUS
  0
LAYER
  2
242
 70
     0
 62
     3
  6
CONTINUOUS
  0
LAYER
  2
245
 70
     0
 62
     2
  6
CENTER2
  0
LAYER
  2
246
 70
     0
 62
     3
  6
PHANTOM2
  0
LAYER
  2
247
 70
     0
 62
    60
  6
CONTINUOUS
  0
LAYER
  2
250
 70
     0
 62
     3
  6
CONTINUOUS
  0
LAYER
  2
DEFPOINTS
 70
     0
 62
     7
  6
CONTINUOUS
  0
ENDTAB
  0
TABLE
  2
STYLE
 70
     5
  0
STYLE
  2
STANDARD
 70
     0
 40
0.0
 41
1.0
 50
0.0
 71
     0
 42
3.0
  3
romans.shx
  4
BIGFONT.SHX
  0
STYLE
  2
YOKO
 70
     0
 40
0.0
 41
1.0
 50
0.0
 71
     0
 42
3.0
  3
romans.shx
  4
extfont.shx
  0
STYLE
  2

 70
     1
 40
0.0
 41
1.0
 50
0.0
 71
     0
 42
3.0
  3
ltypeshp.shx
  4

  0
STYLE
  2
ACISOTS
 70
     0
 40
1.0
 41
1.0
 50
0.0
 71
     0
 42
3.0
  3
isocp.shx
  4
extfont.shx
  0
STYLE
  2
ACISOGDT
 70
     0
 40
0.0
 41
1.0
 50
0.0
 71
     0
 42
3.0
  3
amgdt.shx
  4

  0
ENDTAB
  0
TABLE
  2
VIEW
 70
     0
  0
ENDTAB
  0
TABLE
  2
UCS
 70
     0
  0
ENDTAB
  0
TABLE
  2
APPID
 70
    19
  0
APPID
  2
ACAD
 70
     0
  0
APPID
  2
GLOBAL
 70
     0
  0
APPID
  2
DETAIL
 70
     0
  0
APPID
  2
GRPNAME
 70
     0
  0
APPID
  2
GPARA
 70
     0
  0
APPID
  2
HATCH_TYPE
 70
     0
  0
APPID
  2
HATCH_DISPLAY
 70
     0
  0
APPID
  2
HATCH_DISTANCE
 70
     0
  0
APPID
  2
ITEMNAME
 70
     0
  0
APPID
  2
MCAD_NO_VIS
 70
     0
  0
APPID
  2
ACAD_TEMP_GRAPHIC
 70
     0
  0
APPID
  2
AD_DRAW
 70
     0
  0
APPID
  2
ACATTRIBSERVICES
 70
     0
  0
APPID
  2
DESIGNERASSEMBLIES
 70
     0
  0
APPID
  2
ACADM_DIM_EDIT
 70
     0
  0
APPID
  2
AMDT_DM_ADJ
 70
     0
  0
APPID
  2
GENIUS_GENSCREG_15
 70
     0
  0
APPID
  2
GENIUS_GENODEF_13
 70
     0
  0
APPID
  2
GENIUS_GENOBJ-N-SDF_13
 70
     0
  0
ENDTAB
  0
TABLE
  2
DIMSTYLE
 70
     9
  0
DIMSTYLE
  2
STANDARD
 70
     0
  3

  4

  5

  6

  7

 40
1.0
 41
2.0
 42
2.0
 43
3.75
 44
2.0
 45
0.0
 46
0.0
 47
0.0
 48
0.0
140
4.0
141
0.09
142
0.0
143
25.399999999999999
144
1.0
145
0.0
146
1.0
147
1.0
 71
     0
 72
     0
 73
     1
 74
     1
 75
     0
 76
     0
 77
     0
 78
     8
170
     0
171
     2
172
     0
173
     1
174
     0
175
     0
176
   256
177
   256
178
   256
  0
DIMSTYLE
  2
BIGT
 70
     0
  3

  4

  5
OPEN
  6

  7

 40
1.0
 41
2.2299999999999991
 42
0.5
 43
2.5
 44
1.0
 45
0.0
 46
0.0
 47
0.0
 48
0.0
140
3.5
141
0.0
142
0.0
143
25.399999999999999
144
1.0
145
0.0
146
1.0
147
1.0
 71
     0
 72
     0
 73
     0
 74
     0
 75
     0
 76
     0
 77
     3
 78
     9
170
     0
171
     2
172
     1
173
     0
174
     0
175
     0
176
   256
177
   256
178
    40
  0
DIMSTYLE
  2
AM_ISO
 70
     0
  3

  4
"
  5

  6

  7

 40
1.0
 41
2.5
 42
1.0
 43
10.0
 44
1.0
 45
0.0
 46
0.0
 47
0.1
 48
0.1
140
3.5
141
0.0
142
0.0
143
0.0393701
144
1.0
145
0.0
146
0.71
147
1.5
 71
     0
 72
     0
 73
     0
 74
     0
 75
     0
 76
     0
 77
     1
 78
     8
170
     0
171
     2
172
     1
173
     0
174
     0
175
     0
176
   256
177
   256
178
     2
  0
DIMSTYLE
  2
AM_ISO$3
 70
     0
  3

  4
"
  5

  6

  7

 40
1.0
 41
2.5
 42
1.0
 43
10.0
 44
1.0
 45
0.0
 46
0.0
 47
0.1
 48
0.1
140
3.5
141
0.0
142
0.0
143
0.0393701
144
1.0
145
0.0
146
0.71
147
1.5
 71
     0
 72
     0
 73
     0
 74
     1
 75
     0
 76
     0
 77
     1
 78
     8
170
     0
171
     2
172
     0
173
     0
174
     0
175
     0
176
   256
177
   256
178
     2
  0
DIMSTYLE
  2
AM_ISO$4
 70
     0
  3

  4
"
  5

  6

  7

 40
1.0
 41
2.5
 42
1.0
 43
10.0
 44
1.0
 45
0.0
 46
0.0
 47
0.1
 48
0.1
140
3.5
141
0.0
142
0.0
143
0.0393701
144
1.0
145
0.0
146
0.71
147
1.5
 71
     0
 72
     0
 73
     0
 74
     1
 75
     0
 76
     0
 77
     1
 78
     8
170
     0
171
     2
172
     0
173
     0
174
     0
175
     0
176
   256
177
   256
178
     2
  0
DIMSTYLE
  2
AM_ISO$6
 70
     0
  3

  4
"
  5

  6

  7

 40
1.0
 41
2.5
 42
1.0
 43
10.0
 44
1.0
 45
0.0
 46
0.0
 47
0.1
 48
0.1
140
3.5
141
0.0
142
0.0
143
0.0393701
144
1.0
145
0.0
146
0.71
147
1.5
 71
     0
 72
     0
 73
     0
 74
     0
 75
     0
 76
     0
 77
     0
 78
     8
170
     0
171
     2
172
     1
173
     0
174
     0
175
     0
176
   256
177
   256
178
     2
  0
DIMSTYLE
  2
AM_ISO$7
 70
     0
  3

  4
"
  5

  6

  7

 40
1.0
 41
2.5
 42
1.0
 43
10.0
 44
1.0
 45
0.0
 46
0.0
 47
0.1
 48
0.1
140
5.0
141
0.0
142
0.0
143
0.0393701
144
1.0
145
0.0
146
0.71
147
1.5
 71
     0
 72
     0
 73
     0
 74
     0
 75
     0
 76
     0
 77
     1
 78
     8
170
     0
171
     2
172
     1
173
     0
174
     0
175
     0
176
   256
177
   256
178
     2
  0
DIMSTYLE
  2
AM_ISO$SF
 70
     0
  3

  4
"
  5

  6

  7

 40
1.0
 41
2.5
 42
1.0
 43
10.0
 44
1.0
 45
0.0
 46
0.0
 47
0.1
 48
0.1
140
3.5
141
0.0
142
0.0
143
0.0393701
144
1.0
145
0.0
146
0.71
147
1.5
 71
     0
 72
     0
 73
     0
 74
     0
 75
     1
 76
     1
 77
     1
 78
     8
170
     0
171
     2
172
     1
173
     0
174
     0
175
     0
176
   256
177
   256
178
     2
  0
DIMSTYLE
  2
AM_ISO$SH
 70
     0
  3

  4
"
  5

  6
GENAXEH
  7

 40
1.0
 41
2.5
 42
1.0
 43
10.0
 44
1.0
 45
0.0
 46
0.0
 47
0.1
 48
0.1
140
3.5
141
0.0
142
0.0
143
0.0393701
144
2.0
145
0.0
146
0.71
147
1.5
 71
     0
 72
     0
 73
     0
 74
     0
 75
     1
 76
     1
 77
     1
 78
     8
170
     0
171
     2
172
     1
173
     1
174
     0
175
     0
176
   256
177
   256
178
     2
  0
ENDTAB
  0
ENDSEC
  0
SECTION
  2
BLOCKS
  0
BLOCK
  8
0
  2
$MODEL_SPACE
 70
     0
 10
0.0
 20
0.0
 30
0.0
  3
$MODEL_SPACE
  1

  0
ENDBLK
  5
1C
  8
0
  0
BLOCK
 67
     1
  8
0
  2
$PAPER_SPACE
 70
     0
 10
0.0
 20
0.0
 30
0.0
  3
$PAPER_SPACE
  1

  0
ENDBLK
  5
19
 67
     1
  8
0
  0
BLOCK
  8
0
  2
_OPEN
 70
     0
 10
0.0
 20
0.0
 30
0.0
  3
_OPEN
  1

  0
LINE
  5
595
  8
0
  6
BYBLOCK
 62
     0
 10
-1.0
 20
0.1666666666666666
 30
0.0
 11
0.0
 21
0.0
 31
0.0
  0
LINE
  5
596
  8
0
  6
BYBLOCK
 62
     0
 10
-1.0
 20
-0.1666666666666666
 30
0.0
 11
0.0
 21
0.0
 31
0.0
  0
LINE
  5
597
  8
0
  6
BYBLOCK
 62
     0
 10
0.0
 20
0.0
 30
0.0
 11
-1.0
 21
0.0
 31
0.0
  0
ENDBLK
  5
599
  8
0
  0
BLOCK
  8
0
  2
A$C09A460DC
 70
     0
 10
0.0
 20
0.0
 30
0.0
  3
A$C09A460DC
  1

  0
LINE
  5
2798
  8
240
 10
-37.177189595773847
 20
17.694015956904529
 30
0.0
 11
-35.000000000000007
 21
18.0
 31
0.0
1001
GRPNAME
1000
PASTMD13
  0
LINE
  5
2799
  8
240
 10
-37.177189595773847
 20
-17.694015956904529
 30
0.0
 11
-35.000000000000007
 21
-18.0
 31
0.0
1001
GRPNAME
1000
PASTMD13
  0
LINE
  5
279A
  8
245
 10
-42.000015259999948
 20
0.0
 30
0.0
 11
69.199966430000075
 21
0.0
 31
0.0
1001
GRPNAME
1000
PASTMD13
  0
LINE
  5
279B
  8
240
 10
-40.0
 20
-17.26794919243104
 30
0.0
 11
-40.0
 21
17.26794919243104
 31
0.0
1001
GRPNAME
1000
PASTMD13
  0
LINE
  5
279C
  8
241
 10
-37.177189595773847
 20
-17.694015956904529
 30
0.0
 11
-37.177189595773847
 21
17.694015956904529
 31
0.0
1001
GRPNAME
1000
PASTMD14
  0
ARC
  5
279D
  8
240
 10
-39.000000000000007
 20
-17.0
 30
0.0
 40
1.0000000000000391
 50
209.99999963233211
 51
279.99999963233319
1001
GRPNAME
1000
PASTMD13
  0
LINE
  5
279E
  8
240
 10
-40.0
 20
-17.26794919243104
 30
0.0
 11
-39.866025403784427
 21
-17.5
 31
0.0
1001
GRPNAME
1000
PASTMD13
  0
LINE
  5
279F
  8
240
 10
-37.177189595773847
 20
-17.694015956904529
 30
0.0
 11
-38.826351822333109
 21
-17.984807753012198
 31
0.0
1001
GRPNAME
1000
PASTMD13
  0
LINE
  5
27A0
  8
240
 10
-40.0
 20
17.26794919243104
 30
0.0
 11
-39.866025403784427
 21
17.5
 31
0.0
1001
GRPNAME
1000
PASTMD13
  0
ARC
  5
27A1
  8
240
 10
-39.000000000000007
 20
17.0
 30
0.0
 40
1.0000000000000051
 50
80.000000004274327
 51
150.0000000042763
1001
GRPNAME
1000
PASTMD13
  0
LINE
  5
27A2
  8
240
 10
-37.177189595773847
 20
17.694015956904529
 30
0.0
 11
-38.826351822333109
 21
17.984807753012198
 31
0.0
1001
GRPNAME
1000
PASTMD13
  0
LINE
  5
27A3
  8
240
 10
67.199999999999974
 20
-24.99994185666327
 30
0.0
 11
66.016365630358166
 21
-27.050000000000011
 31
0.0
1001
GRPNAME
1000
PASTMD13
  0
LINE
  5
27A4
  8
247
 10
8.926483704717695
 20
-27.63460676757159
 30
0.0
 11
8.926483704717695
 21
-25.95736067382165
 31
0.0
  0
LINE
  5
27A5
  8
247
 10
9.5327459013470541
 20
-27.846688676751281
 30
0.0
 11
9.5327459013470541
 21
-19.6419920214779
 31
0.0
1001
ACAD
1000
ASC_BOUNDS
1002
{
1070
    19
1005
27B5
1002
}
  0
LINE
  5
27A6
  8
247
 10
9.128571107061445
 20
-27.846688676751281
 30
0.0
 11
9.128571107061445
 21
-19.6419920214779
 31
0.0
1001
ACAD
1000
ASC_BOUNDS
1002
{
1070
    19
1005
27B5
1002
}
  0
TEXT
  5
27A7
  8
247
 10
15.02369035502047
 20
-30.754205667976411
 30
0.0
 40
3.0
  1
EWB85-105CK6
 50
90.0
 41
0.85
  7
YOKO
 11
15.02369035502047
 21
-30.754205667976411
 31
0.0
 73
     1
  0
LINE
  5
27A8
  8
241
 10
29.0
 20
-30.5
 30
0.0
 11
29.0
 21
-4.3084219849035312
 31
0.0
1001
GRPNAME
1000
PASTMD14
  0
LINE
  5
27A9
  8
245
 10
48.0
 20
-32.541404028608319
 30
0.0
 11
48.0
 21
50.641352005649587
 31
0.0
1001
GRPNAME
1000
PASTMD13
  0
LINE
  5
27AA
  8
247
 10
7.9328377764240647
 20
-27.34968305287742
 30
0.0
 11
6.5180521707441974
 21
-25.93489744719767
 31
0.0
  0
LINE
  5
27AB
  8
247
 10
7.3203465521929418
 20
-26.164957491416541
 30
0.0
 11
8.4754966061152288
 21
-26.496179649036659
 31
0.0
  0
LINE
  5
27AC
  8
247
 10
7.303310808134567
 20
-27.169168890641512
 30
0.0
 11
5.888531160730933
 21
-25.754389243237821
 31
0.0
  0
LINE
  5
27AD
  8
247
 10
5.2889405032711618
 20
-26.801797319329189
 30
0.0
 11
5.2889405032712773
 21
-25.497948149749782
 31
0.0
  0
LINE
  5
27AE
  8
247
 10
6.044256871555687
 20
-26.80814056616958
 30
0.0
 11
5.2889405032712773
 21
-26.052824197885109
 31
0.0
  0
LINE
  5
27AF
  8
247
 10
6.673783839845183
 20
-26.988654728405489
 30
0.0
 11
5.2889405032712773
 21
-25.603811391831691
 31
0.0
  0
LINE
  5
27B0
  8
240
 10
0.0
 20
-18.0
 30
0.0
 11
0.0
 21
-29.0
 31
0.0
1001
GRPNAME
1000
PASTMD13
  0
LINE
  5
27B1
  8
241
 10
0.5
 20
29.5
 30
0.0
 11
0.5
 21
-29.5
 31
0.0
  0
ARC
  5
27B2
  8
247
 10
7.8756409427242868
 20
-26.408273149407592
 30
0.0
 40
0.6062626242637637
 50
351.66285421114878
 51
156.3381921591137
  0
LINE
  5
27B3
  8
247
 10
8.5623647447134452
 20
-27.530197215113439
 30
0.0
 11
6.8522587828168451
 21
-25.820091253216841
 31
0.0
  0
LINE
  5
27B4
  8
247
 10
8.926483704717695
 20
-26.547277756957381
 30
0.0
 11
7.443474451574132
 21
-25.064268503813771
 31
0.0
  0
INSERT
  5
27B5
  8
247
  6
CONTINUOUS
  2
*X8
 10
0.0
 20
0.0
 30
0.0
1001
ACAD
1000
HATCH
1002
{
1070
    19
1000
ANSI31
1040
0.1
1040
1.5707963267948959
1000
ASC_BOUNDS
1070
     1
1070
     2
1070
    10
1005
2808
1005
27E0
1005
27D7
1005
27A6
1005
27A5
1005
27B8
1005
27BD
1005
27BF
1005
27C1
1005
27C3
1000
ASC_SEEDPOINT
1011
25.282735898168621
1021
0.0
1031
0.0
1021
-149.76857779113109
1031
0.0
1000
R14_HATCH_DATA
1000
27B5
1011
1.0
1021
0.0
1031
0.0
1021
0.0
1031
0.0
1011
0.0
1021
0.0
1031
0.0
1021
1.0
1031
0.0
1011
0.0
1021
0.0
1031
0.0
1021
0.0
1031
1.0
1040
0.0
1010
0.0
1020
0.0
1030
1.0
1000
ANSI31
1070
     0
1070
     1
1071
        1
1071
       33
1071
       10
1070
     1
1040
5.2889405032711618
1040
-27.012017656243469
1040
5.6931153079586618
1040
-27.127908159173149
1070
     1
1040
5.2889405032711618
1040
-27.846688676751281
1040
5.2889405032711618
1040
-27.012017656243469
1070
     1
1040
5.6931153079586618
1040
-27.846688676751281
1040
5.6931153079586618
1040
-27.127908159173149
1070
     2
1040
7.4108429690914761
1040
-27.846688676751281
1040
1.7177276611328109
1040
3.1415926535897931
1040
6.2831853071795862
1070
     1
1070
     2
1040
7.4108429690914761
1040
-27.846688676751281
1040
2.1219024658203121
1040
3.1415926535897931
1040
6.2831853071795862
1070
     1
1070
     1
1040
9.5327459013470541
1040
-27.846688676751281
1040
9.5327459013470541
1040
-19.6419920214779
1070
     1
1040
9.128571107061445
1040
-27.846688676751281
1040
9.128571107061445
1040
-19.6419920214779
1070
     2
1040
7.4108429690914761
1040
-19.6419920214779
1040
2.1219024658203121
1040
0.0
1040
3.3993916414318428
1070
     1
1070
     2
1040
7.4108429690914761
1040
-19.6419920214779
1040
1.7177276611328109
1040
0.0
1040
3.3881629353185918
1070
     1
1070
     1
1040
5.7450562259274118
1040
-20.061257768548209
1040
5.3590546390133511
1040
-20.182977128899779
1071
       10
1005
27C3
1005
27C1
1005
27BF
1005
27BD
1005
27B8
1005
27A5
1005
27A6
1005
27D7
1005
27E0
1005
2808
1070
     0
1070
     1
1040
1.5707963267948959
1040
0.1
1070
     0
1070
     1
1040
2.3561944901923439
1040
25.282735898168621
1040
-149.76857779113109
1040
-0.2245064030267288
1040
-0.2245064030267288
1070
     0
1071
        1
1040
25.282735898168621
1040
-149.76857779113109
1040
0.0
1002
}
  0
LINE
  5
27B6
  8
240
 10
63.950000000000102
 20
-27.050000000000011
 30
0.0
 11
52.753847577293413
 21
-30.050000000000011
 31
0.0
1001
GRPNAME
1000
PASTMD15
  0
LINE
  5
27B7
  8
241
 10
32.050000000000239
 20
-27.050000000000011
 30
0.0
 11
63.949999999999989
 21
-27.050000000000011
 31
0.0
1001
GRPNAME
1000
PASTMD13
  0
ARC
  5
27B8
  8
247
 10
7.4108429690914761
 20
-27.846688676751281
 30
0.0
 40
2.1219024658203121
 50
180.0
 51
0.0
1001
ACAD
1000
ASC_BOUNDS
1002
{
1070
    19
1005
27B5
1002
}
  0
LINE
  5
27B9
  8
240
 10
1.0
 20
-31.5
 30
0.0
 11
29.0
 21
-31.5
 31
0.0
1001
GRPNAME
1000
PASTMD14
  0
LINE
  5
27BA
  8
240
 10
0.5
 20
-31.0
 30
0.0
 11
0.5
 21
-29.5
 31
0.0
1001
GRPNAME
1000
PASTMD14
  0
LINE
  5
27BB
  8
240
 10
0.5
 20
-31.0
 30
0.0
 11
1.0
 21
-31.5
 31
0.0
1001
GRPNAME
1000
PASTMD14
  0
LINE
  5
27BC
  8
240
 10
0.5
 20
-29.5
 30
0.0
 11
0.0
 21
-29.0
 31
0.0
1001
GRPNAME
1000
PASTMD13
  0
ARC
  5
27BD
  8
247
 10
7.4108429690914761
 20
-27.846688676751281
 30
0.0
 40
1.7177276611328109
 50
180.0
 51
0.0
1001
ACAD
1000
ASC_BOUNDS
1002
{
1070
    19
1005
27B5
1002
}
  0
LINE
  5
27BE
  8
247
 10
8.926483704717695
 20
-27.63460676757159
 30
0.0
 11
5.6931153079599142
 21
-26.70745222655642
 31
0.0
  0
LINE
  5
27BF
  8
247
 10
5.6931153079586618
 20
-27.846688676751281
 30
0.0
 11
5.6931153079586618
 21
-27.127908159173149
 31
0.0
1001
ACAD
1000
ASC_BOUNDS
1002
{
1070
    19
1005
27B5
1002
}
  0
LINE
  5
27C0
  8
247
 10
5.6931153079586618
 20
-26.917687822259548
 30
0.0
 11
5.6931153079599142
 21
-26.70745222655642
 31
0.0
  0
LINE
  5
27C1
  8
247
 10
5.2889405032711618
 20
-27.846688676751281
 30
0.0
 11
5.2889405032711618
 21
-27.012017656243469
 31
0.0
1001
ACAD
1000
ASC_BOUNDS
1002
{
1070
    19
1005
27B5
1002
}
  0
LINE
  5
27C2
  8
247
 10
5.6931153079587773
 20
-26.90601180862604
 30
0.0
 11
5.2889405032711618
 21
-26.50183700393853
 31
0.0
  0
LINE
  5
27C3
  8
247
 10
5.2889405032711618
 20
-27.012017656243469
 30
0.0
 11
5.6931153079586618
 21
-27.127908159173149
 31
0.0
1001
ACAD
1000
ASC_BOUNDS
1002
{
1070
    19
1005
27B5
1002
}
  0
LINE
  5
27C4
  8
247
 10
5.2889405032711618
 20
-26.801797319329189
 30
0.0
 11
5.6931153079586618
 21
-26.917687822259548
 31
0.0
  0
LINE
  5
27C5
  8
247
 10
8.926483704717695
 20
-26.996290563010859
 30
0.0
 11
8.4066248295555113
 21
-26.476431687848621
 31
0.0
  0
LINE
  5
27C6
  8
247
 10
8.926483704717695
 20
-27.44530336906422
 30
0.0
 11
7.7771071624729
 21
-26.295926826819422
 31
0.0
  0
LINE
  5
27C7
  8
240
 10
43.246152422706693
 20
-30.050000000000011
 30
0.0
 11
32.049999999999947
 21
-27.049999999999891
 31
0.0
1001
GRPNAME
1000
PASTMD15
  0
LINE
  5
27C8
  8
240
 10
29.0
 20
-29.800000000000011
 30
0.0
 11
29.0
 21
-30.5
 31
0.0
1001
GRPNAME
1000
PASTMD13
  0
LINE
  5
27C9
  8
240
 10
31.49999999999995
 20
-27.050000000000011
 30
0.0
 11
29.508141571295589
 21
-30.5
 31
0.0
1001
GRPNAME
1000
PASTMD13
  0
LINE
  5
27CA
  8
240
 10
29.0
 20
-31.5
 30
0.0
 11
29.0
 21
-30.5
 31
0.0
1001
GRPNAME
1000
PASTMD14
  0
LINE
  5
27CB
  8
240
 10
29.0
 20
-30.5
 30
0.0
 11
29.508141571295589
 21
-30.5
 31
0.0
1001
GRPNAME
1000
PASTMD13
  0
LINE
  5
27CC
  8
240
 10
31.49999999999995
 20
-27.050000000000011
 30
0.0
 11
32.050000000000239
 21
-27.050000000000011
 31
0.0
1001
GRPNAME
1000
PASTMD13
  0
LINE
  5
27CD
  8
240
 10
52.753847577293413
 20
-30.050000000000011
 30
0.0
 11
43.246152422706693
 21
-30.050000000000011
 31
0.0
1001
GRPNAME
1000
PASTMD15
  0
LINE
  5
27CE
  8
240
 10
63.949999999999989
 20
-27.050000000000011
 30
0.0
 11
66.016365630358166
 21
-27.050000000000011
 31
0.0
1001
GRPNAME
1000
PASTMD13
  0
LINE
  5
27CF
  8
240
 10
39.0
 20
48.652531187263151
 30
0.0
 11
59.099999999999902
 21
48.652531187263151
 31
0.0
1001
GRPNAME
1000
PASTMD17
  0
LINE
  5
27D0
  8
241
 10
35.950000000000038
 20
28.873651497465911
 30
0.0
 11
60.5
 21
22.295498823281889
 31
0.0
1001
GRPNAME
1000
PASTMD13
  0
LINE
  5
27D1
  8
241
 10
60.500000000000057
 20
24.702531187263101
 30
0.0
 11
51.516832922159431
 21
24.702531187263101
 31
0.0
1001
GRPNAME
1000
PASTMD16
  0
LINE
  5
27D2
  8
241
 10
60.050000000000011
 20
25.152531187263151
 30
0.0
 11
49.837410058753107
 21
25.152531187263151
 31
0.0
1001
GRPNAME
1000
PASTMD16
  0
LINE
  5
27D3
  8
241
 10
59.850000000000023
 20
40.152531187263151
 30
0.0
 11
36.150000000000098
 21
40.152531187263151
 31
0.0
1001
GRPNAME
1000
PASTMD16
  0
LINE
  5
27D4
  8
240
 10
35.950000000000038
 20
28.873651497465911
 30
0.0
 11
35.950000000000102
 21
39.952531187263098
 31
0.0
1001
GRPNAME
1000
PASTMD16
  0
LINE
  5
27D5
  8
240
 10
1.0
 20
31.5
 30
0.0
 11
29.0
 21
31.5
 31
0.0
1001
GRPNAME
1000
PASTMD14
  0
ARC
  5
27D6
  8
247
 10
7.6129303714352261
 20
-21.7289060839779
 30
0.0
 40
1.313568115234375
 50
253.99975070172931
 51
34.963873291630819
1001
ACAD
1000
ASC_BOUNDS
1002
{
1070
    19
1005
27E4
1002
}
  0
ARC
  5
27D7
  8
247
 10
7.4108429690914761
 20
-19.6419920214779
 30
0.0
 40
2.1219024658203121
 50
0.0
 51
194.77079396609389
1001
ACAD
1000
ASC_BOUNDS
1002
{
1070
    19
1005
27B5
1002
}
  0
LINE
  5
27D8
  8
245
 10
-16.000000000000082
 20
9.4657437363994141
 30
0.0
 11
-16.000000000000082
 21
-9.8178655354471953
 31
0.0
1001
GRPNAME
1000
PASTMD14
  0
LINE
  5
27D9
  8
241
 10
0.0
 20
18.00000000000011
 30
0.0
 11
0.0
 21
0.0
 31
0.0
1001
GRPNAME
1000
PASTMD13
  0
LINE
  5
27DA
  8
241
 10
-35.000000000000007
 20
18.0
 30
0.0
 11
-35.000000000000007
 21
0.0
 31
0.0
1001
GRPNAME
1000
PASTMD13
  0
LINE
  5
27DB
  8
240
 10
-35.000000000000007
 20
-18.0
 30
0.0
 11
0.0
 21
-18.0
 31
0.0
1001
GRPNAME
1000
PASTMD13
  0
CIRCLE
  5
27DC
  8
241
 10
-16.000000000000082
 20
0.0
 30
0.0
 40
5.983500000000018
1001
GRPNAME
1000
PASTMD14
  0
CIRCLE
  5
27DD
  8
241
 10
-16.000000000000082
 20
0.0
 30
0.0
 40
4.5
1001
GRPNAME
1000
PASTMD14
  0
LINE
  5
27DE
  8
241
 10
-35.000000000000007
 20
-18.0
 30
0.0
 11
-35.000000000000007
 21
0.0
 31
0.0
1001
GRPNAME
1000
PASTMD13
  0
LINE
  5
27DF
  8
241
 10
0.0
 20
0.0
 30
0.0
 11
0.0
 21
-18.0
 31
0.0
1001
GRPNAME
1000
PASTMD13
  0
ARC
  5
27E0
  8
247
 10
7.4108429690914761
 20
-19.6419920214779
 30
0.0
 40
1.7177276611328109
 50
0.0
 51
194.12743649641189
1001
ACAD
1000
ASC_BOUNDS
1002
{
1070
    19
1005
27B5
1002
}
  0
LINE
  5
27E1
  8
247
 10
7.9405365726071011
 20
-22.180245805657592
 30
0.0
 11
6.0409241458492868
 21
-21.635537553704459
 31
0.0
1001
ACAD
1000
ASC_BOUNDS
1002
{
1070
    19
1005
27E4
1002
}
  0
ARC
  5
27E2
  8
247
 10
6.6024933597164761
 20
-21.43917219725915
 30
0.0
 40
1.3135547637939451
 50
143.44401219705779
 51
254.00018438768541
1001
ACAD
1000
ASC_BOUNDS
1002
{
1070
    19
1005
27E4
1002
}
  0
ARC
  5
27E3
  8
247
 10
8.0575104495602261
 20
-21.77230208007165
 30
0.0
 40
0.4243830442428589
 50
254.00027305718399
 51
74.00027305718406
1001
ACAD
1000
ASC_BOUNDS
1002
{
1070
    19
1005
27E4
1002
}
  0
INSERT
  5
27E4
  8
247
  6
CONTINUOUS
  2
*X9
 10
0.0
 20
0.0
 30
0.0
1001
ACAD
1000
HATCH
1002
{
1070
    19
1000
ANSI31
1040
0.1
1040
1.5707963267948959
1000
ASC_BOUNDS
1070
     1
1070
     2
1070
    15
1005
2823
1005
27E2
1005
27E5
1005
27D6
1005
2825
1005
282A
1005
2829
1005
2827
1005
2828
1005
2826
1005
27E3
1005
27E1
1005
2822
1005
2824
1005
2821
1000
ASC_SEEDPOINT
1011
25.282735898168621
1021
0.0
1031
0.0
1021
-149.76857779113109
1031
0.0
1000
R14_HATCH_DATA
1000
27E4
1011
1.0
1021
0.0
1031
0.0
1021
0.0
1031
0.0
1011
0.0
1021
0.0
1031
0.0
1021
1.0
1031
0.0
1011
0.0
1021
0.0
1031
0.0
1021
0.0
1031
1.0
1040
0.0
1010
0.0
1020
0.0
1030
1.0
1000
ANSI31
1070
     0
1070
     1
1071
        1
1071
       33
1071
       15
1070
     1
1040
5.8058319827633511
1040
-20.25399153319665
1040
5.4198303958492868
1040
-20.37571089354822
1070
     2
1040
7.4108429690914761
1040
-19.6419920214779
1040
1.717732429504393
1040
3.5058809760360892
1040
3.8840897327625181
1070
     1
1070
     2
1040
6.1579132815914761
1040
-21.227593828118529
1040
0.4243833422660829
1040
1.600643575520647
1040
4.4331083460772751
1070
     1
1070
     1
1040
7.9405365726071011
1040
-22.180245805657592
1040
6.0409241458492868
1040
-21.635537553704459
1070
     2
1040
8.0575104495602261
1040
-21.77230208007165
1040
0.4243830442428589
1040
4.433141065812503
1040
7.574733719402297
1070
     1
1070
     1
1040
8.1744843265133511
1040
-21.364358354485709
1040
7.2693787356930368
1040
-21.10482161132165
1070
     1
1040
7.2693787356930368
1040
-21.4411863574154
1040
7.2693787356930368
1040
-21.10482161132165
1070
     1
1040
7.2693787356930368
1040
-21.4411863574154
1040
6.8652039310055368
1040
-21.325295854485709
1070
     1
1040
6.8652039310055368
1040
-21.325295854485709
1040
6.8652039310055368
1040
-20.148003984368518
1070
     1
1040
8.926483704717695
1040
-20.739068437493529
1040
6.8652039310055368
1040
-20.148003984368518
1070
     1
1040
8.6894078990536325
1040
-20.97615950194665
1040
8.926483704717695
1040
-20.739068437493529
1070
     2
1040
7.6129303714352261
1040
-21.7289060839779
1040
1.313568115234375
1040
4.4331319489899528
1040
6.8934200153686511
1070
     1
1070
     2
1040
7.6819916507321011
1040
-19.581292558587268
1040
3.43743896484375
1040
4.2796376880404088
1040
4.5866349702432849
1070
     1
1070
     2
1040
6.6024933597164761
1040
-21.43917219725915
1040
1.3135547637939451
1040
2.5035703051095641
1040
4.4331395182378071
1070
     1
1070
     2
1040
7.4108429690914761
1040
-19.6419920214779
1040
2.121903419494628
1040
3.4946665664545451
1040
3.6402626981642419
1070
     1
1071
       15
1005
2821
1005
2824
1005
2822
1005
27E1
1005
27E3
1005
2826
1005
2828
1005
2827
1005
2829
1005
282A
1005
2825
1005
27D6
1005
27E5
1005
27E2
1005
2823
1070
     0
1070
     1
1040
1.5707963267948959
1040
0.1
1070
     0
1070
     1
1040
2.3561944901923439
1040
25.282735898168621
1040
-149.76857779113109
1040
-0.2245064030267288
1040
-0.2245064030267288
1070
     0
1071
        1
1040
25.282735898168621
1040
-149.76857779113109
1040
0.0
1002
}
  0
ARC
  5
27E5
  8
247
 10
7.6819916507321011
 20
-19.581292558587268
 30
0.0
 40
3.43743896484375
 50
245.2051773698407
 51
262.79482596205219
1001
ACAD
1000
ASC_BOUNDS
1002
{
1070
    19
1005
27E4
1002
}
  0
LINE
  5
27E6
  8
247
 10
5.703679415503272
 20
-25.701385044809001
 30
0.0
 11
6.8587952075372121
 21
-26.032601753495609
 31
0.0
  0
LINE
  5
27E7
  8
247
 10
6.3835616084463433
 20
-25.35139407884634
 30
0.0
 11
5.7072140916916112
 21
-24.675046562091659
 31
0.0
  0
ARC
  5
27E8
  8
247
 10
6.2589569827633511
 20
-25.944695878899779
 30
0.0
 40
0.6062452793121338
 50
351.66260168792928
 51
156.3381550951899
  0
ARC
  5
27E9
  8
247
 10
6.2993622562008511
 20
-25.493783403313842
 30
0.0
 40
1.010430335998534
 50
17.669577547398159
 51
180.2361598426715
  0
LINE
  5
27EA
  8
247
 10
7.4539104350132837
 20
-25.972730099359751
 30
0.0
 11
6.0075794915469194
 21
-24.526399155893511
 31
0.0
  0
LINE
  5
27EB
  8
247
 10
8.926483704717695
 20
-24.733437944329459
 30
0.0
 11
5.7335205813961618
 21
-23.817864824212268
 31
0.0
  0
INSERT
  5
27EC
  8
247
  6
CONTINUOUS
  2
*X10
 10
0.0
 20
0.0
 30
0.0
1001
ACAD
1000
HATCH
1002
{
1070
    19
1000
ANSI31
1040
0.1
1040
1.5707963267948959
1000
ASC_BOUNDS
1070
     1
1070
     1
1070
     1
1005
27F5
1000
ASC_SEEDPOINT
1011
7.0124648899361262
1021
0.0
1031
0.0
1021
-23.731383466104202
1031
0.0
1000
R14_HATCH_DATA
1000
27EC
1011
1.0
1021
0.0
1031
0.0
1021
0.0
1031
0.0
1011
0.0
1021
0.0
1031
0.0
1021
1.0
1031
0.0
1011
0.0
1021
0.0
1031
0.0
1021
0.0
1031
1.0
1040
0.0
1010
0.0
1020
0.0
1030
1.0
1000
ANSI31
1070
     0
1070
     1
1071
        1
1071
        7
1070
     0
1070
     1
1071
        6
1040
5.2889405032711636
1040
-22.7864012011654
1040
5.2889405032711636
1040
-23.8375486621029
1040
5.7335205813961618
1040
-23.965035844720092
1040
5.7335205813961618
1040
-23.817864824212268
1040
8.926483704717695
1040
-24.733437944329459
1040
8.926483704717695
1040
-23.829446245110709
1071
        1
1005
27F5
1070
     0
1070
     1
1040
1.5707963267948959
1040
0.1
1070
     0
1070
     1
1040
2.3561944901923439
1040
25.282735898168621
1040
-149.76857779113109
1040
-0.2245064030267288
1040
-0.2245064030267288
1070
     0
1040
0.0134348504236232
1071
        1
1040
7.0124648899361262
1040
-23.731383466104202
1040
0.0
1002
}
  0
POLYLINE
  5
27ED
  8
247
 66
     1
 10
0.0
 20
0.0
 30
0.0
 70
     1
1001
HATCH_DISTANCE
1040
1.0
1001
HATCH_DISPLAY
1070
     0
1001
HATCH_TYPE
1070
     7
  0
VERTEX
  5
27EE
  8
247
 10
5.2889405032711618
 20
-23.8375486621029
 30
0.0
  0
VERTEX
  5
27EF
  8
247
 10
5.7335205813961618
 20
-23.965035844720092
 30
0.0
  0
VERTEX
  5
27F0
  8
247
 10
5.7335205813961618
 20
-23.817864824212268
 30
0.0
  0
VERTEX
  5
27F1
  8
247
 10
8.926483704717695
 20
-24.733437944329459
 30
0.0
  0
VERTEX
  5
27F2
  8
247
 10
8.926483704717695
 20
-23.829446245110709
 30
0.0
  0
VERTEX
  5
27F3
  8
247
 10
5.2889405032711618
 20
-22.7864012011654
 30
0.0
  0
SEQEND
  5
27F4
  8
247
  0
POLYLINE
  5
27F5
  8
247
 66
     1
 10
0.0
 20
0.0
 30
0.0
 70
     1
1001
ACAD
1000
ASC_BOUNDS
1002
{
1070
    19
1005
27EC
1002
}
  0
VERTEX
  5
27F6
  8
247
 10
5.2889405032711618
 20
-23.8375486621029
 30
0.0
  0
VERTEX
  5
27F7
  8
247
 10
5.7335205813961618
 20
-23.965035844720092
 30
0.0
  0
VERTEX
  5
27F8
  8
247
 10
5.7335205813961618
 20
-23.817864824212268
 30
0.0
  0
VERTEX
  5
27F9
  8
247
 10
8.926483704717695
 20
-24.733437944329459
 30
0.0
  0
VERTEX
  5
27FA
  8
247
 10
8.926483704717695
 20
-23.829446245110709
 30
0.0
  0
VERTEX
  5
27FB
  8
247
 10
5.2889405032711618
 20
-22.7864012011654
 30
0.0
  0
SEQEND
  5
27FC
  8
247
  0
LINE
  5
27FD
  8
247
 10
8.926483704717695
 20
-23.829446245110709
 30
0.0
 11
5.2889405032711618
 21
-22.7864012011654
 31
0.0
  0
LINE
  5
27FE
  8
247
 10
5.7335205813961618
 20
-23.965035844720092
 30
0.0
 11
5.7335205813961618
 21
-23.817864824212268
 31
0.0
  0
LINE
  5
27FF
  8
247
 10
5.2889405032711618
 20
-23.8375486621029
 30
0.0
 11
5.2889405032711618
 21
-22.7864012011654
 31
0.0
  0
LINE
  5
2800
  8
247
 10
5.7335205813961618
 20
-23.965035844720092
 30
0.0
 11
5.2889405032711618
 21
-23.8375486621029
 31
0.0
  0
LINE
  5
2801
  8
247
 10
5.9863525370269306
 20
-25.40319781348034
 30
0.0
 11
5.4823764256361462
 21
-24.899221702089619
 31
0.0
  0
LINE
  5
2802
  8
247
 10
5.7497841125044431
 20
-25.6156421950114
 30
0.0
 11
5.3329474729920019
 21
-25.19880555549895
 31
0.0
  0
LINE
  5
2803
  8
247
 10
8.926483704717695
 20
-24.733437944329459
 30
0.0
 11
8.926483704717695
 21
-23.829446245110709
 31
0.0
  0
LINE
  5
2804
  8
247
 10
7.7461861079753742
 20
-25.815992966268482
 30
0.0
 11
6.4208798734001382
 21
-24.490686731693241
 31
0.0
  0
ARC
  5
2805
  8
247
 10
7.9160614749508511
 20
-25.95736067382165
 30
0.0
 40
1.0104217529296871
 50
0.0
 51
130.32984065416761
  0
LINE
  5
2806
  8
247
 10
8.8507269613681672
 20
-25.573495401500839
 30
0.0
 11
8.2999267472716554
 21
-25.022695187404391
 31
0.0
  0
LINE
  5
2807
  8
247
 10
8.926483704717695
 20
-26.098264950903911
 30
0.0
 11
7.7838454149056959
 21
-24.955626661091909
 31
0.0
  0
LINE
  5
2808
  8
247
 10
5.7450562259274118
 20
-20.061257768548209
 30
0.0
 11
5.3590546390133511
 21
-20.182977128899779
 31
0.0
1001
ACAD
1000
ASC_BOUNDS
1002
{
1070
    19
1005
27B5
1002
}
  0
POLYLINE
  5
2809
  8
247
 66
     1
 10
0.0
 20
0.0
 30
0.0
 70
     1
1001
HATCH_DISTANCE
1040
1.0
1001
HATCH_DISPLAY
1070
     0
1001
HATCH_TYPE
1070
     7
  0
VERTEX
  5
280A
  8
247
 10
5.7450562259274118
 20
-20.061257768548209
 30
0.0
  0
VERTEX
  5
280B
  8
247
 10
5.3590546390133511
 20
-20.182977128899779
 30
0.0
  0
VERTEX
  5
280C
  8
247
 10
5.3590546390133511
 20
-20.182977128899779
 30
0.0
  0
VERTEX
  5
280D
  8
247
 10
5.7450562259274118
 20
-20.061257768548209
 30
0.0
  0
SEQEND
  5
280E
  8
247
  0
POLYLINE
  5
280F
  8
247
 66
     1
 10
0.0
 20
0.0
 30
0.0
 70
     1
  0
VERTEX
  5
2810
  8
247
 10
5.7450562259274118
 20
-20.061257768548209
 30
0.0
  0
VERTEX
  5
2811
  8
247
 10
5.3590546390133511
 20
-20.182977128899779
 30
0.0
  0
VERTEX
  5
2812
  8
247
 10
5.3590546390133511
 20
-20.182977128899779
 30
0.0
  0
VERTEX
  5
2813
  8
247
 10
5.7450562259274118
 20
-20.061257768548209
 30
0.0
  0
SEQEND
  5
2814
  8
247
  0
POLYLINE
  5
2815
  8
247
 66
     1
 10
0.0
 20
0.0
 30
0.0
 70
     1
1001
HATCH_DISTANCE
1040
1.0
1001
HATCH_DISPLAY
1070
     0
1001
HATCH_TYPE
1070
     7
  0
VERTEX
  5
2816
  8
247
 10
5.7450562259274118
 20
-20.061257768548209
 30
0.0
  0
VERTEX
  5
2817
  8
247
 10
5.3590546390133511
 20
-20.182977128899779
 30
0.0
  0
VERTEX
  5
2818
  8
247
 10
5.3590546390133511
 20
-20.182977128899779
 30
0.0
  0
VERTEX
  5
2819
  8
247
 10
5.7450562259274118
 20
-20.061257768548209
 30
0.0
  0
SEQEND
  5
281A
  8
247
  0
POLYLINE
  5
281B
  8
247
 66
     1
 10
0.0
 20
0.0
 30
0.0
 70
     1
  0
VERTEX
  5
281C
  8
247
 10
5.7450562259274118
 20
-20.061257768548209
 30
0.0
  0
VERTEX
  5
281D
  8
247
 10
5.3590546390133511
 20
-20.182977128899779
 30
0.0
  0
VERTEX
  5
281E
  8
247
 10
5.3590546390133511
 20
-20.182977128899779
 30
0.0
  0
VERTEX
  5
281F
  8
247
 10
5.7450562259274118
 20
-20.061257768548209
 30
0.0
  0
SEQEND
  5
2820
  8
247
  0
LINE
  5
2821
  8
247
 10
5.8058319827633511
 20
-20.25399153319665
 30
0.0
 11
5.4198303958492868
 21
-20.37571089354822
 31
0.0
1001
ACAD
1000
ASC_BOUNDS
1002
{
1070
    19
1005
27E4
1002
}
  0
ARC
  5
2822
  8
247
 10
6.1579132815914761
 20
-21.227593828118529
 30
0.0
 40
0.4243833422660829
 50
91.710121382062738
 51
253.9983983544486
1001
ACAD
1000
ASC_BOUNDS
1002
{
1070
    19
1005
27E4
1002
}
  0
ARC
  5
2823
  8
247
 10
7.4108429690914761
 20
-19.6419920214779
 30
0.0
 40
2.121903419494628
 50
200.22964506332011
 51
208.57168892371661
1001
ACAD
1000
ASC_BOUNDS
1002
{
1070
    19
1005
27E4
1002
}
  0
ARC
  5
2824
  8
247
 10
7.4108429690914761
 20
-19.6419920214779
 30
0.0
 40
1.717732429504393
 50
200.8721834020736
 51
222.5419489373881
1001
ACAD
1000
ASC_BOUNDS
1002
{
1070
    19
1005
27E4
1002
}
  0
LINE
  5
2825
  8
247
 10
8.6894078990536325
 20
-20.97615950194665
 30
0.0
 11
8.926483704717695
 21
-20.739068437493529
 31
0.0
1001
ACAD
1000
ASC_BOUNDS
1002
{
1070
    19
1005
27E4
1002
}
  0
LINE
  5
2826
  8
247
 10
8.1744843265133511
 20
-21.364358354485709
 30
0.0
 11
7.2693787356930368
 21
-21.10482161132165
 31
0.0
1001
ACAD
1000
ASC_BOUNDS
1002
{
1070
    19
1005
27E4
1002
}
  0
LINE
  5
2827
  8
247
 10
7.2693787356930368
 20
-21.4411863574154
 30
0.0
 11
6.8652039310055368
 21
-21.325295854485709
 31
0.0
1001
ACAD
1000
ASC_BOUNDS
1002
{
1070
    19
1005
27E4
1002
}
  0
LINE
  5
2828
  8
247
 10
7.2693787356930368
 20
-21.4411863574154
 30
0.0
 11
7.2693787356930368
 21
-21.10482161132165
 31
0.0
1001
ACAD
1000
ASC_BOUNDS
1002
{
1070
    19
1005
27E4
1002
}
  0
LINE
  5
2829
  8
247
 10
6.8652039310055368
 20
-21.325295854485709
 30
0.0
 11
6.8652039310055368
 21
-20.148003984368518
 31
0.0
1001
ACAD
1000
ASC_BOUNDS
1002
{
1070
    19
1005
27E4
1002
}
  0
LINE
  5
282A
  8
247
 10
8.926483704717695
 20
-20.739068437493529
 30
0.0
 11
6.8652039310055368
 21
-20.148003984368518
 31
0.0
1001
ACAD
1000
ASC_BOUNDS
1002
{
1070
    19
1005
27E4
1002
}
  0
LINE
  5
282B
  8
240
 10
-34.999999999999901
 20
18.0
 30
0.0
 11
0.0
 21
18.00000000000011
 31
0.0
1001
GRPNAME
1000
PASTMD13
  0
LINE
  5
282C
  8
240
 10
0.0
 20
29.0
 30
0.0
 11
0.0
 21
18.00000000000011
 31
0.0
1001
GRPNAME
1000
PASTMD13
  0
LINE
  5
282D
  8
240
 10
1.0
 20
31.5
 30
0.0
 11
0.5
 21
31.0
 31
0.0
1001
GRPNAME
1000
PASTMD14
  0
LINE
  5
282E
  8
240
 10
0.5
 20
29.5
 30
0.0
 11
0.5
 21
31.0
 31
0.0
1001
GRPNAME
1000
PASTMD14
  0
LINE
  5
282F
  8
240
 10
0.0
 20
29.0
 30
0.0
 11
0.5
 21
29.5
 31
0.0
1001
GRPNAME
1000
PASTMD13
  0
LINE
  5
2830
  8
241
 10
29.0
 20
4.3084219849035312
 30
0.0
 11
29.0
 21
31.5
 31
0.0
1001
GRPNAME
1000
PASTMD14
  0
LINE
  5
2831
  8
241
 10
32.00000000000005
 20
3.464101615137734
 30
0.0
 11
35.0
 21
1.7320508075688961
 31
0.0
1001
GRPNAME
1000
PASTMD17
  0
LINE
  5
2832
  8
241
 10
35.0
 20
-1.7320508075688961
 30
0.0
 11
32.0
 21
-3.464101615137734
 31
0.0
1001
GRPNAME
1000
PASTMD17
  0
CIRCLE
  5
2833
  8
241
 10
32.0
 20
0.0
 30
0.0
 40
5.25
1001
GRPNAME
1000
PASTMD17
  0
CIRCLE
  5
2834
  8
242
 10
32.0
 20
0.0
 30
0.0
 40
5.0
1001
GRPNAME
1000
PASTMD17
  0
LINE
  5
2835
  8
245
 10
32.0
 20
-6.3122578010784292
 30
0.0
 11
32.0
 21
6.4996951770332867
 31
0.0
1001
GRPNAME
1000
PASTMD13
  0
LINE
  5
2836
  8
241
 10
29.0
 20
-1.7320508075688961
 30
0.0
 11
29.0
 21
1.7320508075688961
 31
0.0
1001
GRPNAME
1000
PASTMD17
  0
LINE
  5
2837
  8
241
 10
32.0
 20
-3.464101615137734
 30
0.0
 11
29.0
 21
-1.7320508075688961
 31
0.0
1001
GRPNAME
1000
PASTMD17
  0
LINE
  5
2838
  8
241
 10
29.0
 20
1.7320508075688961
 30
0.0
 11
32.00000000000005
 21
3.464101615137734
 31
0.0
1001
GRPNAME
1000
PASTMD17
  0
LINE
  5
2839
  8
241
 10
35.0
 20
1.7320508075688961
 30
0.0
 11
35.0
 21
-1.7320508075688961
 31
0.0
1001
GRPNAME
1000
PASTMD17
  0
LINE
  5
283A
  8
240
 10
31.00000000000005
 20
30.199999999999999
 30
0.0
 11
35.950000000000038
 21
28.873651497465911
 31
0.0
1001
GRPNAME
1000
PASTMD13
  0
LINE
  5
283B
  8
240
 10
30.651666049839601
 20
31.5
 30
0.0
 11
31.00000000000005
 21
30.199999999999999
 31
0.0
1001
GRPNAME
1000
PASTMD13
  0
LINE
  5
283C
  8
240
 10
30.651666049839601
 20
31.5
 30
0.0
 11
29.0
 21
31.5
 31
0.0
1001
GRPNAME
1000
PASTMD13
  0
LINE
  5
283D
  8
240
 10
30.651666049839601
 20
31.5
 30
0.0
 11
29.0
 21
31.5
 31
0.0
1001
GRPNAME
1000
PASTMD13
  0
ARC
  5
283E
  8
240
 10
39.0
 20
45.652531187263143
 30
0.0
 40
3.0
 50
89.999999992281175
 51
179.99999999228109
1001
GRPNAME
1000
PASTMD17
  0
LINE
  5
283F
  8
240
 10
36.0
 20
40.152531187263151
 30
0.0
 11
36.0
 21
45.652531187263143
 31
0.0
1001
GRPNAME
1000
PASTMD17
  0
LINE
  5
2840
  8
240
 10
36.150000000000098
 20
40.152531187263151
 30
0.0
 11
36.0
 21
40.152531187263151
 31
0.0
1001
GRPNAME
1000
PASTMD16
  0
LINE
  5
2841
  8
240
 10
36.150000000000141
 20
40.152531187263193
 30
0.0
 11
35.950000000000102
 21
39.952531187263098
 31
0.0
1001
GRPNAME
1000
PASTMD16
  0
LINE
  5
2842
  8
241
 10
50.398783303653602
 20
41.952531187263219
 30
0.0
 11
45.601216696346619
 21
41.952531187263162
 31
0.0
1001
GRPNAME
1000
PASTMD16
  0
LINE
  5
2843
  8
241
 10
45.368207175174533
 20
41.755274066955721
 30
0.0
 11
45.601216696346619
 21
41.952531187263162
 31
0.0
1001
GRPNAME
1000
PASTMD16
  0
LINE
  5
2844
  8
241
 10
45.368207175174533
 20
41.755274066955721
 30
0.0
 11
45.100000000000058
 21
40.152531187263193
 31
0.0
1001
GRPNAME
1000
PASTMD16
  0
LINE
  5
2845
  8
241
 10
50.398783303653602
 20
41.952531187263219
 30
0.0
 11
50.631792824825709
 21
41.755274066955721
 31
0.0
1001
GRPNAME
1000
PASTMD16
  0
LINE
  5
2846
  8
241
 10
50.900000000000141
 20
40.152531187263193
 30
0.0
 11
50.631792824825709
 21
41.755274066955721
 31
0.0
1001
GRPNAME
1000
PASTMD16
  0
LINE
  5
2847
  8
240
 10
60.050000000000061
 20
25.152531187263151
 30
0.0
 11
60.050000000000132
 21
39.952531187262991
 31
0.0
1001
GRPNAME
1000
PASTMD16
  0
LINE
  5
2848
  8
240
 10
67.199999999999974
 20
20.500239233993341
 30
0.0
 11
67.199999999999974
 21
-24.99994185666327
 31
0.0
1001
GRPNAME
1000
PASTMD13
  0
LINE
  5
2849
  8
240
 10
60.5
 20
22.295498823281889
 30
0.0
 11
60.500000000000057
 21
24.702531187263101
 31
0.0
1001
GRPNAME
1000
PASTMD16
  0
LINE
  5
284A
  8
240
 10
60.5
 20
22.295498823281889
 30
0.0
 11
67.199999999999974
 21
20.500239233993341
 31
0.0
1001
GRPNAME
1000
PASTMD13
  0
LINE
  5
284B
  8
240
 10
60.500000000000057
 20
24.702531187263101
 30
0.0
 11
60.050000000000061
 21
25.152531187263151
 31
0.0
1001
GRPNAME
1000
PASTMD16
  0
LINE
  5
284C
  8
240
 10
60.13746112503582
 20
50.449466566702881
 30
0.0
 11
69.789748021846606
 21
52.151425172149402
 31
0.0
1001
GRPNAME
1000
PASTMD17
  0
LINE
  5
284D
  8
241
 10
69.879045015209442
 20
42.164823911479118
 30
0.0
 11
61.817003823767031
 21
47.400374677873117
 31
0.0
1001
GRPNAME
1000
PASTMD17
  0
LINE
  5
284E
  8
240
 10
59.850000000000023
 20
40.152531187263151
 30
0.0
 11
69.953769559503883
 21
40.152531187263151
 31
0.0
1001
GRPNAME
1000
PASTMD17
  0
CIRCLE
  5
284F
  8
246
 10
67.577253355661071
 20
47.44537834790281
 30
0.0
 40
3.174999999999998
1001
GRPNAME
1000
PASTMD17
  0
LINE
  5
2850
  8
241
 10
61.853263237877229
 20
48.092245514726642
 30
0.0
 11
70.418403800098758
 21
52.456402609675372
 31
0.0
1001
GRPNAME
1000
PASTMD17
  0
ARC
  5
2851
  8
241
 10
62.034859437773036
 20
47.735842905051278
 30
0.0
 40
0.4000000000000151
 50
117.0000000105327
 51
237.0000000105357
1001
GRPNAME
1000
PASTMD17
  0
LINE
  5
2852
  8
240
 10
60.050000000000132
 20
39.952531187262991
 30
0.0
 11
59.850000000000023
 21
40.152531187263151
 31
0.0
1001
GRPNAME
1000
PASTMD16
  0
LINE
  5
2853
  8
240
 10
59.099999999999902
 20
48.652531187263151
 30
0.0
 11
60.13746112503582
 21
50.449466566702881
 31
0.0
1001
GRPNAME
1000
PASTMD17
  0
LINE
  5
2854
  8
241
 10
70.999451813896414
 20
52.079065617502863
 30
0.0
 11
70.496352443117289
 21
42.47935775616007
 31
0.0
1001
GRPNAME
1000
PASTMD17
  0
ARC
  5
2855
  8
241
 10
70.096900629215483
 20
42.500292138657237
 30
0.0
 40
0.3999999999999606
 50
237.00000000023519
 51
357.00000000024551
1001
GRPNAME
1000
PASTMD17
  0
LINE
  5
2856
  8
240
 10
69.953769559503883
 20
40.152531187263151
 30
0.0
 11
70.052307964617057
 21
42.032755964218673
 31
0.0
1001
GRPNAME
1000
PASTMD17
  0
ARC
  5
2857
  8
241
 10
70.599999999994566
 20
52.100000000000009
 30
0.0
 40
0.3999999999999785
 50
357.00000022651182
 51
117.0000002265018
1001
GRPNAME
1000
PASTMD17
  0
ENDBLK
  5
2859
  8
0
  0
BLOCK
  8
0
  2
GENAXEH
 70
     0
 10
0.0
 20
0.0
 30
0.0
  3
GENAXEH
  1

  0
LINE
  5
2928
  8
0
 10
-1.0
 20
0.0
 30
0.0
 11
1.0
 21
0.0
 31
0.0
  0
ENDBLK
  5
292A
  8
0
  0
BLOCK
  8
0
  2
*U6
 70
     1
 10
0.0
 20
0.0
 30
0.0
  3
*U6
  1

  0
TEXT
  5
2979
  8
250
 62
    40
 10
33.071428571425841
 20
64.0
 30
0.0
 40
3.0
  1
71
  0
ENDBLK
  5
297B
  8
0
  0
BLOCK
  8
0
  2
*U7
 70
     1
 10
0.0
 20
0.0
 30
0.0
  3
*U7
  1

  0
TEXT
  5
297D
  8
250
 62
    40
 10
88.714273887871215
 20
-14.542858730965291
 30
0.0
 40
3.0
  1
(
 50
90.0
  0
TEXT
  5
297E
  8
250
 62
    40
 10
88.714273887871215
 20
-12.542858730965291
 30
0.0
 40
3.0
  1
âË85ü`âË105
 50
90.0
  0
TEXT
  5
297F
  8
250
 62
    40
 10
88.714273887871215
 20
12.542855554748989
 30
0.0
 40
3.0
  1
)
 50
90.0
  0
ENDBLK
  5
2981
  8
0
  0
BLOCK
  8
0
  2
*X8
 70
     1
 10
0.0
 20
0.0
 30
0.0
  3
*X8
  1

  0
LINE
  5
2983
  8
0
 62
     0
 10
9.4195033377856987
 20
-18.958066881063019
 30
0.0
 11
8.0947681095063615
 21
-17.633331652783681
 31
0.0
  0
LINE
  5
2984
  8
0
 62
     0
 10
8.0669153091956503
 20
-18.054491658526441
 30
0.0
 11
7.5362205597419774
 21
-17.52379690907275
 31
0.0
  0
LINE
  5
2985
  8
0
 62
     0
 10
9.5290380814965943
 20
-19.516614430827389
 30
0.0
 11
8.9983433320429214
 21
-18.985919681373701
 31
0.0
  0
LINE
  5
2986
  8
0
 62
     0
 10
7.4894759528218771
 20
-17.9260651082061
 30
0.0
 11
7.1055740698341756
 21
-17.542163225218399
 31
0.0
  0
LINE
  5
2987
  8
0
 62
     0
 10
9.5327459013470701
 20
-19.969335056731289
 30
0.0
 11
9.1267698823632628
 21
-19.563359037747489
 31
0.0
  0
LINE
  5
2988
  8
0
 62
     0
 10
7.0723450794801721
 20
-17.957947040917858
 30
0.0
 11
6.7424935546039393
 21
-17.628095516041618
 31
0.0
  0
LINE
  5
2989
  8
0
 62
     0
 10
9.5327459013470541
 20
-20.41834786278476
 30
0.0
 11
9.1285711070614468
 21
-20.014173068499129
 31
0.0
  0
LINE
  5
298A
  8
0
 62
     0
 10
6.7302386715990963
 20
-18.064853439090239
 30
0.0
 11
6.4272261755202029
 21
-17.76184094301135
 31
0.0
  0
LINE
  5
298B
  8
0
 62
     0
 10
9.5327459013470701
 20
-20.86736066883822
 30
0.0
 11
9.128571107061461
 21
-20.463185874552611
 31
0.0
  0
LINE
  5
298C
  8
0
 62
     0
 10
6.4407757098441456
 20
-18.224403283388739
 30
0.0
 11
6.1509709477791432
 21
-17.934598521323728
 31
0.0
  0
LINE
  5
298D
  8
0
 62
     0
 10
9.5327459013470541
 20
-21.316373474891659
 30
0.0
 11
9.1285711070614468
 21
-20.912198680606039
 31
0.0
  0
LINE
  5
298E
  8
0
 62
     0
 10
6.1954806569515588
 20
-18.428121036549619
 30
0.0
 11
5.9096858681748889
 21
-18.14232624777296
 31
0.0
  0
LINE
  5
298F
  8
0
 62
     0
 10
9.5327459013470541
 20
-21.76538628094514
 30
0.0
 11
9.1285711070614468
 21
-21.36121148665951
 31
0.0
  0
LINE
  5
2990
  8
0
 62
     0
 10
5.9920433896266303
 20
-18.673696575278161
 30
0.0
 11
5.7021838296347047
 21
-18.383837015286229
 31
0.0
  0
LINE
  5
2991
  8
0
 62
     0
 10
9.5327459013470541
 20
-22.214399086998601
 30
0.0
 11
9.1285711070614468
 21
-21.810224292712991
 31
0.0
  0
LINE
  5
2992
  8
0
 62
     0
 10
5.8328063963564736
 20
-18.963472388061462
 30
0.0
 11
5.5296682929440371
 21
-18.660334284649021
 31
0.0
  0
LINE
  5
2993
  8
0
 62
     0
 10
9.5327459013470541
 20
-22.663411893052061
 30
0.0
 11
9.1285711070614326
 21
-22.259237098766441
 31
0.0
  0
LINE
  5
2994
  8
0
 62
     0
 10
5.7263003918251201
 20
-19.305979189583571
 30
0.0
 11
5.396204298284629
 21
-18.975883096043059
 31
0.0
  0
LINE
  5
2995
  8
0
 62
     0
 10
9.5327459013470701
 20
-23.1124246991055
 30
0.0
 11
9.1285711070614468
 21
-22.70824990481988
 31
0.0
  0
LINE
  5
2996
  8
0
 62
     0
 10
5.6950622975551113
 20
-19.723753901367001
 30
0.0
 11
5.3106370379850878
 21
-19.339328641796978
 31
0.0
  0
LINE
  5
2997
  8
0
 62
     0
 10
9.5327459013470701
 20
-23.56143750515896
 30
0.0
 11
9.1285711070614468
 21
-23.15726271087334
 31
0.0
  0
LINE
  5
2998
  8
0
 62
     0
 10
5.622271528184867
 20
-20.099975938050221
 30
0.0
 11
5.292838044483644
 21
-19.770542454348998
 31
0.0
  0
LINE
  5
2999
  8
0
 62
     0
 10
9.5327459013470701
 20
-24.01045031121242
 30
0.0
 11
9.1285711070614468
 21
-23.606275516926811
 31
0.0
  0
LINE
  5
299A
  8
0
 62
     0
 10
9.5327459013470701
 20
-24.459463117265869
 30
0.0
 11
9.128571107061461
 21
-24.05528832298026
 31
0.0
  0
LINE
  5
299B
  8
0
 62
     0
 10
9.5327459013470541
 20
-24.90847592331933
 30
0.0
 11
9.1285711070614468
 21
-24.50430112903372
 31
0.0
  0
LINE
  5
299C
  8
0
 62
     0
 10
9.5327459013470701
 20
-25.35748872937279
 30
0.0
 11
9.1285711070614468
 21
-24.95331393508717
 31
0.0
  0
LINE
  5
299D
  8
0
 62
     0
 10
9.5327459013470701
 20
-25.806501535426239
 30
0.0
 11
9.1285711070614468
 21
-25.402326741140609
 31
0.0
  0
LINE
  5
299E
  8
0
 62
     0
 10
9.5327459013470541
 20
-26.25551434147971
 30
0.0
 11
9.128571107061461
 21
-25.851339547194101
 31
0.0
  0
LINE
  5
299F
  8
0
 62
     0
 10
9.5327459013470541
 20
-26.70452714753317
 30
0.0
 11
9.1285711070614468
 21
-26.30035235324755
 31
0.0
  0
LINE
  5
29A0
  8
0
 62
     0
 10
9.5327459013470541
 20
-27.15353995358663
 30
0.0
 11
9.1285711070614468
 21
-26.749365159301011
 31
0.0
  0
LINE
  5
29A1
  8
0
 62
     0
 10
9.5327459013470701
 20
-27.60255275964008
 30
0.0
 11
9.1285711070614468
 21
-27.198377965354471
 31
0.0
  0
LINE
  5
29A2
  8
0
 62
     0
 10
9.5236903550212304
 20
-28.0425100193677
 30
0.0
 11
9.128571107061461
 21
-27.647390771407931
 31
0.0
  0
LINE
  5
29A3
  8
0
 62
     0
 10
9.4534630986690047
 20
-28.421295569068931
 30
0.0
 11
9.1125935841986916
 21
-28.080426054598622
 31
0.0
  0
LINE
  5
29A4
  8
0
 62
     0
 10
9.3315995637865399
 20
-28.748444840239909
 30
0.0
 11
9.0229327226509781
 21
-28.439777999104351
 31
0.0
  0
LINE
  5
29A5
  8
0
 62
     0
 10
9.1689333718548625
 20
-29.034791454361709
 30
0.0
 11
8.8765453340649856
 21
-28.74240341657185
 31
0.0
  0
LINE
  5
29A6
  8
0
 62
     0
 10
8.9705222644627582
 20
-29.285393153023069
 30
0.0
 11
8.6844401973288683
 21
-28.999311085889179
 31
0.0
  0
LINE
  5
29A7
  8
0
 62
     0
 10
8.7382437042643346
 20
-29.502127398878091
 30
0.0
 11
8.4503155329962567
 21
-29.21419922761001
 31
0.0
  0
LINE
  5
29A8
  8
0
 62
     0
 10
8.4715529066514961
 20
-29.684449407318709
 30
0.0
 11
8.1731182395940181
 21
-29.386014740261249
 31
0.0
  0
LINE
  5
29A9
  8
0
 62
     0
 10
5.6931153079586627
 20
-27.355024614679341
 30
0.0
 11
5.37469786904225
 21
-27.036607175762931
 31
0.0
  0
LINE
  5
29AA
  8
0
 62
     0
 10
8.1672734910550133
 20
-29.82918279777569
 30
0.0
 11
7.8463750310758646
 21
-29.508284337796539
 31
0.0
  0
LINE
  5
29AB
  8
0
 62
     0
 10
5.6931153079586627
 20
-27.804037420732801
 30
0.0
 11
5.2889405032711627
 21
-27.399862616045301
 31
0.0
  0
LINE
  5
29AC
  8
0
 62
     0
 10
7.8182002627445248
 20
-29.929122375518681
 30
0.0
 11
7.4529773864149851
 21
-29.56389949918912
 31
0.0
  0
LINE
  5
29AD
  8
0
 62
     0
 10
5.7594297058233082
 20
-28.319364624650891
 30
0.0
 11
5.2889416312190463
 21
-27.848876550046629
 31
0.0
  0
LINE
  5
29AE
  8
0
 62
     0
 10
7.4086550957961199
 20
-29.968590014623722
 30
0.0
 11
6.938167021191858
 21
-29.498101940019449
 31
0.0
  0
LINE
  5
29AF
  8
0
 62
     0
 10
6.8963162732263612
 20
-29.905263998107419
 30
0.0
 11
5.3522676477353306
 21
-28.361215372616389
 31
0.0
  0
ENDBLK
  5
29B1
  8
0
  0
BLOCK
  8
0
  2
*X9
 70
     1
 10
0.0
 20
0.0
 30
0.0
  3
*X9
  1

  0
LINE
  5
29B3
  8
0
 62
     0
 10
8.7164626400458474
 20
-20.949103019643928
 30
0.0
 11
8.3375548610960237
 21
-20.57019524069409
 31
0.0
  0
LINE
  5
29B4
  8
0
 62
     0
 10
8.9203545584100823
 20
-21.602007744061609
 30
0.0
 11
7.708027333872252
 21
-20.389680519523779
 31
0.0
  0
LINE
  5
29B5
  8
0
 62
     0
 10
8.2806545222927639
 20
-21.411320513997751
 30
0.0
 11
7.0784998066484803
 21
-20.209165798353471
 31
0.0
  0
LINE
  5
29B6
  8
0
 62
     0
 10
8.8929998527406013
 20
-22.023665844445588
 30
0.0
 11
8.4184920156341292
 21
-21.549158007339109
 31
0.0
  0
LINE
  5
29B7
  8
0
 62
     0
 10
7.6279671304889396
 20
-21.207645928247381
 30
0.0
 11
6.8652039310055377
 21
-20.444882728763972
 31
0.0
  0
LINE
  5
29B8
  8
0
 62
     0
 10
8.7703633735476672
 20
-22.3500421713061
 30
0.0
 11
8.4174478070508485
 21
-21.997126604809282
 31
0.0
  0
LINE
  5
29B9
  8
0
 62
     0
 10
7.2693787356930377
 20
-21.29807033950495
 30
0.0
 11
6.8652039310055377
 21
-20.893895534817428
 31
0.0
  0
LINE
  5
29BA
  8
0
 62
     0
 10
8.5843795004508081
 20
-22.613071104262719
 30
0.0
 11
8.1563282986730457
 21
-22.185019902484939
 31
0.0
  0
LINE
  5
29BB
  8
0
 62
     0
 10
5.825451012135872
 20
-20.303155422001218
 30
0.0
 11
5.783370111360667
 21
-20.261074521226021
 31
0.0
  0
LINE
  5
29BC
  8
0
 62
     0
 10
8.3431196348426226
 20
-22.82082404470798
 30
0.0
 11
7.6068608752456148
 21
-22.084565285110969
 31
0.0
  0
LINE
  5
29BD
  8
0
 62
     0
 10
5.937948584554575
 20
-20.864665800473389
 30
0.0
 11
5.4420021677790791
 21
-20.368719383697879
 31
0.0
  0
LINE
  5
29BE
  8
0
 62
     0
 10
8.0432659978226422
 20
-22.96998321374144
 30
0.0
 11
6.9773327344267244
 21
-21.90404995034552
 31
0.0
  0
LINE
  5
29BF
  8
0
 62
     0
 10
5.7467528426545718
 20
-21.12248286462685
 30
0.0
 11
5.4441095032749578
 21
-20.819839525247229
 31
0.0
  0
LINE
  5
29C0
  8
0
 62
     0
 10
7.6656844250962024
 20
-23.04141444706848
 30
0.0
 11
6.3478045936078331
 21
-21.72353461558011
 31
0.0
  0
LINE
  5
29C1
  8
0
 62
     0
 10
7.1530488294657166
 20
-22.977791657491441
 30
0.0
 11
5.321921189772751
 21
-21.146664017798471
 31
0.0
  0
LINE
  5
29C2
  8
0
 62
     0
 10
6.5549669949205187
 20
-22.828722628999699
 30
0.0
 11
5.2953841254760468
 21
-21.56913975955522
 31
0.0
  0
ENDBLK
  5
29C4
  8
0
  0
BLOCK
  8
0
  2
*X10
 70
     1
 10
0.0
 20
0.0
 30
0.0
  3
*X10
  1

  0
LINE
  5
29C6
  8
0
 62
     0
 10
8.9264837047176968
 20
-23.8532009206365
 30
0.0
 11
8.8931791297224976
 21
-23.8198963456413
 31
0.0
  0
LINE
  5
29C7
  8
0
 62
     0
 10
8.9264837047176968
 20
-24.30221372668997
 30
0.0
 11
8.2636533482915127
 21
-23.63938337026379
 31
0.0
  0
LINE
  5
29C8
  8
0
 62
     0
 10
8.9015436168356104
 20
-24.72628644486133
 30
0.0
 11
7.6341275668605268
 21
-23.458870394886262
 31
0.0
  0
LINE
  5
29C9
  8
0
 62
     0
 10
8.2720153719541543
 20
-24.54577100603332
 30
0.0
 11
7.004601785429557
 21
-23.27835741950874
 31
0.0
  0
LINE
  5
29CA
  8
0
 62
     0
 10
7.6424871270726689
 20
-24.36525556720532
 30
0.0
 11
6.3750760039985721
 21
-23.097844444131209
 31
0.0
  0
LINE
  5
29CB
  8
0
 62
     0
 10
7.0129588821912128
 20
-24.184740128377321
 30
0.0
 11
5.7455502225676014
 21
-22.917331468753702
 31
0.0
  0
LINE
  5
29CC
  8
0
 62
     0
 10
6.3834306373097434
 20
-24.004224689549311
 30
0.0
 11
5.2889405032711627
 21
-22.909734555510731
 31
0.0
  0
LINE
  5
29CD
  8
0
 62
     0
 10
5.7539023924282873
 20
-23.82370925072129
 30
0.0
 11
5.2889405032711769
 21
-23.358747361564181
 31
0.0
  0
LINE
  5
29CE
  8
0
 62
     0
 10
5.3307054604591144
 20
-23.849525124805592
 30
0.0
 11
5.2889405032711627
 21
-23.80776016761763
 31
0.0
  0
ENDBLK
  5
29D0
  8
0
  0
ENDSEC
  0
SECTION
  2
ENTITIES
  0
TEXT
  5
26A6
  8
241
 10
-42.0
 20
77.0
 30
0.0
 40
5.0
  1
EWB85-105CK6
  7
YOKO
 11
-42.0
 21
77.0
 31
0.0
 73
     1
  0
LINE
  5
26DD
  8
250
 10
-22.781175561001898
 20
-27.78489425430854
 30
0.0
 11
-36.781175561001902
 21
-27.78489425430854
 31
0.0
1001
ITEMNAME
1000
LNSP2
  0
LINE
  5
276D
  8
250
 10
67.077944397181881
 20
68.727300917610819
 30
0.0
 11
89.506515825753283
 21
68.727300917610819
 31
0.0
1001
ITEMNAME
1000
LNSP2
  0
INSERT
  5
285A
  8
240
  2
A$C09A460DC
 10
0.0
 20
0.0
 30
0.0
  0
TEXT
  5
2939
  8
250
 10
69.506515825753311
 20
69.727300917610819
 30
0.0
 40
3.0
  1
EBH6-1
  7
YOKO
1001
ITEMNAME
1000
LNSP3
1001
ACAD
1000
MTEXTBEGIN
1070
    73
1070
     1
1070
    44
1040
1.0
1070
    74
1070
     0
1000
MTEXTEND
  0
LINE
  5
293C
  8
250
 10
71.099999999994566
 20
52.5
 30
0.0
 11
91.999988173585535
 21
52.5
 31
0.0
  0
LINE
  5
293D
  8
250
 10
90.999988173585564
 20
50.27000000000001
 30
0.0
 11
90.999988173585507
 21
-14.97143015953673
 31
0.0
  0
TEXT
  5
2942
  8
250
 10
-34.209746989573333
 20
-26.784894254308529
 30
0.0
 40
3.0
  1
CK6
  7
YOKO
1001
ITEMNAME
1000
LNSP3
1001
ACAD
1000
MTEXTBEGIN
1070
    73
1070
     1
1070
    44
1040
1.0
1070
    74
1070
     0
1000
MTEXTEND
  0
LINE
  5
2943
  8
250
 10
0.0
 20
29.5
 30
0.0
 11
0.0000000000000021
 21
64.0
 31
0.0
  0
LINE
  5
2944
  8
250
 10
70.999999999994543
 20
52.600000000000009
 30
0.0
 11
70.999999999994543
 21
64.0
 31
0.0
  0
LINE
  5
2945
  8
250
 10
2.2300000000000022
 20
63.0
 30
0.0
 11
68.769999999994539
 21
63.0
 31
0.0
  0
TEXT
  5
2949
  8
250
 10
33.071428571425841
 20
64.0
 30
0.0
 40
3.0
  1
71
1001
ACAD
1000
MTEXTBEGIN
1070
    73
1070
     1
1070
    44
1040
1.0
1070
    74
1070
     0
1000
MTEXTEND
  0
LINE
  5
294A
  8
250
 10
68.769999999994539
 20
63.37166666666667
 30
0.0
 11
70.999999999994543
 21
63.0
 31
0.0
  0
LINE
  5
294B
  8
250
 10
68.769999999994539
 20
62.62833333333333
 30
0.0
 11
70.999999999994543
 21
63.0
 31
0.0
  0
LINE
  5
294C
  8
250
 10
70.999999999994543
 20
63.0
 30
0.0
 11
68.769999999994539
 21
63.0
 31
0.0
  0
LINE
  5
294D
  8
250
 10
2.2300000000000009
 20
62.62833333333333
 30
0.0
 11
0.0000000000000021
 21
63.0
 31
0.0
  0
LINE
  5
294E
  8
250
 10
2.2300000000000009
 20
63.371666666666663
 30
0.0
 11
0.0000000000000021
 21
63.0
 31
0.0
  0
LINE
  5
294F
  8
250
 10
0.0000000000000021
 20
63.0
 30
0.0
 11
2.2300000000000009
 21
63.0
 31
0.0
  0
LINE
  5
2950
  8
250
 10
-18.24686422928481
 20
-19.931236650439239
 30
0.0
 11
-22.781175561001898
 21
-27.78489425430854
 31
0.0
1001
ACAD
1000
DSTYLE
1002
{
1070
     5
1000
OPEN
1070
    78
1070
     8
1070
   140
1040
3.0
1002
}
  0
LINE
  5
2951
  8
250
 10
-18.568737004358031
 20
-19.7454033171059
 30
0.0
 11
-17.131864229284808
 21
-17.99999999999994
 31
0.0
  0
LINE
  5
2952
  8
250
 10
-17.92499145421159
 20
-20.11706998377257
 30
0.0
 11
-17.131864229284808
 21
-17.99999999999994
 31
0.0
  0
LINE
  5
2953
  8
250
 10
-17.131864229284808
 20
-17.99999999999994
 30
0.0
 11
-18.24686422928481
 21
-19.931236650439239
 31
0.0
  0
TEXT
  5
2954
  8
250
 10
88.714273887871215
 20
-14.542858730965291
 30
0.0
 40
3.0
  1
(
 50
90.0
1001
ACAD
1000
MTEXTBEGIN
1070
    73
1070
     1
1070
    44
1040
1.0
1070
    74
1070
     0
1000
MTEXTEND
  0
TEXT
  5
2955
  8
250
 10
88.714273887871215
 20
-12.542858730965291
 30
0.0
 40
3.0
  1
âË85ü`âË105
 50
90.0
1001
ACAD
1000
MTEXTBEGIN
1070
    73
1070
     1
1070
    44
1040
1.0
1070
    74
1070
     0
1000
MTEXTEND
  0
TEXT
  5
2956
  8
250
 10
88.714273887871215
 20
12.542855554748989
 30
0.0
 40
3.0
  1
)
 50
90.0
1001
ACAD
1000
MTEXTBEGIN
1070
    73
1070
     1
1070
    44
1040
1.0
1070
    74
1070
     0
1000
MTEXTEND
  0
LINE
  5
2957
  8
250
 10
90.628321506918894
 20
50.27000000000001
 30
0.0
 11
90.999988173585564
 21
52.5
 31
0.0
  0
LINE
  5
2958
  8
250
 10
91.371654840252219
 20
50.27000000000001
 30
0.0
 11
90.999988173585564
 21
52.5
 31
0.0
  0
LINE
  5
2959
  8
250
 10
90.999988173585564
 20
52.5
 30
0.0
 11
90.999988173585564
 21
50.27000000000001
 31
0.0
  0
LINE
  5
295A
  8
250
 10
56.602770689445919
 20
50.583767837702439
 30
0.0
 11
67.077944397181881
 21
68.727300917610819
 31
0.0
1001
ACAD
1000
DSTYLE
1002
{
1070
     5
1000
OPEN
1070
    78
1070
     8
1070
   140
1040
3.0
1002
}
  0
LINE
  5
295B
  8
250
 10
56.924643464519143
 20
50.397934504369111
 30
0.0
 11
55.487770689445931
 21
48.652531187263151
 31
0.0
  0
LINE
  5
295C
  8
250
 10
56.280897914372723
 20
50.769601171035781
 30
0.0
 11
55.487770689445931
 21
48.652531187263151
 31
0.0
  0
LINE
  5
295D
  8
250
 10
55.487770689445931
 20
48.652531187263151
 30
0.0
 11
56.602770689445933
 21
50.583767837702439
 31
0.0
  0
VIEWPORT
  5
22
 67
     1
  8
0
 10
261.51769911504419
 20
148.5
 30
0.0
 40
523.0353982300885
 41
297.0
 68
     1
 69
     1
1001
ACAD
1000
MVIEW
1002
{
1070
    16
1010
0.0
1020
0.0
1030
0.0
1010
0.0
1020
0.0
1030
1.0
1040
0.0
1040
297.0
1040
261.51769911504419
1040
148.5
1040
50.0
1040
0.0
1040
0.0
1070
     0
1070
   100
1070
     1
1070
     1
1070
     0
1070
     0
1070
     0
1070
     0
1040
0.0
1040
0.0
1040
0.0
1040
1.0
1040
1.0
1040
10.0
1040
10.0
1070
     0
1002
{
1002
}
1002
}
1001
GENIUS_GENODEF_13
1002
{
1000
HIER
1070
     0
1002
}
1002
{
1000
MANEDIT
1070
     0
1002
}
1002
{
1000
NOSEL
1070
     0
1002
}
1002
{
1000
BEHIND
1070
     0
1002
}
1002
{
1000
OTHER
1070
     0
1002
}
1002
{
1000
REACTOR
1002
}
1001
GENIUS_GENOBJ-N-SDF_13
1002
{
1000
OWNER
1000
GEN
1002
}
1001
GENIUS_GENSCREG_15
1000
PF
1040
1.0
1000
DF
1040
1.0
1000
MIN
1011
0.0
1021
0.0
1031
0.0
1021
0.0
1031
0.0
1000
MAX
1011
523.0353982300885
1021
0.0
1031
0.0
1021
297.0
1031
0.0
1000
FLAGS
1070
     2
  0
ENDSEC
  0
EOF
