  0
SECTION
  2
HEADER
  9
$ACADVER
  1
AC1009
  9
$INSBASE
 10
0.0
 20
0.0
 30
0.0
  9
$EXTMIN
 10
-42.000015259999941
 20
-32.568355831315948
 30
0.0
  9
$EXTMAX
 10
96.938295021489935
 20
75.0
 30
0.0
  9
$LIMMIN
 10
0.0
 20
0.0
  9
$LIMMAX
 10
297.0
 20
210.0
  9
$ORTHOMODE
 70
     0
  9
$REGENMODE
 70
     1
  9
$FILLMODE
 70
     1
  9
$QTEXTMODE
 70
     0
  9
$MIRRTEXT
 70
     1
  9
$DRAGMODE
 70
     2
  9
$LTSCALE
 40
10.0
  9
$OSMODE
 70
   639
  9
$ATTMODE
 70
     1
  9
$TEXTSIZE
 40
3.0
  9
$TRACEWID
 40
1.0
  9
$TEXTSTYLE
  7
YOKO
  9
$CLAYER
  8
240
  9
$CELTYPE
  6
BYLAYER
  9
$CECOLOR
 62
   256
  9
$DIMSCALE
 40
1.0
  9
$DIMASZ
 40
2.2299999999999991
  9
$DIMEXO
 40
0.5
  9
$DIMDLI
 40
2.5
  9
$DIMRND
 40
0.0
  9
$DIMDLE
 40
0.0
  9
$DIMEXE
 40
1.0
  9
$DIMTP
 40
0.0
  9
$DIMTM
 40
0.0
  9
$DIMTXT
 40
3.0
  9
$DIMCEN
 40
0.0
  9
$DIMTSZ
 40
0.0
  9
$DIMTOL
 70
     0
  9
$DIMLIM
 70
     0
  9
$DIMTIH
 70
     0
  9
$DIMTOH
 70
     0
  9
$DIMSE1
 70
     0
  9
$DIMSE2
 70
     0
  9
$DIMTAD
 70
     3
  9
$DIMZIN
 70
     8
  9
$DIMBLK
  1
OPEN
  9
$DIMASO
 70
     1
  9
$DIMSHO
 70
     1
  9
$DIMPOST
  1

  9
$DIMAPOST
  1

  9
$DIMALT
 70
     0
  9
$DIMALTD
 70
     2
  9
$DIMALTF
 40
25.399999999999999
  9
$DIMLFAC
 40
1.0
  9
$DIMTOFL
 70
     1
  9
$DIMTVP
 40
0.0
  9
$DIMTIX
 70
     0
  9
$DIMSOXD
 70
     0
  9
$DIMSAH
 70
     0
  9
$DIMBLK1
  1

  9
$DIMBLK2
  1

  9
$DIMSTYLE
  2
BIGT
  9
$DIMCLRD
 70
   256
  9
$DIMCLRE
 70
   256
  9
$DIMCLRT
 70
    40
  9
$DIMTFAC
 40
1.0
  9
$DIMGAP
 40
1.0
  9
$LUNITS
 70
     2
  9
$LUPREC
 70
     2
  9
$SKETCHINC
 40
1.0
  9
$FILLETRAD
 40
0.0
  9
$AUNITS
 70
     0
  9
$AUPREC
 70
     3
  9
$MENU
  1
.
  9
$ELEVATION
 40
0.0
  9
$PELEVATION
 40
0.0
  9
$THICKNESS
 40
0.0
  9
$LIMCHECK
 70
     0
  9
$BLIPMODE
 70
     0
  9
$CHAMFERA
 40
10.0
  9
$CHAMFERB
 40
10.0
  9
$SKPOLY
 70
     0
  9
$TDCREATE
 40
2452227.4576188079
  9
$TDUPDATE
 40
2453614.7267429749
  9
$TDINDWG
 40
0.1287723958
  9
$TDUSRTIMER
 40
0.1287723958
  9
$USRTIMER
 70
     1
  9
$ANGBASE
 50
0.0
  9
$ANGDIR
 70
     0
  9
$PDMODE
 70
    35
  9
$PDSIZE
 40
-5.0
  9
$PLINEWID
 40
0.0
  9
$COORDS
 70
     2
  9
$SPLFRAME
 70
     0
  9
$SPLINETYPE
 70
     6
  9
$SPLINESEGS
 70
     8
  9
$ATTDIA
 70
     1
  9
$ATTREQ
 70
     1
  9
$HANDLING
 70
     1
  9
$HANDSEED
  5
2DC3
  9
$SURFTAB1
 70
     6
  9
$SURFTAB2
 70
     6
  9
$SURFTYPE
 70
     6
  9
$SURFU
 70
     6
  9
$SURFV
 70
     6
  9
$UCSNAME
  2

  9
$UCSORG
 10
0.0
 20
0.0
 30
0.0
  9
$UCSXDIR
 10
1.0
 20
0.0
 30
0.0
  9
$UCSYDIR
 10
0.0
 20
1.0
 30
0.0
  9
$PUCSNAME
  2

  9
$PUCSORG
 10
0.0
 20
0.0
 30
0.0
  9
$PUCSXDIR
 10
1.0
 20
0.0
 30
0.0
  9
$PUCSYDIR
 10
0.0
 20
1.0
 30
0.0
  9
$USERI1
 70
     1
  9
$USERI2
 70
     0
  9
$USERI3
 70
     0
  9
$USERI4
 70
     0
  9
$USERI5
 70
     0
  9
$USERR1
 40
0.0
  9
$USERR2
 40
0.0
  9
$USERR3
 40
0.0
  9
$USERR4
 40
0.0
  9
$USERR5
 40
0.0
  9
$WORLDVIEW
 70
     1
  9
$SHADEDGE
 70
     3
  9
$SHADEDIF
 70
    70
  9
$TILEMODE
 70
     1
  9
$MAXACTVP
 70
    16
  9
$PLIMCHECK
 70
     0
  9
$PEXTMIN
 10
1.0000000000000000E+020
 20
1.0000000000000000E+020
 30
1.0000000000000000E+020
  9
$PEXTMAX
 10
-1.0000000000000000E+020
 20
-1.0000000000000000E+020
 30
-1.0000000000000000E+020
  9
$PLIMMIN
 10
0.0
 20
0.0
  9
$PLIMMAX
 10
420.0
 20
297.0
  9
$UNITMODE
 70
     0
  9
$VISRETAIN
 70
     0
  9
$PLINEGEN
 70
     0
  9
$PSLTSCALE
 70
     1
  0
ENDSEC
  0
SECTION
  2
TABLES
  0
TABLE
  2
VPORT
 70
     3
  0
VPORT
  2
*ACTIVE
 70
     0
 10
0.0
 20
0.0
 11
1.0
 21
1.0
 12
27.47233198495293
 22
21.220825714781888
 13
0.0
 23
0.0
 14
7.0
 24
7.0
 15
7.0
 25
7.0
 16
0.0
 26
0.0
 36
1.0
 17
0.0
 27
0.0
 37
0.0
 40
108.2352289548776
 41
1.4779999999999991
 42
50.0
 43
0.0
 44
0.0
 50
0.0
 51
0.0
 71
     0
 72
  2000
 73
     1
 74
     0
 75
     0
 76
     0
 77
     0
 78
     0
  0
ENDTAB
  0
TABLE
  2
LTYPE
 70
    15
  0
LTYPE
  2
CONTINUOUS
 70
     0
  3
Solid line
 72
    65
 73
     0
 40
0.0
  0
LTYPE
  2
CENTER2
 70
     0
  3
___ _ ___ _ ___ _ ___ _ ___ _ ___ _ ___ _ ___ _
 72
    65
 73
     4
 40
1.125
 49
0.75
 49
-0.125
 49
0.125
 49
-0.125
  0
LTYPE
  2
PHANTOM2
 70
     0
  3
___ _ _ ___ _ _ ___ _ _ ___ _ _ ___ _ _ ___ _ _
 72
    65
 73
     6
 40
1.25
 49
0.625
 49
-0.125
 49
0.125
 49
-0.125
 49
0.125
 49
-0.125
  0
LTYPE
  2
HIDDEN
 70
     0
  3
Hidden __ __ __ __ __ __ __ __ __ __ __ __ __ _
 72
    65
 73
     2
 40
9.5249999999999986
 49
6.3499999999999988
 49
-3.1749999999999989
  0
LTYPE
  2
CENTER
 70
     0
  3
Center ____ _ ____ _ ____ _ ____ _ ____ _ ____
 72
    65
 73
     4
 40
50.799999999999997
 49
31.75
 49
-6.3499999999999988
 49
6.3499999999999988
 49
-6.3499999999999988
  0
LTYPE
  2
AM_ISO02W050
 70
     0
  3
__ __ __ __ __ __ __ __ __ __ __ __ __ __ __
 72
    65
 73
     2
 40
7.5
 49
6.0
 49
-1.5
  0
LTYPE
  2
AM_ISO08W050
 70
     0
  3
____ . ____ . ____ . ____ . ____ . ____ . ____
 72
    65
 73
     4
 40
18.0
 49
12.0
 49
-1.5
 49
3.0
 49
-1.5
  0
LTYPE
  2
AM_ISO09W050
 70
     0
  3
_____ . . _____ . . _____ . . ____ .. ____
 72
    65
 73
     6
 40
22.5
 49
12.0
 49
-1.5
 49
3.0
 49
-1.5
 49
3.0
 49
-1.5
  0
LTYPE
  2
AMCONSTR
 70
     0
  3
_______________________
 72
    65
 73
     2
 40
9999.0
 49
9999.0
 49
0.0
  0
LTYPE
  2
AM_ISO08W050X2
 70
     0
  3
__ . __ . __ . __ . __ . __
 72
    65
 73
     4
 40
9.0
 49
6.0
 49
-0.75
 49
1.5
 49
-0.75
  0
LTYPE
  2
AM_ISO02W050X2
 70
     0
  3
 _ _ _ _ _ _ _ _ _ _ _ _
 72
    65
 73
     2
 40
3.75
 49
3.0
 49
-0.75
  0
LTYPE
  2
AMZIGZAG
 70
     0
  3
/\/-/\/-/\/-/\/-/\/-/\/
 72
    65
 73
     2
 40
11.0001
 49
0.0001
 49
-11.0
  0
LTYPE
  2
ACISOWELD
 70
     0
  3
_ _ _ _ _
 72
    65
 73
     2
 40
2.0
 49
2.0
 49
-1.0
  0
LTYPE
  2
ACISOTGB
 70
     0
  3
__ . . __ . .
 72
    65
 73
     6
 40
9.0
 49
4.0
 49
-1.0
 49
1.0
 49
-1.0
 49
1.0
 49
-1.0
  0
LTYPE
  2
ACISOTGL
 70
     0
  3
_ _ _ _ _
 72
    65
 73
     2
 40
3.0
 49
2.0
 49
-1.0
  0
ENDTAB
  0
TABLE
  2
LAYER
 70
     9
  0
LAYER
  2
0
 70
     0
 62
     7
  6
CONTINUOUS
  0
LAYER
  2
240
 70
     0
 62
     4
  6
CONTINUOUS
  0
LAYER
  2
241
 70
     0
 62
   211
  6
CONTINUOUS
  0
LAYER
  2
242
 70
     0
 62
     3
  6
CONTINUOUS
  0
LAYER
  2
245
 70
     0
 62
     2
  6
CENTER2
  0
LAYER
  2
246
 70
     0
 62
     3
  6
PHANTOM2
  0
LAYER
  2
247
 70
     0
 62
    60
  6
CONTINUOUS
  0
LAYER
  2
250
 70
     0
 62
     3
  6
CONTINUOUS
  0
LAYER
  2
DEFPOINTS
 70
     0
 62
     7
  6
CONTINUOUS
  0
ENDTAB
  0
TABLE
  2
STYLE
 70
     5
  0
STYLE
  2
STANDARD
 70
     0
 40
0.0
 41
1.0
 50
0.0
 71
     0
 42
3.0
  3
romans.shx
  4
BIGFONT.SHX
  0
STYLE
  2
YOKO
 70
     0
 40
0.0
 41
1.0
 50
0.0
 71
     0
 42
3.0
  3
romans.shx
  4
extfont.shx
  0
STYLE
  2

 70
     1
 40
0.0
 41
1.0
 50
0.0
 71
     0
 42
3.0
  3
ltypeshp.shx
  4

  0
STYLE
  2
ACISOTS
 70
     0
 40
1.0
 41
1.0
 50
0.0
 71
     0
 42
3.0
  3
isocp.shx
  4
extfont.shx
  0
STYLE
  2
ACISOGDT
 70
     0
 40
0.0
 41
1.0
 50
0.0
 71
     0
 42
3.0
  3
amgdt.shx
  4

  0
ENDTAB
  0
TABLE
  2
VIEW
 70
     0
  0
ENDTAB
  0
TABLE
  2
UCS
 70
     0
  0
ENDTAB
  0
TABLE
  2
APPID
 70
    19
  0
APPID
  2
ACAD
 70
     0
  0
APPID
  2
GLOBAL
 70
     0
  0
APPID
  2
DETAIL
 70
     0
  0
APPID
  2
GRPNAME
 70
     0
  0
APPID
  2
GPARA
 70
     0
  0
APPID
  2
HATCH_TYPE
 70
     0
  0
APPID
  2
HATCH_DISPLAY
 70
     0
  0
APPID
  2
HATCH_DISTANCE
 70
     0
  0
APPID
  2
ITEMNAME
 70
     0
  0
APPID
  2
MCAD_NO_VIS
 70
     0
  0
APPID
  2
ACAD_TEMP_GRAPHIC
 70
     0
  0
APPID
  2
AD_DRAW
 70
     0
  0
APPID
  2
ACATTRIBSERVICES
 70
     0
  0
APPID
  2
DESIGNERASSEMBLIES
 70
     0
  0
APPID
  2
ACADM_DIM_EDIT
 70
     0
  0
APPID
  2
AMDT_DM_ADJ
 70
     0
  0
APPID
  2
GENIUS_GENSCREG_15
 70
     0
  0
APPID
  2
GENIUS_GENOBJ-N-SDF_13
 70
     0
  0
APPID
  2
GENIUS_GENODEF_13
 70
     0
  0
ENDTAB
  0
TABLE
  2
DIMSTYLE
 70
     9
  0
DIMSTYLE
  2
STANDARD
 70
     0
  3

  4

  5

  6

  7

 40
1.0
 41
2.0
 42
2.0
 43
3.75
 44
2.0
 45
0.0
 46
0.0
 47
0.0
 48
0.0
140
4.0
141
0.09
142
0.0
143
25.399999999999999
144
1.0
145
0.0
146
1.0
147
1.0
 71
     0
 72
     0
 73
     1
 74
     1
 75
     0
 76
     0
 77
     0
 78
     8
170
     0
171
     2
172
     0
173
     1
174
     0
175
     0
176
   256
177
   256
178
   256
  0
DIMSTYLE
  2
BIGT
 70
     0
  3

  4

  5
OPEN
  6

  7

 40
1.0
 41
2.2299999999999991
 42
0.5
 43
2.5
 44
1.0
 45
0.0
 46
0.0
 47
0.0
 48
0.0
140
3.5
141
0.0
142
0.0
143
25.399999999999999
144
1.0
145
0.0
146
1.0
147
1.0
 71
     0
 72
     0
 73
     0
 74
     0
 75
     0
 76
     0
 77
     3
 78
     9
170
     0
171
     2
172
     1
173
     0
174
     0
175
     0
176
   256
177
   256
178
    40
  0
DIMSTYLE
  2
AM_ISO
 70
     0
  3

  4
"
  5

  6

  7

 40
1.0
 41
2.5
 42
1.0
 43
10.0
 44
1.0
 45
0.0
 46
0.0
 47
0.1
 48
0.1
140
3.5
141
0.0
142
0.0
143
0.0393701
144
1.0
145
0.0
146
0.71
147
1.5
 71
     0
 72
     0
 73
     0
 74
     0
 75
     0
 76
     0
 77
     1
 78
     8
170
     0
171
     2
172
     1
173
     0
174
     0
175
     0
176
   256
177
   256
178
     2
  0
DIMSTYLE
  2
AM_ISO$3
 70
     0
  3

  4
"
  5

  6

  7

 40
1.0
 41
2.5
 42
1.0
 43
10.0
 44
1.0
 45
0.0
 46
0.0
 47
0.1
 48
0.1
140
3.5
141
0.0
142
0.0
143
0.0393701
144
1.0
145
0.0
146
0.71
147
1.5
 71
     0
 72
     0
 73
     0
 74
     1
 75
     0
 76
     0
 77
     1
 78
     8
170
     0
171
     2
172
     0
173
     0
174
     0
175
     0
176
   256
177
   256
178
     2
  0
DIMSTYLE
  2
AM_ISO$4
 70
     0
  3

  4
"
  5

  6

  7

 40
1.0
 41
2.5
 42
1.0
 43
10.0
 44
1.0
 45
0.0
 46
0.0
 47
0.1
 48
0.1
140
3.5
141
0.0
142
0.0
143
0.0393701
144
1.0
145
0.0
146
0.71
147
1.5
 71
     0
 72
     0
 73
     0
 74
     1
 75
     0
 76
     0
 77
     1
 78
     8
170
     0
171
     2
172
     0
173
     0
174
     0
175
     0
176
   256
177
   256
178
     2
  0
DIMSTYLE
  2
AM_ISO$6
 70
     0
  3

  4
"
  5

  6

  7

 40
1.0
 41
2.5
 42
1.0
 43
10.0
 44
1.0
 45
0.0
 46
0.0
 47
0.1
 48
0.1
140
3.5
141
0.0
142
0.0
143
0.0393701
144
1.0
145
0.0
146
0.71
147
1.5
 71
     0
 72
     0
 73
     0
 74
     0
 75
     0
 76
     0
 77
     0
 78
     8
170
     0
171
     2
172
     1
173
     0
174
     0
175
     0
176
   256
177
   256
178
     2
  0
DIMSTYLE
  2
AM_ISO$7
 70
     0
  3

  4
"
  5

  6

  7

 40
1.0
 41
2.5
 42
1.0
 43
10.0
 44
1.0
 45
0.0
 46
0.0
 47
0.1
 48
0.1
140
5.0
141
0.0
142
0.0
143
0.0393701
144
1.0
145
0.0
146
0.71
147
1.5
 71
     0
 72
     0
 73
     0
 74
     0
 75
     0
 76
     0
 77
     1
 78
     8
170
     0
171
     2
172
     1
173
     0
174
     0
175
     0
176
   256
177
   256
178
     2
  0
DIMSTYLE
  2
AM_ISO$SF
 70
     0
  3

  4
"
  5

  6

  7

 40
1.0
 41
2.5
 42
1.0
 43
10.0
 44
1.0
 45
0.0
 46
0.0
 47
0.1
 48
0.1
140
3.5
141
0.0
142
0.0
143
0.0393701
144
1.0
145
0.0
146
0.71
147
1.5
 71
     0
 72
     0
 73
     0
 74
     0
 75
     1
 76
     1
 77
     1
 78
     8
170
     0
171
     2
172
     1
173
     0
174
     0
175
     0
176
   256
177
   256
178
     2
  0
DIMSTYLE
  2
AM_ISO$SH
 70
     0
  3

  4
"
  5

  6
GENAXEH
  7

 40
1.0
 41
2.5
 42
1.0
 43
10.0
 44
1.0
 45
0.0
 46
0.0
 47
0.1
 48
0.1
140
3.5
141
0.0
142
0.0
143
0.0393701
144
2.0
145
0.0
146
0.71
147
1.5
 71
     0
 72
     0
 73
     0
 74
     0
 75
     1
 76
     1
 77
     1
 78
     8
170
     0
171
     2
172
     1
173
     1
174
     0
175
     0
176
   256
177
   256
178
     2
  0
ENDTAB
  0
ENDSEC
  0
SECTION
  2
BLOCKS
  0
BLOCK
  8
0
  2
$MODEL_SPACE
 70
     0
 10
0.0
 20
0.0
 30
0.0
  3
$MODEL_SPACE
  1

  0
ENDBLK
  5
1C
  8
0
  0
BLOCK
 67
     1
  8
0
  2
$PAPER_SPACE
 70
     0
 10
0.0
 20
0.0
 30
0.0
  3
$PAPER_SPACE
  1

  0
ENDBLK
  5
19
 67
     1
  8
0
  0
BLOCK
  8
0
  2
_OPEN
 70
     0
 10
0.0
 20
0.0
 30
0.0
  3
_OPEN
  1

  0
LINE
  5
595
  8
0
  6
BYBLOCK
 62
     0
 10
-1.0
 20
0.1666666666666666
 30
0.0
 11
0.0
 21
0.0
 31
0.0
  0
LINE
  5
596
  8
0
  6
BYBLOCK
 62
     0
 10
-1.0
 20
-0.1666666666666666
 30
0.0
 11
0.0
 21
0.0
 31
0.0
  0
LINE
  5
597
  8
0
  6
BYBLOCK
 62
     0
 10
0.0
 20
0.0
 30
0.0
 11
-1.0
 21
0.0
 31
0.0
  0
ENDBLK
  5
599
  8
0
  0
BLOCK
  8
0
  2
A$C26D05CAA
 70
     0
 10
0.0
 20
0.0
 30
0.0
  3
A$C26D05CAA
  1

  0
LINE
  5
2B13
  8
240
 10
-37.177189595773783
 20
17.694015956904529
 30
0.0
 11
-34.99999999999995
 21
17.99999999999994
 31
0.0
1001
GRPNAME
1000
PASTMD0T
  0
LINE
  5
2B14
  8
240
 10
-37.177189595773783
 20
-17.69401595690459
 30
0.0
 11
-34.99999999999995
 21
-18.0
 31
0.0
1001
GRPNAME
1000
PASTMD0T
  0
LINE
  5
2B15
  8
245
 10
-42.000015259999941
 20
0.0
 30
0.0
 11
69.199966430000075
 21
0.0
 31
0.0
1001
GRPNAME
1000
PASTMD0S
  0
LINE
  5
2B16
  8
240
 10
-39.999999999999943
 20
-17.2679491924311
 30
0.0
 11
-39.999999999999943
 21
17.26794919243104
 31
0.0
1001
GRPNAME
1000
PASTMD0T
  0
LINE
  5
2B17
  8
241
 10
-37.177189595773783
 20
-17.69401595690459
 30
0.0
 11
-37.177189595773783
 21
17.694015956904529
 31
0.0
1001
GRPNAME
1000
PASTMD0V
  0
ARC
  5
2B18
  8
240
 10
-38.999999999999943
 20
-17.0
 30
0.0
 40
1.0000000000000071
 50
209.99999970689959
 51
279.99999970689407
1001
GRPNAME
1000
PASTMD0T
  0
LINE
  5
2B19
  8
240
 10
-39.999999999999943
 20
-17.2679491924311
 30
0.0
 11
-39.866025403784363
 21
-17.5
 31
0.0
1001
GRPNAME
1000
PASTMD0T
  0
LINE
  5
2B1A
  8
240
 10
-37.177189595773783
 20
-17.69401595690459
 30
0.0
 11
-38.826351822333038
 21
-17.984807753012259
 31
0.0
1001
GRPNAME
1000
PASTMD0T
  0
ARC
  5
2B1B
  8
240
 10
-38.999999999999943
 20
16.99999999999994
 30
0.0
 40
1.000000000000012
 50
80.000000017990587
 51
150.0000000179879
1001
GRPNAME
1000
PASTMD0T
  0
LINE
  5
2B1C
  8
240
 10
-39.999999999999943
 20
17.26794919243104
 30
0.0
 11
-39.866025403784363
 21
17.49999999999994
 31
0.0
1001
GRPNAME
1000
PASTMD0T
  0
LINE
  5
2B1D
  8
240
 10
-37.177189595773783
 20
17.694015956904529
 30
0.0
 11
-38.826351822333038
 21
17.984807753012198
 31
0.0
1001
GRPNAME
1000
PASTMD0T
  0
LINE
  5
2B1E
  8
240
 10
65.300000000000068
 20
-27.050000000000011
 30
0.0
 11
67.200000000000045
 21
-25.150000000000041
 31
0.0
1001
GRPNAME
1000
PASTMD0S
  0
TEXT
  5
2B1F
  8
247
 10
14.5531721558363
 20
-29.149390725686089
 30
0.0
 40
3.0
  1
EWB68-88CK6
 50
90.0
 41
0.85
  7
YOKO
 11
14.5531721558363
 21
-29.149390725686089
 31
0.0
 73
     1
  0
LINE
  5
2B20
  8
241
 10
29.00000000000006
 20
-30.5
 30
0.0
 11
29.00000000000006
 21
-4.3084219849035312
 31
0.0
1001
GRPNAME
1000
PASTMD0V
  0
LINE
  5
2B21
  8
245
 10
48.000000000000057
 20
-32.568355831315948
 30
0.0
 11
48.000000000000057
 21
41.788917113702652
 31
0.0
1001
GRPNAME
1000
PASTMD0W
  0
LINE
  5
2B22
  8
240
 10
0.0000000000000568
 20
-18.0
 30
0.0
 11
0.0000000000000568
 21
-29.0
 31
0.0
1001
GRPNAME
1000
PASTMD0S
  0
LINE
  5
2B23
  8
241
 10
0.500000000000057
 20
29.5
 30
0.0
 11
0.500000000000057
 21
-29.5
 31
0.0
  0
ARC
  5
2B24
  8
247
 10
6.9403247699073063
 20
-26.24187373446096
 30
0.0
 40
1.7177276611328109
 50
180.0
 51
0.0
1001
ACAD
1000
ASC_BOUNDS
1002
{
1070
    19
1005
2B26
1002
}
  0
ARC
  5
2B25
  8
247
 10
6.9403247699073063
 20
-26.24187373446096
 30
0.0
 40
2.1219024658203121
 50
180.0
 51
0.0
1001
ACAD
1000
ASC_BOUNDS
1002
{
1070
    19
1005
2B26
1002
}
  0
INSERT
  5
2B26
  8
247
  6
CONTINUOUS
  2
*X4
 10
0.0
 20
0.0
 30
0.0
1001
ACAD
1000
HATCH
1002
{
1070
    19
1000
ANSI31
1040
0.1
1040
1.5707963267948959
1000
ASC_BOUNDS
1070
     1
1070
     2
1070
    10
1005
2B82
1005
2B46
1005
2B47
1005
2B45
1005
2B44
1005
2B25
1005
2B24
1005
2B6D
1005
2B6E
1005
2B6C
1000
ASC_SEEDPOINT
1011
24.812217698984451
1021
0.0
1031
0.0
1021
-148.1637628488408
1031
0.0
1000
R14_HATCH_DATA
1000
2B26
1011
1.0
1021
0.0
1031
0.0
1021
0.0
1031
0.0
1011
0.0
1021
0.0
1031
0.0
1021
1.0
1031
0.0
1011
0.0
1021
0.0
1031
0.0
1021
0.0
1031
1.0
1040
0.0
1010
0.0
1020
0.0
1030
1.0
1000
ANSI31
1070
     0
1070
     1
1071
        1
1071
       33
1071
       10
1070
     1
1040
4.818422304086992
1040
-25.407202713953151
1040
5.222597108774492
1040
-25.523093216882842
1070
     1
1040
4.818422304086992
1040
-26.24187373446096
1040
4.818422304086992
1040
-25.407202713953151
1070
     1
1040
5.222597108774492
1040
-26.24187373446096
1040
5.222597108774492
1040
-25.523093216882842
1070
     2
1040
6.9403247699073063
1040
-26.24187373446096
1040
1.7177276611328109
1040
3.1415926535897931
1040
6.2831853071795862
1070
     1
1070
     2
1040
6.9403247699073063
1040
-26.24187373446096
1040
2.1219024658203121
1040
3.1415926535897931
1040
6.2831853071795862
1070
     1
1070
     1
1040
9.0622277021628861
1040
-26.24187373446096
1040
9.0622277021628861
1040
-18.037177079187579
1070
     1
1040
8.6580529078772752
1040
-26.24187373446096
1040
8.6580529078772752
1040
-18.037177079187579
1070
     2
1040
6.9403247699073063
1040
-18.037177079187579
1040
2.1219024658203121
1040
0.0
1040
3.3993916414318428
1070
     1
1070
     2
1040
6.9403247699073063
1040
-18.037177079187579
1040
1.7177276611328109
1040
0.0
1040
3.3881629353185918
1070
     1
1070
     1
1040
5.274538026743242
1040
-18.456442826257891
1040
4.8885364398291813
1040
-18.578162186609461
1071
       10
1005
2B6C
1005
2B6E
1005
2B6D
1005
2B24
1005
2B25
1005
2B44
1005
2B45
1005
2B47
1005
2B46
1005
2B82
1070
     0
1070
     1
1040
1.5707963267948959
1040
0.1
1070
     0
1070
     1
1040
2.3561944901923439
1040
24.812217698984451
1040
-148.1637628488408
1040
-0.2245064030267288
1040
-0.2245064030267288
1070
     0
1071
        1
1040
24.812217698984451
1040
-148.1637628488408
1040
0.0
1002
}
  0
LINE
  5
2B27
  8
240
 10
63.950000000000152
 20
-27.049999999999951
 30
0.0
 11
52.75384757729347
 21
-30.049999999999951
 31
0.0
1001
GRPNAME
1000
PASTMD0U
  0
LINE
  5
2B28
  8
241
 10
63.950000000000038
 20
-27.050000000000011
 30
0.0
 11
32.050000000000288
 21
-27.050000000000011
 31
0.0
1001
GRPNAME
1000
PASTMD0S
  0
LINE
  5
2B29
  8
240
 10
1.0000000000000551
 20
-31.5
 30
0.0
 11
29.00000000000006
 21
-31.5
 31
0.0
1001
GRPNAME
1000
PASTMD0V
  0
LINE
  5
2B2A
  8
240
 10
0.500000000000057
 20
-31.0
 30
0.0
 11
0.500000000000057
 21
-29.5
 31
0.0
1001
GRPNAME
1000
PASTMD0V
  0
LINE
  5
2B2B
  8
240
 10
0.500000000000057
 20
-31.0
 30
0.0
 11
1.0000000000000551
 21
-31.5
 31
0.0
1001
GRPNAME
1000
PASTMD0V
  0
LINE
  5
2B2C
  8
240
 10
0.500000000000057
 20
-29.5
 30
0.0
 11
0.0000000000000568
 21
-29.0
 31
0.0
1001
GRPNAME
1000
PASTMD0S
  0
LINE
  5
2B2D
  8
240
 10
43.246152422706757
 20
-30.049999999999951
 30
0.0
 11
32.049999999999947
 21
-27.049999999999951
 31
0.0
1001
GRPNAME
1000
PASTMD0U
  0
LINE
  5
2B2E
  8
240
 10
31.49999999999995
 20
-27.050000000000011
 30
0.0
 11
29.508141571295589
 21
-30.5
 31
0.0
1001
GRPNAME
1000
PASTMD0S
  0
LINE
  5
2B2F
  8
240
 10
29.00000000000006
 20
-30.5
 30
0.0
 11
29.508141571295699
 21
-30.5
 31
0.0
1001
GRPNAME
1000
PASTMD0S
  0
LINE
  5
2B30
  8
240
 10
29.00000000000006
 20
-30.5
 30
0.0
 11
29.00000000000006
 21
-31.5
 31
0.0
1001
GRPNAME
1000
PASTMD0S
  0
LINE
  5
2B31
  8
240
 10
32.050000000000288
 20
-27.050000000000011
 30
0.0
 11
31.49999999999995
 21
-27.050000000000011
 31
0.0
1001
GRPNAME
1000
PASTMD0S
  0
LINE
  5
2B32
  8
240
 10
52.75384757729347
 20
-30.049999999999951
 30
0.0
 11
43.246152422706757
 21
-30.049999999999951
 31
0.0
1001
GRPNAME
1000
PASTMD0U
  0
LINE
  5
2B33
  8
240
 10
65.300000000000068
 20
-27.050000000000011
 30
0.0
 11
63.950000000000038
 21
-27.050000000000011
 31
0.0
1001
GRPNAME
1000
PASTMD0S
  0
LINE
  5
2B34
  8
241
 10
60.050000000000061
 20
25.144935063769189
 30
0.0
 11
49.865759177573402
 21
25.144935063769189
 31
0.0
1001
GRPNAME
1000
PASTMD0W
  0
LINE
  5
2B35
  8
241
 10
60.500000000000107
 20
24.694935063769091
 30
0.0
 11
51.545182040979782
 21
24.694935063769091
 31
0.0
1001
GRPNAME
1000
PASTMD0W
  0
LINE
  5
2B36
  8
240
 10
39.00000000000005
 20
40.144935063769182
 30
0.0
 11
58.879925334818608
 21
40.144935063769182
 31
0.0
1001
GRPNAME
1000
PASTMD0V
  0
LINE
  5
2B37
  8
241
 10
36.00000000000005
 20
31.644935063769189
 30
0.0
 11
59.850000000000023
 21
31.644935063769189
 31
0.0
1001
GRPNAME
1000
PASTMD0V
  0
LINE
  5
2B38
  8
240
 10
59.850000000000023
 20
31.644935063769189
 30
0.0
 11
36.150000000000212
 21
31.64493506376925
 31
0.0
1001
GRPNAME
1000
PASTMD0W
  0
LINE
  5
2B39
  8
241
 10
35.950000000000159
 20
28.873651497465971
 30
0.0
 11
60.500000000000107
 21
22.295498823281889
 31
0.0
1001
GRPNAME
1000
PASTMD0S
  0
ARC
  5
2B3A
  8
240
 10
39.00000000000005
 20
37.144935063769189
 30
0.0
 40
3.0
 50
89.999999992281175
 51
179.99999999228109
1001
GRPNAME
1000
PASTMD0V
  0
LINE
  5
2B3B
  8
240
 10
1.0000000000000551
 20
31.5
 30
0.0
 11
29.00000000000006
 21
31.5
 31
0.0
1001
GRPNAME
1000
PASTMD0V
  0
LINE
  5
2B3C
  8
245
 10
-16.000000000000082
 20
9.4657437363994141
 30
0.0
 11
-16.000000000000082
 21
-9.8178655354471953
 31
0.0
1001
GRPNAME
1000
PASTMD0V
  0
LINE
  5
2B3D
  8
241
 10
-34.99999999999995
 20
18.0
 30
0.0
 11
-34.99999999999995
 21
0.0
 31
0.0
1001
GRPNAME
1000
PASTMD0T
  0
LINE
  5
2B3E
  8
241
 10
0.0
 20
0.0
 30
0.0
 11
0.0
 21
17.999999999999819
 31
0.0
1001
GRPNAME
1000
PASTMD0T
  0
LINE
  5
2B3F
  8
240
 10
-34.99999999999995
 20
-18.0
 30
0.0
 11
0.0000000000000568
 21
-18.0
 31
0.0
1001
GRPNAME
1000
PASTMD0T
  0
CIRCLE
  5
2B40
  8
241
 10
-16.000000000000082
 20
0.0
 30
0.0
 40
5.983500000000018
1001
GRPNAME
1000
PASTMD0V
  0
CIRCLE
  5
2B41
  8
241
 10
-16.000000000000082
 20
0.0
 30
0.0
 40
4.5
1001
GRPNAME
1000
PASTMD0V
  0
LINE
  5
2B42
  8
241
 10
-34.99999999999995
 20
-18.0
 30
0.0
 11
-34.99999999999995
 21
0.0
 31
0.0
1001
GRPNAME
1000
PASTMD0T
  0
LINE
  5
2B43
  8
241
 10
0.0000000000000568
 20
-18.0
 30
0.0
 11
0.0000000000000568
 21
0.0
 31
0.0
1001
GRPNAME
1000
PASTMD0T
  0
LINE
  5
2B44
  8
247
 10
9.0622277021628861
 20
-26.24187373446096
 30
0.0
 11
9.0622277021628861
 21
-18.037177079187579
 31
0.0
1001
ACAD
1000
ASC_BOUNDS
1002
{
1070
    19
1005
2B26
1002
}
  0
LINE
  5
2B45
  8
247
 10
8.6580529078772752
 20
-26.24187373446096
 30
0.0
 11
8.6580529078772752
 21
-18.037177079187579
 31
0.0
1001
ACAD
1000
ASC_BOUNDS
1002
{
1070
    19
1005
2B26
1002
}
  0
ARC
  5
2B46
  8
247
 10
6.9403247699073063
 20
-18.037177079187579
 30
0.0
 40
1.7177276611328109
 50
0.0
 51
194.12743649641189
1001
ACAD
1000
ASC_BOUNDS
1002
{
1070
    19
1005
2B26
1002
}
  0
ARC
  5
2B47
  8
247
 10
6.9403247699073063
 20
-18.037177079187579
 30
0.0
 40
2.1219024658203121
 50
0.0
 51
194.77079396609389
1001
ACAD
1000
ASC_BOUNDS
1002
{
1070
    19
1005
2B26
1002
}
  0
LINE
  5
2B48
  8
247
 10
4.818422304086992
 20
-22.232733719812579
 30
0.0
 11
4.818422304086992
 21
-21.181586258875079
 31
0.0
  0
INSERT
  5
2B49
  8
247
  6
CONTINUOUS
  2
*X5
 10
0.0
 20
0.0
 30
0.0
1001
ACAD
1000
HATCH
1002
{
1070
    19
1000
ANSI31
1040
0.1
1040
1.5707963267948959
1000
ASC_BOUNDS
1070
     1
1070
     1
1070
     1
1005
2B52
1000
ASC_SEEDPOINT
1011
6.5419466907519546
1021
0.0
1031
0.0
1021
-22.12656852381388
1031
0.0
1000
R14_HATCH_DATA
1000
2B49
1011
1.0
1021
0.0
1031
0.0
1021
0.0
1031
0.0
1011
0.0
1021
0.0
1031
0.0
1021
1.0
1031
0.0
1011
0.0
1021
0.0
1031
0.0
1021
0.0
1031
1.0
1040
0.0
1010
0.0
1020
0.0
1030
1.0
1000
ANSI31
1070
     0
1070
     1
1071
        1
1071
        7
1070
     0
1070
     1
1071
        6
1040
4.818422304086992
1040
-21.181586258875079
1040
4.818422304086992
1040
-22.232733719812579
1040
5.263002382211992
1040
-22.36022090242977
1040
5.263002382211992
1040
-22.213049881921961
1040
8.4559655055335252
1040
-23.128623002039141
1040
8.4559655055335252
1040
-22.224631302820391
1071
        1
1005
2B52
1070
     0
1070
     1
1040
1.5707963267948959
1040
0.1
1070
     0
1070
     1
1040
2.3561944901923439
1040
24.812217698984451
1040
-148.1637628488408
1040
-0.2245064030267288
1040
-0.2245064030267288
1070
     0
1040
0.0134348504236232
1071
        1
1040
6.5419466907519546
1040
-22.12656852381388
1040
0.0
1002
}
  0
POLYLINE
  5
2B4A
  8
247
 66
     1
 10
0.0
 20
0.0
 30
0.0
 70
     1
1001
HATCH_DISTANCE
1040
1.0
1001
HATCH_DISPLAY
1070
     0
1001
HATCH_TYPE
1070
     7
  0
VERTEX
  5
2B4B
  8
247
 10
4.818422304086992
 20
-22.232733719812579
 30
0.0
  0
VERTEX
  5
2B4C
  8
247
 10
5.263002382211992
 20
-22.36022090242977
 30
0.0
  0
VERTEX
  5
2B4D
  8
247
 10
5.263002382211992
 20
-22.213049881921961
 30
0.0
  0
VERTEX
  5
2B4E
  8
247
 10
8.4559655055335252
 20
-23.128623002039149
 30
0.0
  0
VERTEX
  5
2B4F
  8
247
 10
8.4559655055335252
 20
-22.224631302820399
 30
0.0
  0
VERTEX
  5
2B50
  8
247
 10
4.818422304086992
 20
-21.181586258875079
 30
0.0
  0
SEQEND
  5
2B51
  8
247
  0
POLYLINE
  5
2B52
  8
247
 66
     1
 10
0.0
 20
0.0
 30
0.0
 70
     1
1001
ACAD
1000
ASC_BOUNDS
1002
{
1070
    19
1005
2B49
1002
}
  0
VERTEX
  5
2B53
  8
247
 10
4.818422304086992
 20
-22.232733719812579
 30
0.0
  0
VERTEX
  5
2B54
  8
247
 10
5.263002382211992
 20
-22.36022090242977
 30
0.0
  0
VERTEX
  5
2B55
  8
247
 10
5.263002382211992
 20
-22.213049881921961
 30
0.0
  0
VERTEX
  5
2B56
  8
247
 10
8.4559655055335252
 20
-23.128623002039149
 30
0.0
  0
VERTEX
  5
2B57
  8
247
 10
8.4559655055335252
 20
-22.224631302820399
 30
0.0
  0
VERTEX
  5
2B58
  8
247
 10
4.818422304086992
 20
-21.181586258875079
 30
0.0
  0
SEQEND
  5
2B59
  8
247
  0
LINE
  5
2B5A
  8
247
 10
8.4559655055335252
 20
-22.224631302820399
 30
0.0
 11
4.818422304086992
 21
-21.181586258875079
 31
0.0
  0
LINE
  5
2B5B
  8
247
 10
7.2756679087912062
 20
-24.21117802397816
 30
0.0
 11
5.9503616742159693
 21
-22.88587178940292
 31
0.0
  0
LINE
  5
2B5C
  8
247
 10
5.233161216319103
 20
-24.09657010251868
 30
0.0
 11
6.3882770083530422
 21
-24.427786811205291
 31
0.0
  0
ARC
  5
2B5D
  8
247
 10
5.7884387835791813
 20
-24.339880936609461
 30
0.0
 40
0.6062452793121338
 50
351.66260168792928
 51
156.3381550951899
  0
LINE
  5
2B5E
  8
247
 10
6.9833922358291129
 20
-24.367915157069429
 30
0.0
 11
5.5370612923627487
 21
-22.921584213603179
 31
0.0
  0
LINE
  5
2B5F
  8
247
 10
8.4559655055335252
 20
-23.128623002039149
 30
0.0
 11
5.263002382211992
 21
-22.213049881921961
 31
0.0
  0
ARC
  5
2B60
  8
247
 10
5.8288440570166813
 20
-23.88896846102352
 30
0.0
 40
1.010430335998534
 50
17.669577547398159
 51
180.2361598426715
  0
LINE
  5
2B61
  8
247
 10
8.4559655055335252
 20
-26.029791825281279
 30
0.0
 11
5.2225971087757443
 21
-25.102637284266109
 31
0.0
  0
LINE
  5
2B62
  8
247
 10
6.8327926089503981
 20
-25.564353948351201
 30
0.0
 11
5.4180129615467632
 21
-24.149574300947499
 31
0.0
  0
LINE
  5
2B63
  8
247
 10
7.462319577239894
 20
-25.744868110587099
 30
0.0
 11
6.0475339715600267
 21
-24.330082504907349
 31
0.0
  0
LINE
  5
2B64
  8
247
 10
5.263002382211992
 20
-22.36022090242977
 30
0.0
 11
5.263002382211992
 21
-22.213049881921961
 31
0.0
  0
LINE
  5
2B65
  8
247
 10
5.263002382211992
 20
-22.36022090242977
 30
0.0
 11
4.818422304086992
 21
-22.232733719812579
 31
0.0
  0
LINE
  5
2B66
  8
247
 10
5.5158343378427608
 20
-23.798382871190029
 30
0.0
 11
5.0118582264519764
 21
-23.294406759799301
 31
0.0
  0
LINE
  5
2B67
  8
247
 10
5.2792659133202733
 20
-24.010827252721072
 30
0.0
 11
4.8624292738078321
 21
-23.593990613208629
 31
0.0
  0
LINE
  5
2B68
  8
247
 10
5.9130434092621726
 20
-23.746579136556019
 30
0.0
 11
5.2366958925074414
 21
-23.070231619801341
 31
0.0
  0
LINE
  5
2B69
  8
247
 10
5.222597108774492
 20
-25.31287287996923
 30
0.0
 11
5.2225971087757443
 21
-25.102637284266109
 31
0.0
  0
LINE
  5
2B6A
  8
247
 10
5.2225971087746057
 20
-25.301196866335712
 30
0.0
 11
4.818422304086992
 21
-24.897022061648212
 31
0.0
  0
LINE
  5
2B6B
  8
247
 10
4.818422304086992
 20
-25.196982377038861
 30
0.0
 11
5.222597108774492
 21
-25.31287287996923
 31
0.0
  0
LINE
  5
2B6C
  8
247
 10
4.818422304086992
 20
-25.407202713953151
 30
0.0
 11
5.222597108774492
 21
-25.523093216882842
 31
0.0
1001
ACAD
1000
ASC_BOUNDS
1002
{
1070
    19
1005
2B26
1002
}
  0
LINE
  5
2B6D
  8
247
 10
5.222597108774492
 20
-26.24187373446096
 30
0.0
 11
5.222597108774492
 21
-25.523093216882842
 31
0.0
1001
ACAD
1000
ASC_BOUNDS
1002
{
1070
    19
1005
2B26
1002
}
  0
LINE
  5
2B6E
  8
247
 10
4.818422304086992
 20
-26.24187373446096
 30
0.0
 11
4.818422304086992
 21
-25.407202713953151
 31
0.0
1001
ACAD
1000
ASC_BOUNDS
1002
{
1070
    19
1005
2B26
1002
}
  0
LINE
  5
2B6F
  8
247
 10
4.818422304086992
 20
-25.196982377038861
 30
0.0
 11
4.8184223040871057
 21
-23.893133207459471
 31
0.0
  0
LINE
  5
2B70
  8
247
 10
6.203265640661014
 20
-25.383839786115171
 30
0.0
 11
4.8184223040871057
 21
-23.99899644954138
 31
0.0
  0
LINE
  5
2B71
  8
247
 10
5.5737386723715181
 20
-25.203325623879259
 30
0.0
 11
4.8184223040871057
 21
-24.448009255594801
 31
0.0
  0
LINE
  5
2B72
  8
247
 10
8.4559655055335252
 20
-23.128623002039149
 30
0.0
 11
8.4559655055335252
 21
-22.224631302820399
 31
0.0
  0
LINE
  5
2B73
  8
247
 10
8.3802087621839974
 20
-23.968680459210528
 30
0.0
 11
7.8294085480874838
 21
-23.41788024511407
 31
0.0
  0
LINE
  5
2B74
  8
247
 10
8.4559655055335252
 20
-24.493450008613589
 30
0.0
 11
7.3133272157215261
 21
-23.350811718801591
 31
0.0
  0
LINE
  5
2B75
  8
247
 10
8.4559655055335252
 20
-25.391475620720541
 30
0.0
 11
7.9361066303713397
 21
-24.871616745558299
 31
0.0
  0
LINE
  5
2B76
  8
247
 10
8.4559655055335252
 20
-25.840488426773899
 30
0.0
 11
7.3065889632887311
 21
-24.6911118845291
 31
0.0
  0
ARC
  5
2B77
  8
247
 10
7.405122743540117
 20
-24.80345820711727
 30
0.0
 40
0.6062626242637637
 50
351.66285421114878
 51
156.3381921591137
  0
LINE
  5
2B78
  8
247
 10
8.4559655055335252
 20
-24.94246281466706
 30
0.0
 11
6.9729562523899631
 21
-23.459453561523439
 31
0.0
  0
LINE
  5
2B79
  8
247
 10
6.849828353008772
 20
-24.560142549126219
 30
0.0
 11
8.0049784069310572
 21
-24.891364706746341
 31
0.0
  0
LINE
  5
2B7A
  8
247
 10
8.0918465455292772
 20
-25.925382272823128
 30
0.0
 11
6.381740583632677
 21
-24.21527631092653
 31
0.0
  0
LINE
  5
2B7B
  8
247
 10
8.4559655055335252
 20
-26.029791825281279
 30
0.0
 11
8.4559655055335252
 21
-24.352545731531329
 31
0.0
  0
ARC
  5
2B7C
  8
247
 10
7.4455432757666813
 20
-24.352545731531329
 30
0.0
 40
1.0104217529296871
 50
0.0
 51
130.32984065416761
  0
ARC
  5
2B7D
  8
247
 10
7.2114734515479313
 20
-17.976477616296961
 30
0.0
 40
3.43743896484375
 50
245.2051773698407
 51
262.79482596205219
1001
ACAD
1000
ASC_BOUNDS
1002
{
1070
    19
1005
2B7F
1002
}
  0
LINE
  5
2B7E
  8
247
 10
7.4700183734229313
 20
-20.57543086336727
 30
0.0
 11
5.570405946665117
 21
-20.030722611414149
 31
0.0
1001
ACAD
1000
ASC_BOUNDS
1002
{
1070
    19
1005
2B7F
1002
}
  0
INSERT
  5
2B7F
  8
247
  6
CONTINUOUS
  2
*X6
 10
0.0
 20
0.0
 30
0.0
1001
ACAD
1000
HATCH
1002
{
1070
    19
1000
ANSI31
1040
0.1
1040
1.5707963267948959
1000
ASC_BOUNDS
1070
     1
1070
     2
1070
    15
1005
2B80
1005
2B9D
1005
2B7D
1005
2BA5
1005
2BA3
1005
2BA2
1005
2B9F
1005
2BA0
1005
2BA1
1005
2B9E
1005
2BA4
1005
2B7E
1005
2B9B
1005
2B9C
1005
2B81
1000
ASC_SEEDPOINT
1011
24.812217698984451
1021
0.0
1031
0.0
1021
-148.1637628488408
1031
0.0
1000
R14_HATCH_DATA
1000
2B7F
1011
1.0
1021
0.0
1031
0.0
1021
0.0
1031
0.0
1011
0.0
1021
0.0
1031
0.0
1021
1.0
1031
0.0
1011
0.0
1021
0.0
1031
0.0
1021
0.0
1031
1.0
1040
0.0
1010
0.0
1020
0.0
1030
1.0
1000
ANSI31
1070
     0
1070
     1
1071
        1
1071
       33
1071
       15
1070
     1
1040
5.3353137835791813
1040
-18.649176590906329
1040
4.949312196665117
1040
-18.770895951257899
1070
     2
1040
6.9403247699073063
1040
-18.037177079187579
1040
1.717732429504393
1040
3.5058809760360892
1040
3.8840897327625181
1070
     1
1070
     2
1040
5.6873950824073063
1040
-19.622778885828211
1040
0.4243833422660829
1040
1.600643575520647
1040
4.4331083460772751
1070
     1
1070
     1
1040
7.4700183734229313
1040
-20.57543086336727
1040
5.570405946665117
1040
-20.030722611414149
1070
     2
1040
7.5869922503760563
1040
-20.167487137781329
1040
0.4243830442428589
1040
4.433141065812503
1040
7.574733719402297
1070
     1
1070
     1
1040
7.7039661273291813
1040
-19.759543412195391
1040
6.798860536508867
1040
-19.500006669031329
1070
     1
1040
6.798860536508867
1040
-19.836371415125079
1040
6.798860536508867
1040
-19.500006669031329
1070
     1
1040
6.798860536508867
1040
-19.836371415125079
1040
6.394685731821367
1040
-19.720480912195391
1070
     1
1040
6.394685731821367
1040
-19.720480912195391
1040
6.394685731821367
1040
-18.543189042078211
1070
     1
1040
8.4559655055335252
1040
-19.134253495203211
1040
6.394685731821367
1040
-18.543189042078211
1070
     1
1040
8.2188896998694627
1040
-19.371344559656329
1040
8.4559655055335252
1040
-19.134253495203211
1070
     2
1040
7.1424121722510563
1040
-20.124091141687579
1040
1.313568115234375
1040
4.4331319489899528
1040
6.8934200153686511
1070
     1
1070
     2
1040
7.2114734515479313
1040
-17.976477616296961
1040
3.43743896484375
1040
4.2796376880404088
1040
4.5866349702432849
1070
     1
1070
     2
1040
6.1319751605323063
1040
-19.834357254968829
1040
1.3135547637939451
1040
2.5035703051095641
1040
4.4331395182378071
1070
     1
1070
     2
1040
6.9403247699073063
1040
-18.037177079187579
1040
2.121903419494628
1040
3.4946665664545451
1040
3.6402626981642419
1070
     1
1071
       15
1005
2B81
1005
2B9C
1005
2B9B
1005
2B7E
1005
2BA4
1005
2B9E
1005
2BA1
1005
2BA0
1005
2B9F
1005
2BA2
1005
2BA3
1005
2BA5
1005
2B7D
1005
2B9D
1005
2B80
1070
     0
1070
     1
1040
1.5707963267948959
1040
0.1
1070
     0
1070
     1
1040
2.3561944901923439
1040
24.812217698984451
1040
-148.1637628488408
1040
-0.2245064030267288
1040
-0.2245064030267288
1070
     0
1071
        1
1040
24.812217698984451
1040
-148.1637628488408
1040
0.0
1002
}
  0
ARC
  5
2B80
  8
247
 10
6.9403247699073063
 20
-18.037177079187579
 30
0.0
 40
2.121903419494628
 50
200.22964506332011
 51
208.57168892371661
1001
ACAD
1000
ASC_BOUNDS
1002
{
1070
    19
1005
2B7F
1002
}
  0
LINE
  5
2B81
  8
247
 10
5.3353137835791813
 20
-18.649176590906329
 30
0.0
 11
4.949312196665117
 21
-18.770895951257899
 31
0.0
1001
ACAD
1000
ASC_BOUNDS
1002
{
1070
    19
1005
2B7F
1002
}
  0
LINE
  5
2B82
  8
247
 10
5.274538026743242
 20
-18.456442826257891
 30
0.0
 11
4.8885364398291813
 21
-18.578162186609461
 31
0.0
1001
ACAD
1000
ASC_BOUNDS
1002
{
1070
    19
1005
2B26
1002
}
  0
POLYLINE
  5
2B83
  8
247
 66
     1
 10
0.0
 20
0.0
 30
0.0
 70
     1
1001
HATCH_DISTANCE
1040
1.0
1001
HATCH_DISPLAY
1070
     0
1001
HATCH_TYPE
1070
     7
  0
VERTEX
  5
2B84
  8
247
 10
5.274538026743242
 20
-18.456442826257891
 30
0.0
  0
VERTEX
  5
2B85
  8
247
 10
4.8885364398291813
 20
-18.578162186609461
 30
0.0
  0
VERTEX
  5
2B86
  8
247
 10
4.8885364398291813
 20
-18.578162186609461
 30
0.0
  0
VERTEX
  5
2B87
  8
247
 10
5.274538026743242
 20
-18.456442826257891
 30
0.0
  0
SEQEND
  5
2B88
  8
247
  0
POLYLINE
  5
2B89
  8
247
 66
     1
 10
0.0
 20
0.0
 30
0.0
 70
     1
  0
VERTEX
  5
2B8A
  8
247
 10
5.274538026743242
 20
-18.456442826257891
 30
0.0
  0
VERTEX
  5
2B8B
  8
247
 10
4.8885364398291813
 20
-18.578162186609461
 30
0.0
  0
VERTEX
  5
2B8C
  8
247
 10
4.8885364398291813
 20
-18.578162186609461
 30
0.0
  0
VERTEX
  5
2B8D
  8
247
 10
5.274538026743242
 20
-18.456442826257891
 30
0.0
  0
SEQEND
  5
2B8E
  8
247
  0
POLYLINE
  5
2B8F
  8
247
 66
     1
 10
0.0
 20
0.0
 30
0.0
 70
     1
1001
HATCH_DISTANCE
1040
1.0
1001
HATCH_DISPLAY
1070
     0
1001
HATCH_TYPE
1070
     7
  0
VERTEX
  5
2B90
  8
247
 10
5.274538026743242
 20
-18.456442826257891
 30
0.0
  0
VERTEX
  5
2B91
  8
247
 10
4.8885364398291813
 20
-18.578162186609461
 30
0.0
  0
VERTEX
  5
2B92
  8
247
 10
4.8885364398291813
 20
-18.578162186609461
 30
0.0
  0
VERTEX
  5
2B93
  8
247
 10
5.274538026743242
 20
-18.456442826257891
 30
0.0
  0
SEQEND
  5
2B94
  8
247
  0
POLYLINE
  5
2B95
  8
247
 66
     1
 10
0.0
 20
0.0
 30
0.0
 70
     1
  0
VERTEX
  5
2B96
  8
247
 10
5.274538026743242
 20
-18.456442826257891
 30
0.0
  0
VERTEX
  5
2B97
  8
247
 10
4.8885364398291813
 20
-18.578162186609461
 30
0.0
  0
VERTEX
  5
2B98
  8
247
 10
4.8885364398291813
 20
-18.578162186609461
 30
0.0
  0
VERTEX
  5
2B99
  8
247
 10
5.274538026743242
 20
-18.456442826257891
 30
0.0
  0
SEQEND
  5
2B9A
  8
247
  0
ARC
  5
2B9B
  8
247
 10
5.6873950824073063
 20
-19.622778885828211
 30
0.0
 40
0.4243833422660829
 50
91.710121382062738
 51
253.9983983544486
1001
ACAD
1000
ASC_BOUNDS
1002
{
1070
    19
1005
2B7F
1002
}
  0
ARC
  5
2B9C
  8
247
 10
6.9403247699073063
 20
-18.037177079187579
 30
0.0
 40
1.717732429504393
 50
200.8721834020736
 51
222.5419489373881
1001
ACAD
1000
ASC_BOUNDS
1002
{
1070
    19
1005
2B7F
1002
}
  0
ARC
  5
2B9D
  8
247
 10
6.1319751605323063
 20
-19.834357254968829
 30
0.0
 40
1.3135547637939451
 50
143.44401219705779
 51
254.00018438768541
1001
ACAD
1000
ASC_BOUNDS
1002
{
1070
    19
1005
2B7F
1002
}
  0
LINE
  5
2B9E
  8
247
 10
7.7039661273291813
 20
-19.759543412195391
 30
0.0
 11
6.798860536508867
 21
-19.500006669031329
 31
0.0
1001
ACAD
1000
ASC_BOUNDS
1002
{
1070
    19
1005
2B7F
1002
}
  0
LINE
  5
2B9F
  8
247
 10
6.394685731821367
 20
-19.720480912195391
 30
0.0
 11
6.394685731821367
 21
-18.543189042078211
 31
0.0
1001
ACAD
1000
ASC_BOUNDS
1002
{
1070
    19
1005
2B7F
1002
}
  0
LINE
  5
2BA0
  8
247
 10
6.798860536508867
 20
-19.836371415125079
 30
0.0
 11
6.394685731821367
 21
-19.720480912195391
 31
0.0
1001
ACAD
1000
ASC_BOUNDS
1002
{
1070
    19
1005
2B7F
1002
}
  0
LINE
  5
2BA1
  8
247
 10
6.798860536508867
 20
-19.836371415125079
 30
0.0
 11
6.798860536508867
 21
-19.500006669031329
 31
0.0
1001
ACAD
1000
ASC_BOUNDS
1002
{
1070
    19
1005
2B7F
1002
}
  0
LINE
  5
2BA2
  8
247
 10
8.4559655055335252
 20
-19.134253495203211
 30
0.0
 11
6.394685731821367
 21
-18.543189042078211
 31
0.0
1001
ACAD
1000
ASC_BOUNDS
1002
{
1070
    19
1005
2B7F
1002
}
  0
LINE
  5
2BA3
  8
247
 10
8.2188896998694627
 20
-19.371344559656329
 30
0.0
 11
8.4559655055335252
 21
-19.134253495203211
 31
0.0
1001
ACAD
1000
ASC_BOUNDS
1002
{
1070
    19
1005
2B7F
1002
}
  0
ARC
  5
2BA4
  8
247
 10
7.5869922503760563
 20
-20.167487137781329
 30
0.0
 40
0.4243830442428589
 50
254.00027305718399
 51
74.00027305718406
1001
ACAD
1000
ASC_BOUNDS
1002
{
1070
    19
1005
2B7F
1002
}
  0
ARC
  5
2BA5
  8
247
 10
7.1424121722510563
 20
-20.124091141687579
 30
0.0
 40
1.313568115234375
 50
253.99975070172931
 51
34.963873291630819
1001
ACAD
1000
ASC_BOUNDS
1002
{
1070
    19
1005
2B7F
1002
}
  0
LINE
  5
2BA6
  8
240
 10
-34.999999999999829
 20
18.0
 30
0.0
 11
0.0000000000000568
 21
17.999999999999879
 31
0.0
1001
GRPNAME
1000
PASTMD0T
  0
LINE
  5
2BA7
  8
240
 10
0.0000000000000568
 20
29.0
 30
0.0
 11
0.0000000000000568
 21
17.999999999999879
 31
0.0
1001
GRPNAME
1000
PASTMD0S
  0
LINE
  5
2BA8
  8
240
 10
1.0000000000000551
 20
31.5
 30
0.0
 11
0.500000000000057
 21
31.0
 31
0.0
1001
GRPNAME
1000
PASTMD0V
  0
LINE
  5
2BA9
  8
240
 10
0.500000000000057
 20
29.5
 30
0.0
 11
0.0000000000000568
 21
29.0
 31
0.0
1001
GRPNAME
1000
PASTMD0S
  0
LINE
  5
2BAA
  8
240
 10
0.500000000000057
 20
29.5
 30
0.0
 11
0.500000000000057
 21
31.0
 31
0.0
1001
GRPNAME
1000
PASTMD0V
  0
LINE
  5
2BAB
  8
241
 10
29.00000000000006
 20
4.3084219849035312
 30
0.0
 11
29.00000000000006
 21
31.5
 31
0.0
1001
GRPNAME
1000
PASTMD0V
  0
LINE
  5
2BAC
  8
241
 10
32.00000000000005
 20
3.464101615137734
 30
0.0
 11
35.000000000000107
 21
1.732050807568839
 31
0.0
1001
GRPNAME
1000
PASTMD0X
  0
LINE
  5
2BAD
  8
241
 10
35.000000000000107
 20
-1.732050807568839
 30
0.0
 11
32.00000000000005
 21
-3.4641016151377921
 31
0.0
1001
GRPNAME
1000
PASTMD0X
  0
CIRCLE
  5
2BAE
  8
241
 10
32.00000000000005
 20
0.0
 30
0.0
 40
5.25
1001
GRPNAME
1000
PASTMD0X
  0
CIRCLE
  5
2BAF
  8
242
 10
32.00000000000005
 20
0.0
 30
0.0
 40
5.0
1001
GRPNAME
1000
PASTMD0X
  0
LINE
  5
2BB0
  8
241
 10
29.00000000000006
 20
-1.7320508075688961
 30
0.0
 11
29.00000000000006
 21
1.7320508075688961
 31
0.0
1001
GRPNAME
1000
PASTMD0X
  0
LINE
  5
2BB1
  8
245
 10
32.00000000000005
 20
-6.4457665469913641
 30
0.0
 11
32.00000000000005
 21
5.7130527273479847
 31
0.0
1001
GRPNAME
1000
PASTMD0S
  0
LINE
  5
2BB2
  8
241
 10
32.00000000000005
 20
-3.4641016151377921
 30
0.0
 11
29.00000000000006
 21
-1.7320508075688961
 31
0.0
1001
GRPNAME
1000
PASTMD0X
  0
LINE
  5
2BB3
  8
241
 10
29.00000000000006
 20
1.7320508075688961
 30
0.0
 11
32.00000000000005
 21
3.464101615137734
 31
0.0
1001
GRPNAME
1000
PASTMD0X
  0
LINE
  5
2BB4
  8
241
 10
35.000000000000107
 20
1.732050807568839
 30
0.0
 11
35.000000000000107
 21
-1.732050807568839
 31
0.0
1001
GRPNAME
1000
PASTMD0X
  0
LINE
  5
2BB5
  8
240
 10
31.00000000000011
 20
30.199999999999999
 30
0.0
 11
35.950000000000159
 21
28.873651497465971
 31
0.0
1001
GRPNAME
1000
PASTMD0S
  0
LINE
  5
2BB6
  8
240
 10
30.651666049839658
 20
31.5
 30
0.0
 11
31.00000000000011
 21
30.199999999999999
 31
0.0
1001
GRPNAME
1000
PASTMD0S
  0
LINE
  5
2BB7
  8
240
 10
30.651666049839658
 20
31.5
 30
0.0
 11
29.00000000000006
 21
31.5
 31
0.0
1001
GRPNAME
1000
PASTMD0S
  0
LINE
  5
2BB8
  8
240
 10
30.651666049839601
 20
31.5
 30
0.0
 11
29.00000000000006
 21
31.5
 31
0.0
1001
GRPNAME
1000
PASTMD0S
  0
LINE
  5
2BB9
  8
240
 10
35.950000000000159
 20
28.873651497465911
 30
0.0
 11
35.950000000000159
 21
31.444935063769151
 31
0.0
1001
GRPNAME
1000
PASTMD0W
  0
LINE
  5
2BBA
  8
240
 10
36.00000000000005
 20
31.644935063769189
 30
0.0
 11
36.00000000000005
 21
37.144935063769189
 31
0.0
1001
GRPNAME
1000
PASTMD0V
  0
LINE
  5
2BBB
  8
240
 10
36.150000000000212
 20
31.64493506376925
 30
0.0
 11
35.950000000000159
 21
31.444935063769151
 31
0.0
1001
GRPNAME
1000
PASTMD0W
  0
LINE
  5
2BBC
  8
241
 10
50.398783303653659
 20
33.444935063769201
 30
0.0
 11
45.601216696346683
 21
33.444935063769201
 31
0.0
1001
GRPNAME
1000
PASTMD0W
  0
LINE
  5
2BBD
  8
241
 10
45.368207175174561
 20
33.247677943461781
 30
0.0
 11
45.601216696346683
 21
33.444935063769201
 31
0.0
1001
GRPNAME
1000
PASTMD0W
  0
LINE
  5
2BBE
  8
241
 10
45.368207175174561
 20
33.247677943461781
 30
0.0
 11
45.100000000000129
 21
31.644935063769189
 31
0.0
1001
GRPNAME
1000
PASTMD0W
  0
LINE
  5
2BBF
  8
241
 10
50.398783303653659
 20
33.444935063769201
 30
0.0
 11
50.631792824825752
 21
33.247677943461781
 31
0.0
1001
GRPNAME
1000
PASTMD0W
  0
LINE
  5
2BC0
  8
241
 10
50.900000000000212
 20
31.644935063769189
 30
0.0
 11
50.631792824825752
 21
33.247677943461781
 31
0.0
1001
GRPNAME
1000
PASTMD0W
  0
LINE
  5
2BC1
  8
241
 10
70.999451813897281
 20
43.579065617502792
 30
0.0
 11
70.496352443118184
 21
33.979357756159857
 31
0.0
1001
GRPNAME
1000
PASTMD0V
  0
ARC
  5
2BC2
  8
241
 10
62.034859437773711
 20
39.235842905051179
 30
0.0
 40
0.4000000000000658
 50
117.0000000105309
 51
237.00000001053741
1001
GRPNAME
1000
PASTMD0V
  0
CIRCLE
  5
2BC3
  8
246
 10
67.577253355661867
 20
38.945378347902761
 30
0.0
 40
3.174999999999998
1001
GRPNAME
1000
PASTMD0V
  0
LINE
  5
2BC4
  8
241
 10
58.392304845413378
 20
31.644935063769189
 30
0.0
 11
58.392304845413378
 21
40.144935063769182
 31
0.0
1001
GRPNAME
1000
PASTMD0V
  0
LINE
  5
2BC5
  8
240
 10
67.200000000000045
 20
20.500239233993401
 30
0.0
 11
67.200000000000045
 21
-25.150000000000041
 31
0.0
1001
GRPNAME
1000
PASTMD0S
  0
LINE
  5
2BC6
  8
240
 10
60.500000000000107
 20
22.295498823281889
 30
0.0
 11
60.500000000000107
 21
24.694935063769091
 31
0.0
1001
GRPNAME
1000
PASTMD0W
  0
LINE
  5
2BC7
  8
240
 10
60.500000000000107
 20
22.295498823281889
 30
0.0
 11
67.200000000000045
 21
20.500239233993401
 31
0.0
1001
GRPNAME
1000
PASTMD0S
  0
LINE
  5
2BC8
  8
241
 10
69.879045015210352
 20
33.664823911478827
 30
0.0
 11
61.817003823767649
 21
38.900374677872939
 31
0.0
1001
GRPNAME
1000
PASTMD0V
  0
LINE
  5
2BC9
  8
240
 10
59.850000000000023
 20
31.644935063769189
 30
0.0
 11
70.143694894322493
 21
31.644935063769189
 31
0.0
1001
GRPNAME
1000
PASTMD0V
  0
LINE
  5
2BCA
  8
240
 10
60.050000000000182
 20
25.14493506376914
 30
0.0
 11
60.050000000000182
 21
31.44493506376903
 31
0.0
1001
GRPNAME
1000
PASTMD0W
  0
LINE
  5
2BCB
  8
240
 10
60.500000000000107
 20
24.694935063769091
 30
0.0
 11
60.050000000000182
 21
25.14493506376914
 31
0.0
1001
GRPNAME
1000
PASTMD0W
  0
LINE
  5
2BCC
  8
240
 10
60.050000000000182
 20
31.44493506376903
 30
0.0
 11
59.850000000000023
 21
31.644935063769189
 31
0.0
1001
GRPNAME
1000
PASTMD0W
  0
ARC
  5
2BCD
  8
241
 10
70.096900629216336
 20
34.00029213865696
 30
0.0
 40
0.4000000000000083
 50
237.00000000024099
 51
357.00000000025852
1001
GRPNAME
1000
PASTMD0V
  0
LINE
  5
2BCE
  8
240
 10
70.143694894322493
 20
31.644935063769189
 30
0.0
 11
70.247717986312054
 21
33.629813900701372
 31
0.0
1001
GRPNAME
1000
PASTMD0V
  0
LINE
  5
2BCF
  8
241
 10
61.853263237877911
 20
39.592245514726528
 30
0.0
 11
70.418403800099668
 21
43.956402609675351
 31
0.0
1001
GRPNAME
1000
PASTMD0V
  0
LINE
  5
2BD0
  8
240
 10
59.870916732488908
 20
41.861382514397739
 30
0.0
 11
69.712477547072979
 21
43.596715218292047
 31
0.0
1001
GRPNAME
1000
PASTMD0V
  0
LINE
  5
2BD1
  8
240
 10
58.879925334818608
 20
40.144935063769182
 30
0.0
 11
59.870916732488908
 21
41.861382514397739
 31
0.0
1001
GRPNAME
1000
PASTMD0V
  0
ARC
  5
2BD2
  8
241
 10
70.599999999995475
 20
43.599999999999952
 30
0.0
 40
0.4000000000000382
 50
357.00000022650221
 51
117.0000002265018
1001
GRPNAME
1000
PASTMD0V
  0
ENDBLK
  5
2BD4
  8
0
  0
BLOCK
  8
0
  2
GENAXEH
 70
     0
 10
0.0
 20
0.0
 30
0.0
  3
GENAXEH
  1

  0
LINE
  5
2CA3
  8
0
 10
-1.0
 20
0.0
 30
0.0
 11
1.0
 21
0.0
 31
0.0
  0
ENDBLK
  5
2CA5
  8
0
  0
BLOCK
  8
0
  2
*X4
 70
     1
 10
0.0
 20
0.0
 30
0.0
  3
*X4
  1

  0
LINE
  5
2D71
  8
0
 62
     0
 10
8.9489851386015289
 20
-17.353251938772729
 30
0.0
 11
7.6242499103221633
 21
-16.028516710493381
 31
0.0
  0
LINE
  5
2D72
  8
0
 62
     0
 10
7.5963971100114662
 20
-16.44967671623613
 30
0.0
 11
7.0657023605577933
 21
-15.91898196678245
 31
0.0
  0
LINE
  5
2D73
  8
0
 62
     0
 10
9.0585198823124244
 20
-17.911799488537099
 30
0.0
 11
8.5278251328587515
 21
-17.381104739083408
 31
0.0
  0
LINE
  5
2D74
  8
0
 62
     0
 10
7.0189577536376779
 20
-16.321250165915799
 30
0.0
 11
6.6350558706499916
 21
-15.937348282928101
 31
0.0
  0
LINE
  5
2D75
  8
0
 62
     0
 10
9.0622277021629003
 20
-18.36452011444101
 30
0.0
 11
8.6562516831790912
 21
-17.958544095457199
 31
0.0
  0
LINE
  5
2D76
  8
0
 62
     0
 10
6.6018268802959881
 20
-16.353132098627551
 30
0.0
 11
6.271975355419741
 21
-16.023280573751311
 31
0.0
  0
LINE
  5
2D77
  8
0
 62
     0
 10
9.0622277021628861
 20
-18.81353292049446
 30
0.0
 11
8.6580529078772752
 21
-18.40935812620884
 31
0.0
  0
LINE
  5
2D78
  8
0
 62
     0
 10
6.2597204724149123
 20
-16.460038496799939
 30
0.0
 11
5.9567079763360189
 21
-16.157026000721039
 31
0.0
  0
LINE
  5
2D79
  8
0
 62
     0
 10
9.0622277021628861
 20
-19.262545726547909
 30
0.0
 11
8.6580529078772628
 21
-18.8583709322623
 31
0.0
  0
LINE
  5
2D7A
  8
0
 62
     0
 10
5.9702575106599616
 20
-16.619588341098432
 30
0.0
 11
5.6804527485949441
 21
-16.329783579033421
 31
0.0
  0
LINE
  5
2D7B
  8
0
 62
     0
 10
9.0622277021628861
 20
-19.711558532601369
 30
0.0
 11
8.6580529078772752
 21
-19.30738373831575
 31
0.0
  0
LINE
  5
2D7C
  8
0
 62
     0
 10
5.7249624577673748
 20
-16.823306094259319
 30
0.0
 11
5.4391676689907049
 21
-16.537511305482649
 31
0.0
  0
LINE
  5
2D7D
  8
0
 62
     0
 10
9.0622277021628861
 20
-20.16057133865484
 30
0.0
 11
8.6580529078772628
 21
-19.75639654436921
 31
0.0
  0
LINE
  5
2D7E
  8
0
 62
     0
 10
5.5215251904424463
 20
-17.06888163298785
 30
0.0
 11
5.2316656304505207
 21
-16.779022072995929
 31
0.0
  0
LINE
  5
2D7F
  8
0
 62
     0
 10
9.0622277021628861
 20
-20.60958414470829
 30
0.0
 11
8.6580529078772752
 21
-20.205409350422698
 31
0.0
  0
LINE
  5
2D80
  8
0
 62
     0
 10
5.3622881971722904
 20
-17.358657445771161
 30
0.0
 11
5.0591500937598681
 21
-17.055519342358728
 31
0.0
  0
LINE
  5
2D81
  8
0
 62
     0
 10
9.0622277021628861
 20
-21.05859695076175
 30
0.0
 11
8.6580529078772628
 21
-20.654422156476141
 31
0.0
  0
LINE
  5
2D82
  8
0
 62
     0
 10
5.2557821926409503
 20
-17.70116424729326
 30
0.0
 11
4.925686099100445
 21
-17.371068153752759
 31
0.0
  0
LINE
  5
2D83
  8
0
 62
     0
 10
9.0622277021628861
 20
-21.507609756815199
 30
0.0
 11
8.6580529078772752
 21
-21.10343496252959
 31
0.0
  0
LINE
  5
2D84
  8
0
 62
     0
 10
5.2245440983709273
 20
-18.118938959076701
 30
0.0
 11
4.840118838800918
 21
-17.734513699506689
 31
0.0
  0
LINE
  5
2D85
  8
0
 62
     0
 10
9.0622277021629003
 20
-21.95662256286867
 30
0.0
 11
8.6580529078772752
 21
-21.55244776858305
 31
0.0
  0
LINE
  5
2D86
  8
0
 62
     0
 10
5.1517533290006687
 20
-18.495160995759921
 30
0.0
 11
4.8223198452994751
 21
-18.165727512058709
 31
0.0
  0
LINE
  5
2D87
  8
0
 62
     0
 10
9.0622277021628861
 20
-22.40563536892212
 30
0.0
 11
8.6580529078772628
 21
-22.001460574636489
 31
0.0
  0
LINE
  5
2D88
  8
0
 62
     0
 10
9.0622277021628861
 20
-22.854648174975559
 30
0.0
 11
8.6580529078772628
 21
-22.450473380689939
 31
0.0
  0
LINE
  5
2D89
  8
0
 62
     0
 10
9.0622277021628719
 20
-23.30366098102904
 30
0.0
 11
8.6580529078772752
 21
-22.899486186743431
 31
0.0
  0
LINE
  5
2D8A
  8
0
 62
     0
 10
9.0622277021628861
 20
-23.75267378708249
 30
0.0
 11
8.6580529078772752
 21
-23.34849899279688
 31
0.0
  0
LINE
  5
2D8B
  8
0
 62
     0
 10
9.0622277021628861
 20
-24.20168659313595
 30
0.0
 11
8.6580529078772752
 21
-23.797511798850319
 31
0.0
  0
LINE
  5
2D8C
  8
0
 62
     0
 10
9.0622277021628861
 20
-24.65069939918941
 30
0.0
 11
8.6580529078772628
 21
-24.246524604903801
 31
0.0
  0
LINE
  5
2D8D
  8
0
 62
     0
 10
9.0622277021628861
 20
-25.099712205242881
 30
0.0
 11
8.6580529078772752
 21
-24.695537410957261
 31
0.0
  0
LINE
  5
2D8E
  8
0
 62
     0
 10
9.0622277021628861
 20
-25.54872501129633
 30
0.0
 11
8.6580529078772628
 21
-25.14455021701071
 31
0.0
  0
LINE
  5
2D8F
  8
0
 62
     0
 10
9.0622277021628861
 20
-25.997737817349769
 30
0.0
 11
8.6580529078772752
 21
-25.593563023064181
 31
0.0
  0
LINE
  5
2D90
  8
0
 62
     0
 10
9.0531721558370606
 20
-26.437695077077411
 30
0.0
 11
8.6580529078772912
 21
-26.042575829117641
 31
0.0
  0
LINE
  5
2D91
  8
0
 62
     0
 10
8.9829448994848349
 20
-26.816480626778642
 30
0.0
 11
8.6420753850145218
 21
-26.475611112308329
 31
0.0
  0
LINE
  5
2D92
  8
0
 62
     0
 10
8.8610813646023558
 20
-27.143629897949609
 30
0.0
 11
8.5524145234668083
 21
-26.834963056814061
 31
0.0
  0
LINE
  5
2D93
  8
0
 62
     0
 10
8.6984151726706784
 20
-27.429976512071409
 30
0.0
 11
8.4060271348808158
 21
-27.13758847428155
 31
0.0
  0
LINE
  5
2D94
  8
0
 62
     0
 10
8.5000040652785742
 20
-27.680578210732762
 30
0.0
 11
8.2139219981446843
 21
-27.394496143598889
 31
0.0
  0
LINE
  5
2D95
  8
0
 62
     0
 10
8.2677255050801506
 20
-27.89731245658778
 30
0.0
 11
7.9797973338120718
 21
-27.60938428531972
 31
0.0
  0
LINE
  5
2D96
  8
0
 62
     0
 10
8.001034707467312
 20
-28.079634465028409
 30
0.0
 11
7.7026000404098482
 21
-27.781199797970942
 31
0.0
  0
LINE
  5
2D97
  8
0
 62
     0
 10
5.2225971087744787
 20
-25.750209672389051
 30
0.0
 11
4.904179669858066
 21
-25.431792233472621
 31
0.0
  0
LINE
  5
2D98
  8
0
 62
     0
 10
7.6967552918708293
 20
-28.224367855485379
 30
0.0
 11
7.3758568318916948
 21
-27.903469395506249
 31
0.0
  0
LINE
  5
2D99
  8
0
 62
     0
 10
5.2225971087744787
 20
-26.19922247844249
 30
0.0
 11
4.8184223040869787
 21
-25.795047673755001
 31
0.0
  0
LINE
  5
2D9A
  8
0
 62
     0
 10
7.3476820635603408
 20
-28.324307433228359
 30
0.0
 11
6.9824591872307868
 21
-27.959084556898819
 31
0.0
  0
LINE
  5
2D9B
  8
0
 62
     0
 10
5.2889115066391383
 20
-26.714549682360609
 30
0.0
 11
4.8184234320348898
 21
-26.24406160775635
 31
0.0
  0
LINE
  5
2D9C
  8
0
 62
     0
 10
6.9381368966119217
 20
-28.363775072333379
 30
0.0
 11
6.4676488220076598
 21
-27.893286997729142
 31
0.0
  0
LINE
  5
2D9D
  8
0
 62
     0
 10
6.4257980740421621
 20
-28.300449055817101
 30
0.0
 11
4.881749448551175
 21
-26.75640043032611
 31
0.0
  0
ENDBLK
  5
2D9F
  8
0
  0
BLOCK
  8
0
  2
*X5
 70
     1
 10
0.0
 20
0.0
 30
0.0
  3
*X5
  1

  0
LINE
  5
2DA1
  8
0
 62
     0
 10
8.4559655055335252
 20
-22.24838597834621
 30
0.0
 11
8.4226609305382851
 21
-22.215081403350961
 31
0.0
  0
LINE
  5
2DA2
  8
0
 62
     0
 10
8.4559655055335128
 20
-22.697398784399681
 30
0.0
 11
7.7931351491073002
 21
-22.034568427973451
 31
0.0
  0
LINE
  5
2DA3
  8
0
 62
     0
 10
8.4310254176513961
 20
-23.121471502571001
 30
0.0
 11
7.1636093676763286
 21
-21.854055452595929
 31
0.0
  0
LINE
  5
2DA4
  8
0
 62
     0
 10
7.8014971727699409
 20
-22.940956063742991
 30
0.0
 11
6.5340835862453579
 21
-21.673542477218419
 31
0.0
  0
LINE
  5
2DA5
  8
0
 62
     0
 10
7.1719689278884706
 20
-22.76044062491501
 30
0.0
 11
5.904557804814373
 21
-21.493029501840908
 31
0.0
  0
LINE
  5
2DA6
  8
0
 62
     0
 10
6.5424406830070287
 20
-22.57992518608701
 30
0.0
 11
5.2750320233834174
 21
-21.312516526463401
 31
0.0
  0
LINE
  5
2DA7
  8
0
 62
     0
 10
5.9129124381255593
 20
-22.399409747259021
 30
0.0
 11
4.8184223040869787
 21
-21.30491961322042
 31
0.0
  0
LINE
  5
2DA8
  8
0
 62
     0
 10
5.2833841932441032
 20
-22.218894308431
 30
0.0
 11
4.8184223040869929
 21
-21.75393241927388
 31
0.0
  0
LINE
  5
2DA9
  8
0
 62
     0
 10
4.8601872612749011
 20
-22.244710182515249
 30
0.0
 11
4.8184223040869929
 21
-22.20294522532734
 31
0.0
  0
ENDBLK
  5
2DAB
  8
0
  0
BLOCK
  8
0
  2
*X6
 70
     1
 10
0.0
 20
0.0
 30
0.0
  3
*X6
  1

  0
LINE
  5
2DAD
  8
0
 62
     0
 10
8.2459444408616775
 20
-19.344288077353621
 30
0.0
 11
7.8670366619118246
 21
-18.965380298403769
 31
0.0
  0
LINE
  5
2DAE
  8
0
 62
     0
 10
8.4498363592259125
 20
-19.99719280177132
 30
0.0
 11
7.237509134688068
 21
-18.784865577233472
 31
0.0
  0
LINE
  5
2DAF
  8
0
 62
     0
 10
7.8101363231084937
 20
-19.806505571707369
 30
0.0
 11
6.6079816074642963
 21
-18.60435085606316
 31
0.0
  0
LINE
  5
2DB0
  8
0
 62
     0
 10
8.4224816535564173
 20
-20.418850902155281
 30
0.0
 11
7.9479738164500304
 21
-19.944343065048901
 31
0.0
  0
LINE
  5
2DB1
  8
0
 62
     0
 10
7.1574489313047422
 20
-19.602830985957048
 30
0.0
 11
6.3946857318213679
 21
-18.840067786473679
 31
0.0
  0
LINE
  5
2DB2
  8
0
 62
     0
 10
8.2998451743634831
 20
-20.7452272290158
 30
0.0
 11
7.9469296078666636
 21
-20.392311662518988
 31
0.0
  0
LINE
  5
2DB3
  8
0
 62
     0
 10
6.7988605365088679
 20
-19.693255397214639
 30
0.0
 11
6.3946857318213679
 21
-19.289080592527139
 31
0.0
  0
LINE
  5
2DB4
  8
0
 62
     0
 10
8.1138613012666383
 20
-21.008256161972412
 30
0.0
 11
7.6858100994888474
 21
-20.580204960194621
 31
0.0
  0
LINE
  5
2DB5
  8
0
 62
     0
 10
5.3549328129517164
 20
-18.69834047971095
 30
0.0
 11
5.312851912176483
 21
-18.656259578935721
 31
0.0
  0
LINE
  5
2DB6
  8
0
 62
     0
 10
7.8726014356584377
 20
-21.21600910241769
 30
0.0
 11
7.1363426760614166
 21
-20.479750342820651
 31
0.0
  0
LINE
  5
2DB7
  8
0
 62
     0
 10
5.4674303853703909
 20
-19.259850858183071
 30
0.0
 11
4.9714839685948808
 21
-18.763904441407561
 31
0.0
  0
LINE
  5
2DB8
  8
0
 62
     0
 10
7.572747798638459
 20
-21.36516827145114
 30
0.0
 11
6.5068145352425404
 21
-20.29923500805522
 31
0.0
  0
LINE
  5
2DB9
  8
0
 62
     0
 10
5.2762346434704019
 20
-19.51766792233655
 30
0.0
 11
4.9735913040907596
 21
-19.215024582956911
 31
0.0
  0
LINE
  5
2DBA
  8
0
 62
     0
 10
7.1951662259120184
 20
-21.43659950477819
 30
0.0
 11
5.8772863944236198
 21
-20.118719673289789
 31
0.0
  0
LINE
  5
2DBB
  8
0
 62
     0
 10
6.6825306302815326
 20
-21.37297671520113
 30
0.0
 11
4.8514029905885669
 21
-19.541849075508178
 31
0.0
  0
LINE
  5
2DBC
  8
0
 62
     0
 10
6.0844487957363347
 20
-21.223907686709381
 30
0.0
 11
4.8248659262918769
 21
-19.96432481726492
 31
0.0
  0
ENDBLK
  5
2DBE
  8
0
  0
ENDSEC
  0
SECTION
  2
ENTITIES
  0
TEXT
  5
2A22
  8
241
 10
-42.0
 20
70.0
 30
0.0
 40
5.0
  1
EWB68-88CK6
  7
YOKO
 11
-42.0
 21
70.0
 31
0.0
 73
     1
  0
LINE
  5
2A3C
  8
250
 10
-19.120845870440458
 20
-27.78489425430854
 30
0.0
 11
-33.120845870440462
 21
-27.78489425430854
 31
0.0
1001
ITEMNAME
1000
LNSP2
  0
LINE
  5
2ADF
  8
250
 10
74.509723592918476
 20
55.570977563088519
 30
0.0
 11
96.938295021489935
 21
55.570977563088519
 31
0.0
1001
ITEMNAME
1000
LNSP2
  0
INSERT
  5
2BD5
  8
240
  2
A$C26D05CAA
 10
0.0
 20
0.0
 30
0.0
  0
TEXT
  5
2CB6
  8
250
 10
76.938295021489907
 20
56.570977563088519
 30
0.0
 40
3.0
  1
EBH6-1
  7
YOKO
1001
ITEMNAME
1000
LNSP3
1001
ACAD
1000
MTEXTBEGIN
1070
    73
1070
     1
1070
    44
1040
1.0
1070
    74
1070
     0
1000
MTEXTEND
  0
LINE
  5
2CB7
  8
250
 10
71.099999999995532
 20
44.0
 30
0.0
 11
91.999995085125946
 21
43.999999999999993
 31
0.0
  0
LINE
  5
2CB8
  8
250
 10
90.999995085125946
 20
41.769999999999982
 30
0.0
 11
90.999995085125946
 21
-13.542859781916899
 31
0.0
  0
TEXT
  5
2CBB
  8
250
 10
-30.549417299011889
 20
-26.784894254308529
 30
0.0
 40
3.0
  1
CK6
  7
YOKO
1001
ITEMNAME
1000
LNSP3
1001
ACAD
1000
MTEXTBEGIN
1070
    73
1070
     1
1070
    44
1040
1.0
1070
    74
1070
     0
1000
MTEXTEND
  0
LINE
  5
2CBE
  8
250
 10
0.0000000000001137
 20
29.5
 30
0.0
 11
0.0000000000001154
 21
57.0
 31
0.0
  0
LINE
  5
2CBF
  8
250
 10
70.999999999995566
 20
44.099999999999952
 30
0.0
 11
70.999999999995566
 21
57.0
 31
0.0
  0
LINE
  5
2CC0
  8
250
 10
2.230000000000115
 20
56.0
 30
0.0
 11
68.769999999995562
 21
56.0
 31
0.0
  0
TEXT
  5
2CC4
  8
250
 10
33.071428571426402
 20
57.0
 30
0.0
 40
3.0
  1
71
1001
ACAD
1000
MTEXTBEGIN
1070
    73
1070
     1
1070
    44
1040
1.0
1070
    74
1070
     0
1000
MTEXTEND
  0
LINE
  5
2CC5
  8
250
 10
68.769999999995562
 20
56.37166666666667
 30
0.0
 11
70.999999999995566
 21
56.0
 31
0.0
  0
LINE
  5
2CC6
  8
250
 10
68.769999999995562
 20
55.62833333333333
 30
0.0
 11
70.999999999995566
 21
56.0
 31
0.0
  0
LINE
  5
2CC7
  8
250
 10
70.999999999995566
 20
56.0
 30
0.0
 11
68.769999999995562
 21
56.0
 31
0.0
  0
LINE
  5
2CC8
  8
250
 10
2.2300000000001141
 20
55.62833333333333
 30
0.0
 11
0.0000000000001153
 21
56.0
 31
0.0
  0
LINE
  5
2CC9
  8
250
 10
2.2300000000001141
 20
56.371666666666663
 30
0.0
 11
0.0000000000001153
 21
56.0
 31
0.0
  0
LINE
  5
2CCA
  8
250
 10
0.0000000000001153
 20
56.0
 30
0.0
 11
2.2300000000001141
 21
56.0
 31
0.0
  0
LINE
  5
2CCB
  8
250
 10
-14.58653453872337
 20
-19.931236650439239
 30
0.0
 11
-19.120845870440458
 21
-27.78489425430854
 31
0.0
1001
ACAD
1000
DSTYLE
1002
{
1070
     5
1000
OPEN
1070
    78
1070
     8
1070
   140
1040
3.0
1002
}
  0
LINE
  5
2CCC
  8
250
 10
-14.90840731379658
 20
-19.7454033171059
 30
0.0
 11
-13.47153453872337
 21
-17.99999999999994
 31
0.0
  0
LINE
  5
2CCD
  8
250
 10
-14.26466176365015
 20
-20.11706998377257
 30
0.0
 11
-13.47153453872337
 21
-17.99999999999994
 31
0.0
  0
LINE
  5
2CCE
  8
250
 10
-13.47153453872337
 20
-17.99999999999994
 30
0.0
 11
-14.58653453872337
 21
-19.931236650439239
 31
0.0
  0
TEXT
  5
2CCF
  8
250
 10
88.71428079941164
 20
-13.11428835334546
 30
0.0
 40
3.0
  1
(
 50
90.0
1001
ACAD
1000
MTEXTBEGIN
1070
    73
1070
     1
1070
    44
1040
1.0
1070
    74
1070
     0
1000
MTEXTEND
  0
TEXT
  5
2CD0
  8
250
 10
88.71428079941164
 20
-11.114288353345451
 30
0.0
 40
3.0
  1
âË68ü`âË88
 50
90.0
1001
ACAD
1000
MTEXTBEGIN
1070
    73
1070
     1
1070
    44
1040
1.0
1070
    74
1070
     0
1000
MTEXTEND
  0
TEXT
  5
2CD1
  8
250
 10
88.71428079941164
 20
11.114283075225959
 30
0.0
 40
3.0
  1
)
 50
90.0
1001
ACAD
1000
MTEXTBEGIN
1070
    73
1070
     1
1070
    44
1040
1.0
1070
    74
1070
     0
1000
MTEXTEND
  0
LINE
  5
2CD2
  8
250
 10
90.628328418459276
 20
41.769999999999989
 30
0.0
 11
90.999995085125946
 21
43.999999999999993
 31
0.0
  0
LINE
  5
2CD3
  8
250
 10
91.371661751792615
 20
41.769999999999989
 30
0.0
 11
90.999995085125946
 21
43.999999999999993
 31
0.0
  0
LINE
  5
2CD4
  8
250
 10
90.999995085125946
 20
43.999999999999993
 30
0.0
 11
90.999995085125946
 21
41.769999999999989
 31
0.0
  0
LINE
  5
2CD5
  8
250
 10
64.821195223301487
 20
44.178291893273972
 30
0.0
 11
74.509723592918476
 21
55.570977563088519
 31
0.0
1001
ACAD
1000
DSTYLE
1002
{
1070
     5
1000
OPEN
1070
    78
1070
     8
1070
   140
1040
3.0
1002
}
  0
LINE
  5
2CD6
  8
250
 10
65.104324463884311
 20
43.937514103106132
 30
0.0
 11
63.376528482294461
 21
42.479516449777059
 31
0.0
  0
LINE
  5
2CD7
  8
250
 10
64.538065982718663
 20
44.419069683441812
 30
0.0
 11
63.376528482294461
 21
42.479516449777059
 31
0.0
  0
LINE
  5
2CD8
  8
250
 10
63.376528482294461
 20
42.479516449777059
 30
0.0
 11
64.821195223301487
 21
44.178291893273972
 31
0.0
  0
VIEWPORT
  5
22
 67
     1
  8
0
 10
261.51769911504419
 20
148.5
 30
0.0
 40
523.0353982300885
 41
297.0
 68
     1
 69
     1
1001
ACAD
1000
MVIEW
1002
{
1070
    16
1010
0.0
1020
0.0
1030
0.0
1010
0.0
1020
0.0
1030
1.0
1040
0.0
1040
297.0
1040
261.51769911504419
1040
148.5
1040
50.0
1040
0.0
1040
0.0
1070
     0
1070
   100
1070
     1
1070
     1
1070
     0
1070
     0
1070
     0
1070
     0
1040
0.0
1040
0.0
1040
0.0
1040
1.0
1040
1.0
1040
10.0
1040
10.0
1070
     0
1002
{
1002
}
1002
}
1001
GENIUS_GENOBJ-N-SDF_13
1002
{
1000
OWNER
1000
GEN
1002
}
1001
GENIUS_GENODEF_13
1002
{
1000
HIER
1070
     0
1002
}
1002
{
1000
MANEDIT
1070
     0
1002
}
1002
{
1000
NOSEL
1070
     0
1002
}
1002
{
1000
BEHIND
1070
     0
1002
}
1002
{
1000
OTHER
1070
     0
1002
}
1002
{
1000
REACTOR
1002
}
1001
GENIUS_GENSCREG_15
1000
PF
1040
1.0
1000
DF
1040
1.0
1000
MIN
1011
0.0
1021
0.0
1031
0.0
1021
0.0
1031
0.0
1000
MAX
1011
523.0353982300885
1021
0.0
1031
0.0
1021
297.0
1031
0.0
1000
FLAGS
1070
     2
  0
ENDSEC
  0
EOF
