  0
SECTION
  2
HEADER
  9
$ACADVER
  1
AC1009
  9
$INSBASE
 10
0.0
 20
0.0
 30
0.0
  9
$EXTMIN
 10
-32.010024256736529
 20
-24.664213140976251
 30
-0.0015258207003583
  9
$EXTMAX
 10
81.947184562714483
 20
68.004754944283491
 30
0.0000000349246037
  9
$LIMMIN
 10
0.0
 20
0.0
  9
$LIMMAX
 10
297.0
 20
210.0
  9
$ORTHOMODE
 70
     0
  9
$REGENMODE
 70
     1
  9
$FILLMODE
 70
     1
  9
$QTEXTMODE
 70
     0
  9
$MIRRTEXT
 70
     1
  9
$DRAGMODE
 70
     2
  9
$LTSCALE
 40
10.0
  9
$OSMODE
 70
   639
  9
$ATTMODE
 70
     1
  9
$TEXTSIZE
 40
3.0
  9
$TRACEWID
 40
1.0
  9
$TEXTSTYLE
  7
YOKO
  9
$CLAYER
  8
240
  9
$CELTYPE
  6
BYLAYER
  9
$CECOLOR
 62
   256
  9
$DIMSCALE
 40
1.0
  9
$DIMASZ
 40
2.2299999999999991
  9
$DIMEXO
 40
0.5
  9
$DIMDLI
 40
2.5
  9
$DIMRND
 40
0.0
  9
$DIMDLE
 40
0.0
  9
$DIMEXE
 40
1.0
  9
$DIMTP
 40
0.0
  9
$DIMTM
 40
0.0
  9
$DIMTXT
 40
3.0
  9
$DIMCEN
 40
0.0
  9
$DIMTSZ
 40
0.0
  9
$DIMTOL
 70
     0
  9
$DIMLIM
 70
     0
  9
$DIMTIH
 70
     0
  9
$DIMTOH
 70
     0
  9
$DIMSE1
 70
     0
  9
$DIMSE2
 70
     0
  9
$DIMTAD
 70
     3
  9
$DIMZIN
 70
     8
  9
$DIMBLK
  1
OPEN
  9
$DIMASO
 70
     1
  9
$DIMSHO
 70
     1
  9
$DIMPOST
  1

  9
$DIMAPOST
  1

  9
$DIMALT
 70
     0
  9
$DIMALTD
 70
     2
  9
$DIMALTF
 40
25.399999999999999
  9
$DIMLFAC
 40
1.0
  9
$DIMTOFL
 70
     1
  9
$DIMTVP
 40
0.0
  9
$DIMTIX
 70
     0
  9
$DIMSOXD
 70
     0
  9
$DIMSAH
 70
     0
  9
$DIMBLK1
  1

  9
$DIMBLK2
  1

  9
$DIMSTYLE
  2
BIGT
  9
$DIMCLRD
 70
   256
  9
$DIMCLRE
 70
   256
  9
$DIMCLRT
 70
    40
  9
$DIMTFAC
 40
1.0
  9
$DIMGAP
 40
1.0
  9
$LUNITS
 70
     2
  9
$LUPREC
 70
     2
  9
$SKETCHINC
 40
1.0
  9
$FILLETRAD
 40
0.0
  9
$AUNITS
 70
     0
  9
$AUPREC
 70
     3
  9
$MENU
  1
.
  9
$ELEVATION
 40
0.0
  9
$PELEVATION
 40
0.0
  9
$THICKNESS
 40
0.0
  9
$LIMCHECK
 70
     0
  9
$BLIPMODE
 70
     0
  9
$CHAMFERA
 40
10.0
  9
$CHAMFERB
 40
10.0
  9
$SKPOLY
 70
     0
  9
$TDCREATE
 40
2452227.4576188079
  9
$TDUPDATE
 40
2453614.725415579
  9
$TDINDWG
 40
0.0866259606
  9
$TDUSRTIMER
 40
0.0866259606
  9
$USRTIMER
 70
     1
  9
$ANGBASE
 50
0.0
  9
$ANGDIR
 70
     0
  9
$PDMODE
 70
    35
  9
$PDSIZE
 40
-5.0
  9
$PLINEWID
 40
0.0
  9
$COORDS
 70
     2
  9
$SPLFRAME
 70
     0
  9
$SPLINETYPE
 70
     6
  9
$SPLINESEGS
 70
     8
  9
$ATTDIA
 70
     1
  9
$ATTREQ
 70
     1
  9
$HANDLING
 70
     1
  9
$HANDSEED
  5
253F
  9
$SURFTAB1
 70
     6
  9
$SURFTAB2
 70
     6
  9
$SURFTYPE
 70
     6
  9
$SURFU
 70
     6
  9
$SURFV
 70
     6
  9
$UCSNAME
  2

  9
$UCSORG
 10
0.0
 20
0.0
 30
0.0
  9
$UCSXDIR
 10
1.0
 20
0.0
 30
0.0
  9
$UCSYDIR
 10
0.0
 20
1.0
 30
0.0
  9
$PUCSNAME
  2

  9
$PUCSORG
 10
0.0
 20
0.0
 30
0.0
  9
$PUCSXDIR
 10
1.0
 20
0.0
 30
0.0
  9
$PUCSYDIR
 10
0.0
 20
1.0
 30
0.0
  9
$USERI1
 70
     1
  9
$USERI2
 70
     0
  9
$USERI3
 70
     0
  9
$USERI4
 70
     0
  9
$USERI5
 70
     0
  9
$USERR1
 40
0.0
  9
$USERR2
 40
0.0
  9
$USERR3
 40
0.0
  9
$USERR4
 40
0.0
  9
$USERR5
 40
0.0
  9
$WORLDVIEW
 70
     1
  9
$SHADEDGE
 70
     3
  9
$SHADEDIF
 70
    70
  9
$TILEMODE
 70
     1
  9
$MAXACTVP
 70
    16
  9
$PLIMCHECK
 70
     0
  9
$PEXTMIN
 10
1.0000000000000000E+020
 20
1.0000000000000000E+020
 30
1.0000000000000000E+020
  9
$PEXTMAX
 10
-1.0000000000000000E+020
 20
-1.0000000000000000E+020
 30
-1.0000000000000000E+020
  9
$PLIMMIN
 10
0.0
 20
0.0
  9
$PLIMMAX
 10
420.0
 20
297.0
  9
$UNITMODE
 70
     0
  9
$VISRETAIN
 70
     0
  9
$PLINEGEN
 70
     0
  9
$PSLTSCALE
 70
     1
  0
ENDSEC
  0
SECTION
  2
TABLES
  0
TABLE
  2
VPORT
 70
     7
  0
VPORT
  2
*ACTIVE
 70
     0
 10
0.0
 20
0.0
 11
1.0
 21
1.0
 12
24.96858015298897
 22
21.67027090165362
 13
0.0
 23
0.0
 14
7.0
 24
7.0
 15
7.0
 25
7.0
 16
0.0
 26
0.0
 36
1.0
 17
0.0
 27
0.0
 37
0.0
 40
93.224426435421123
 41
1.4779999999999991
 42
50.0
 43
0.0
 44
0.0
 50
0.0
 51
0.0
 71
     0
 72
  2000
 73
     1
 74
     0
 75
     0
 76
     0
 77
     0
 78
     0
  0
ENDTAB
  0
TABLE
  2
LTYPE
 70
    15
  0
LTYPE
  2
CONTINUOUS
 70
     0
  3
Solid line
 72
    65
 73
     0
 40
0.0
  0
LTYPE
  2
CENTER2
 70
     0
  3
___ _ ___ _ ___ _ ___ _ ___ _ ___ _ ___ _ ___ _
 72
    65
 73
     4
 40
1.125
 49
0.75
 49
-0.125
 49
0.125
 49
-0.125
  0
LTYPE
  2
PHANTOM2
 70
     0
  3
___ _ _ ___ _ _ ___ _ _ ___ _ _ ___ _ _ ___ _ _
 72
    65
 73
     6
 40
1.25
 49
0.625
 49
-0.125
 49
0.125
 49
-0.125
 49
0.125
 49
-0.125
  0
LTYPE
  2
HIDDEN
 70
     0
  3
Hidden __ __ __ __ __ __ __ __ __ __ __ __ __ _
 72
    65
 73
     2
 40
9.5249999999999986
 49
6.3499999999999988
 49
-3.1749999999999989
  0
LTYPE
  2
CENTER
 70
     0
  3
Center ____ _ ____ _ ____ _ ____ _ ____ _ ____
 72
    65
 73
     4
 40
50.799999999999997
 49
31.75
 49
-6.3499999999999988
 49
6.3499999999999988
 49
-6.3499999999999988
  0
LTYPE
  2
AM_ISO02W050
 70
     0
  3
__ __ __ __ __ __ __ __ __ __ __ __ __ __ __
 72
    65
 73
     2
 40
7.5
 49
6.0
 49
-1.5
  0
LTYPE
  2
AM_ISO08W050
 70
     0
  3
____ . ____ . ____ . ____ . ____ . ____ . ____
 72
    65
 73
     4
 40
18.0
 49
12.0
 49
-1.5
 49
3.0
 49
-1.5
  0
LTYPE
  2
AM_ISO09W050
 70
     0
  3
_____ . . _____ . . _____ . . ____ .. ____
 72
    65
 73
     6
 40
22.5
 49
12.0
 49
-1.5
 49
3.0
 49
-1.5
 49
3.0
 49
-1.5
  0
LTYPE
  2
AMCONSTR
 70
     0
  3
_______________________
 72
    65
 73
     2
 40
9999.0
 49
9999.0
 49
0.0
  0
LTYPE
  2
AM_ISO08W050X2
 70
     0
  3
__ . __ . __ . __ . __ . __
 72
    65
 73
     4
 40
9.0
 49
6.0
 49
-0.75
 49
1.5
 49
-0.75
  0
LTYPE
  2
AM_ISO02W050X2
 70
     0
  3
 _ _ _ _ _ _ _ _ _ _ _ _
 72
    65
 73
     2
 40
3.75
 49
3.0
 49
-0.75
  0
LTYPE
  2
AMZIGZAG
 70
     0
  3
/\/-/\/-/\/-/\/-/\/-/\/
 72
    65
 73
     2
 40
11.0001
 49
0.0001
 49
-11.0
  0
LTYPE
  2
ACISOWELD
 70
     0
  3
_ _ _ _ _
 72
    65
 73
     2
 40
2.0
 49
2.0
 49
-1.0
  0
LTYPE
  2
ACISOTGB
 70
     0
  3
__ . . __ . .
 72
    65
 73
     6
 40
9.0
 49
4.0
 49
-1.0
 49
1.0
 49
-1.0
 49
1.0
 49
-1.0
  0
LTYPE
  2
ACISOTGL
 70
     0
  3
_ _ _ _ _
 72
    65
 73
     2
 40
3.0
 49
2.0
 49
-1.0
  0
ENDTAB
  0
TABLE
  2
LAYER
 70
     9
  0
LAYER
  2
0
 70
     0
 62
     7
  6
CONTINUOUS
  0
LAYER
  2
240
 70
     0
 62
     4
  6
CONTINUOUS
  0
LAYER
  2
241
 70
     0
 62
   211
  6
CONTINUOUS
  0
LAYER
  2
242
 70
     0
 62
     3
  6
CONTINUOUS
  0
LAYER
  2
245
 70
     0
 62
     2
  6
CENTER2
  0
LAYER
  2
246
 70
     0
 62
     3
  6
PHANTOM2
  0
LAYER
  2
247
 70
     0
 62
    60
  6
CONTINUOUS
  0
LAYER
  2
250
 70
     0
 62
     3
  6
CONTINUOUS
  0
LAYER
  2
DEFPOINTS
 70
     0
 62
     7
  6
CONTINUOUS
  0
ENDTAB
  0
TABLE
  2
STYLE
 70
     5
  0
STYLE
  2
STANDARD
 70
     0
 40
0.0
 41
1.0
 50
0.0
 71
     0
 42
3.0
  3
romans.shx
  4
BIGFONT.SHX
  0
STYLE
  2
YOKO
 70
     0
 40
0.0
 41
1.0
 50
0.0
 71
     0
 42
3.0
  3
romans.shx
  4
extfont.shx
  0
STYLE
  2

 70
     1
 40
0.0
 41
1.0
 50
0.0
 71
     0
 42
3.0
  3
ltypeshp.shx
  4

  0
STYLE
  2
ACISOTS
 70
     0
 40
1.0
 41
1.0
 50
0.0
 71
     0
 42
3.0
  3
isocp.shx
  4
extfont.shx
  0
STYLE
  2
ACISOGDT
 70
     0
 40
0.0
 41
1.0
 50
0.0
 71
     0
 42
3.0
  3
amgdt.shx
  4

  0
ENDTAB
  0
TABLE
  2
VIEW
 70
     0
  0
ENDTAB
  0
TABLE
  2
UCS
 70
     0
  0
ENDTAB
  0
TABLE
  2
APPID
 70
    19
  0
APPID
  2
ACAD
 70
     0
  0
APPID
  2
GLOBAL
 70
     0
  0
APPID
  2
DETAIL
 70
     0
  0
APPID
  2
GRPNAME
 70
     0
  0
APPID
  2
GPARA
 70
     0
  0
APPID
  2
HATCH_TYPE
 70
     0
  0
APPID
  2
HATCH_DISPLAY
 70
     0
  0
APPID
  2
HATCH_DISTANCE
 70
     0
  0
APPID
  2
ITEMNAME
 70
     0
  0
APPID
  2
MCAD_NO_VIS
 70
     0
  0
APPID
  2
ACAD_TEMP_GRAPHIC
 70
     0
  0
APPID
  2
AD_DRAW
 70
     0
  0
APPID
  2
ACATTRIBSERVICES
 70
     0
  0
APPID
  2
DESIGNERASSEMBLIES
 70
     0
  0
APPID
  2
ACADM_DIM_EDIT
 70
     0
  0
APPID
  2
AMDT_DM_ADJ
 70
     0
  0
APPID
  2
GENIUS_GENSCREG_15
 70
     0
  0
APPID
  2
GENIUS_GENOBJ-N-SDF_13
 70
     0
  0
APPID
  2
GENIUS_GENODEF_13
 70
     0
  0
ENDTAB
  0
TABLE
  2
DIMSTYLE
 70
     9
  0
DIMSTYLE
  2
STANDARD
 70
     0
  3

  4

  5

  6

  7

 40
1.0
 41
2.0
 42
2.0
 43
3.75
 44
2.0
 45
0.0
 46
0.0
 47
0.0
 48
0.0
140
4.0
141
0.09
142
0.0
143
25.399999999999999
144
1.0
145
0.0
146
1.0
147
1.0
 71
     0
 72
     0
 73
     1
 74
     1
 75
     0
 76
     0
 77
     0
 78
     8
170
     0
171
     2
172
     0
173
     1
174
     0
175
     0
176
   256
177
   256
178
   256
  0
DIMSTYLE
  2
BIGT
 70
     0
  3

  4

  5
OPEN
  6

  7

 40
1.0
 41
2.2299999999999991
 42
0.5
 43
2.5
 44
1.0
 45
0.0
 46
0.0
 47
0.0
 48
0.0
140
3.5
141
0.0
142
0.0
143
25.399999999999999
144
1.0
145
0.0
146
1.0
147
1.0
 71
     0
 72
     0
 73
     0
 74
     0
 75
     0
 76
     0
 77
     3
 78
     9
170
     0
171
     2
172
     1
173
     0
174
     0
175
     0
176
   256
177
   256
178
    40
  0
DIMSTYLE
  2
AM_ISO
 70
     0
  3

  4
"
  5

  6

  7

 40
1.0
 41
2.5
 42
1.0
 43
10.0
 44
1.0
 45
0.0
 46
0.0
 47
0.1
 48
0.1
140
3.5
141
0.0
142
0.0
143
0.0393701
144
1.0
145
0.0
146
0.71
147
1.5
 71
     0
 72
     0
 73
     0
 74
     0
 75
     0
 76
     0
 77
     1
 78
     8
170
     0
171
     2
172
     1
173
     0
174
     0
175
     0
176
   256
177
   256
178
     2
  0
DIMSTYLE
  2
AM_ISO$3
 70
     0
  3

  4
"
  5

  6

  7

 40
1.0
 41
2.5
 42
1.0
 43
10.0
 44
1.0
 45
0.0
 46
0.0
 47
0.1
 48
0.1
140
3.5
141
0.0
142
0.0
143
0.0393701
144
1.0
145
0.0
146
0.71
147
1.5
 71
     0
 72
     0
 73
     0
 74
     1
 75
     0
 76
     0
 77
     1
 78
     8
170
     0
171
     2
172
     0
173
     0
174
     0
175
     0
176
   256
177
   256
178
     2
  0
DIMSTYLE
  2
AM_ISO$4
 70
     0
  3

  4
"
  5

  6

  7

 40
1.0
 41
2.5
 42
1.0
 43
10.0
 44
1.0
 45
0.0
 46
0.0
 47
0.1
 48
0.1
140
3.5
141
0.0
142
0.0
143
0.0393701
144
1.0
145
0.0
146
0.71
147
1.5
 71
     0
 72
     0
 73
     0
 74
     1
 75
     0
 76
     0
 77
     1
 78
     8
170
     0
171
     2
172
     0
173
     0
174
     0
175
     0
176
   256
177
   256
178
     2
  0
DIMSTYLE
  2
AM_ISO$6
 70
     0
  3

  4
"
  5

  6

  7

 40
1.0
 41
2.5
 42
1.0
 43
10.0
 44
1.0
 45
0.0
 46
0.0
 47
0.1
 48
0.1
140
3.5
141
0.0
142
0.0
143
0.0393701
144
1.0
145
0.0
146
0.71
147
1.5
 71
     0
 72
     0
 73
     0
 74
     0
 75
     0
 76
     0
 77
     0
 78
     8
170
     0
171
     2
172
     1
173
     0
174
     0
175
     0
176
   256
177
   256
178
     2
  0
DIMSTYLE
  2
AM_ISO$7
 70
     0
  3

  4
"
  5

  6

  7

 40
1.0
 41
2.5
 42
1.0
 43
10.0
 44
1.0
 45
0.0
 46
0.0
 47
0.1
 48
0.1
140
5.0
141
0.0
142
0.0
143
0.0393701
144
1.0
145
0.0
146
0.71
147
1.5
 71
     0
 72
     0
 73
     0
 74
     0
 75
     0
 76
     0
 77
     1
 78
     8
170
     0
171
     2
172
     1
173
     0
174
     0
175
     0
176
   256
177
   256
178
     2
  0
DIMSTYLE
  2
AM_ISO$SF
 70
     0
  3

  4
"
  5

  6

  7

 40
1.0
 41
2.5
 42
1.0
 43
10.0
 44
1.0
 45
0.0
 46
0.0
 47
0.1
 48
0.1
140
3.5
141
0.0
142
0.0
143
0.0393701
144
1.0
145
0.0
146
0.71
147
1.5
 71
     0
 72
     0
 73
     0
 74
     0
 75
     1
 76
     1
 77
     1
 78
     8
170
     0
171
     2
172
     1
173
     0
174
     0
175
     0
176
   256
177
   256
178
     2
  0
DIMSTYLE
  2
AM_ISO$SH
 70
     0
  3

  4
"
  5

  6
GENAXEH
  7

 40
1.0
 41
2.5
 42
1.0
 43
10.0
 44
1.0
 45
0.0
 46
0.0
 47
0.1
 48
0.1
140
3.5
141
0.0
142
0.0
143
0.0393701
144
2.0
145
0.0
146
0.71
147
1.5
 71
     0
 72
     0
 73
     0
 74
     0
 75
     1
 76
     1
 77
     1
 78
     8
170
     0
171
     2
172
     1
173
     1
174
     0
175
     0
176
   256
177
   256
178
     2
  0
ENDTAB
  0
ENDSEC
  0
SECTION
  2
BLOCKS
  0
BLOCK
  8
0
  2
$MODEL_SPACE
 70
     0
 10
0.0
 20
0.0
 30
0.0
  3
$MODEL_SPACE
  1

  0
ENDBLK
  5
1C
  8
0
  0
BLOCK
 67
     1
  8
0
  2
$PAPER_SPACE
 70
     0
 10
0.0
 20
0.0
 30
0.0
  3
$PAPER_SPACE
  1

  0
ENDBLK
  5
19
 67
     1
  8
0
  0
BLOCK
  8
0
  2
_OPEN
 70
     0
 10
0.0
 20
0.0
 30
0.0
  3
_OPEN
  1

  0
LINE
  5
595
  8
0
  6
BYBLOCK
 62
     0
 10
-1.0
 20
0.1666666666666666
 30
0.0
 11
0.0
 21
0.0
 31
0.0
  0
LINE
  5
596
  8
0
  6
BYBLOCK
 62
     0
 10
-1.0
 20
-0.1666666666666666
 30
0.0
 11
0.0
 21
0.0
 31
0.0
  0
LINE
  5
597
  8
0
  6
BYBLOCK
 62
     0
 10
0.0
 20
0.0
 30
0.0
 11
-1.0
 21
0.0
 31
0.0
  0
ENDBLK
  5
599
  8
0
  0
BLOCK
  8
0
  2
A$C2BBD4DDA
 70
     0
 10
0.0
 20
0.0
 30
0.0
  3
A$C2BBD4DDA
  1

  0
LINE
  5
2309
  8
241
 10
55.879319108254741
 20
24.643025216316911
 30
0.0
 11
47.817277916812337
 21
29.87857598271091
 31
0.0
1001
GRPNAME
1000
PASTMD07
  0
CIRCLE
  5
230A
  8
246
 10
53.57752744870627
 20
29.92357965274061
 30
0.0
 40
3.174999999999998
1001
GRPNAME
1000
PASTMD07
  0
LINE
  5
230B
  8
241
 10
47.853537330922528
 20
30.570446819564381
 30
0.0
 11
56.418677893144
 21
34.934603914513112
 31
0.0
1001
GRPNAME
1000
PASTMD07
  0
LINE
  5
230C
  8
245
 10
-31.999984740000059
 20
0.0
 30
0.0
 11
56.000015259999969
 21
0.0
 31
0.0
1001
GRPNAME
1000
PASTMD03
  0
LINE
  5
230D
  8
240
 10
1.0000335699999421
 20
-24.5
 30
0.0
 11
23.30003356999995
 21
-24.5
 31
0.0
1001
GRPNAME
1000
PASTMD07
  0
LINE
  5
230E
  8
240
 10
1.0000335699999421
 20
24.5
 30
0.0
 11
23.30003356999995
 21
24.5
 31
0.0
1001
GRPNAME
1000
PASTMD07
  0
LINE
  5
230F
  8
245
 10
-12.999999999999909
 20
7.9560573703894288
 30
0.0
 11
-12.999999999999909
 21
-7.927305344074111
 31
0.0
1001
GRPNAME
1000
PASTMD07
  0
LINE
  5
2310
  8
241
 10
-27.51998596254651
 20
-13.71610948673662
 30
0.0
 11
-27.51998596254651
 21
13.71610948673657
 31
0.0
1001
GRPNAME
1000
PASTMD07
  0
LINE
  5
2311
  8
241
 10
-25.49999999999994
 20
0.0
 30
0.0
 11
-25.49999999999994
 21
14.0
 31
0.0
1001
GRPNAME
1000
PASTMD04
  0
LINE
  5
2312
  8
240
 10
-30.0
 20
-13.41435935394486
 30
0.0
 11
-30.0
 21
13.41435935394486
 31
0.0
1001
GRPNAME
1000
PASTMD04
  0
LINE
  5
2313
  8
241
 10
0.4999999999999716
 20
23.0
 30
0.0
 11
0.5000335699999428
 21
-23.000033569999971
 31
0.0
  0
LINE
  5
2314
  8
241
 10
0.0
 20
-14.021039047510939
 30
0.0
 11
0.0
 21
14.021393291672659
 31
0.0
1001
GRPNAME
1000
PASTMD04
  0
LINE
  5
2315
  8
240
 10
-25.5
 20
-14.0
 30
0.0
 11
-0.0000000000000284
 21
-14.0
 31
0.0
1001
GRPNAME
1000
PASTMD04
  0
CIRCLE
  5
2316
  8
241
 10
-12.999999999999909
 20
0.0
 30
0.0
 40
5.0819999999999927
1001
GRPNAME
1000
PASTMD07
  0
CIRCLE
  5
2317
  8
241
 10
-12.999999999999909
 20
0.0
 30
0.0
 40
4.0
1001
GRPNAME
1000
PASTMD07
  0
LINE
  5
2318
  8
241
 10
-25.49999999999994
 20
0.0
 30
0.0
 11
-25.49999999999994
 21
-14.0
 31
0.0
1001
GRPNAME
1000
PASTMD04
  0
LINE
  5
2319
  8
240
 10
-27.51998596254651
 20
-13.71610948673662
 30
0.0
 11
-25.5
 21
-14.0
 31
0.0
1001
GRPNAME
1000
PASTMD04
  0
LINE
  5
231A
  8
240
 10
-27.51998596254651
 20
-13.71610948673662
 30
0.0
 11
-29.061081457866461
 21
-13.98784620240974
 31
0.0
1001
GRPNAME
1000
PASTMD04
  0
ARC
  5
231B
  8
240
 10
-29.199999999999989
 20
-13.19999999999998
 30
0.0
 40
0.8000000000000003
 50
209.99999993400689
 51
279.99999993400468
1001
GRPNAME
1000
PASTMD04
  0
LINE
  5
231C
  8
240
 10
-30.0
 20
-13.41435935394486
 30
0.0
 11
-29.892820323027479
 21
-13.60000000000008
 31
0.0
1001
GRPNAME
1000
PASTMD04
  0
LINE
  5
231D
  8
247
 10
8.5945111598345818
 20
-20.846688676751281
 30
0.0
 11
8.5945111598345818
 21
-12.6419920214779
 31
0.0
1001
ACAD
1000
ASC_BOUNDS
1002
{
1070
    19
1005
2327
1002
}
  0
LINE
  5
231E
  8
247
 10
8.9986859541201891
 20
-20.846688676751281
 30
0.0
 11
8.9986859541201891
 21
-12.6419920214779
 31
0.0
1001
ACAD
1000
ASC_BOUNDS
1002
{
1070
    19
1005
2327
1002
}
  0
LINE
  5
231F
  8
247
 10
8.3166670141413022
 20
-18.573495401500839
 30
0.0
 11
7.7658668000447904
 21
-18.022695187404391
 31
0.0
  0
LINE
  5
2320
  8
247
 10
8.3924237574908318
 20
-19.098264950903911
 30
0.0
 11
7.2497854676788309
 21
-17.955626661091909
 31
0.0
  0
LINE
  5
2321
  8
247
 10
7.2121261607485101
 20
-18.815992966268482
 30
0.0
 11
5.8868199261732732
 21
-17.490686731693241
 31
0.0
  0
LINE
  5
2322
  8
247
 10
5.4522925898000674
 20
-18.40319781348034
 30
0.0
 11
4.9483164784092821
 21
-17.899221702089619
 31
0.0
  0
LINE
  5
2323
  8
247
 10
5.8495016612194766
 20
-18.35139407884634
 30
0.0
 11
5.1731541444647462
 21
-17.675046562091659
 31
0.0
  0
ARC
  5
2324
  8
247
 10
5.7653023089739861
 20
-18.493783403313842
 30
0.0
 40
1.010430335998534
 50
17.669577547398159
 51
180.2361598426715
  0
LINE
  5
2325
  8
247
 10
6.9198504877864186
 20
-18.972730099359751
 30
0.0
 11
5.4735195443200553
 21
-17.5263991558935
 31
0.0
  0
LINE
  5
2326
  8
240
 10
-0.0000000000000284
 20
-14.0
 30
0.0
 11
-0.0000000000000284
 21
-22.5
 31
0.0
1001
GRPNAME
1000
PASTMD03
  0
INSERT
  5
2327
  8
247
  6
CONTINUOUS
  2
*X8
 10
0.0
 20
0.0
 30
0.0
1001
ACAD
1000
HATCH
1002
{
1070
    19
1000
ANSI31
1040
0.1
1040
1.5707963267948959
1000
ASC_BOUNDS
1070
     1
1070
     2
1070
    10
1005
2383
1005
2349
1005
234A
1005
231D
1005
231E
1005
232D
1005
232C
1005
233C
1005
233D
1005
2337
1000
ASC_SEEDPOINT
1011
24.74867595094176
1021
0.0
1031
0.0
1021
-142.76857779113109
1031
0.0
1000
R14_HATCH_DATA
1000
2327
1011
1.0
1021
0.0
1031
0.0
1021
0.0
1031
0.0
1011
0.0
1021
0.0
1031
0.0
1021
1.0
1031
0.0
1011
0.0
1021
0.0
1031
0.0
1021
0.0
1031
1.0
1040
0.0
1010
0.0
1020
0.0
1030
1.0
1000
ANSI31
1070
     0
1070
     1
1071
        1
1071
       33
1071
       10
1070
     1
1040
4.7548805560442968
1040
-20.012017656243469
1040
5.1590553607317968
1040
-20.12790815917316
1070
     1
1040
4.7548805560442968
1040
-20.846688676751281
1040
4.7548805560442968
1040
-20.012017656243469
1070
     1
1040
5.1590553607317968
1040
-20.846688676751281
1040
5.1590553607317968
1040
-20.12790815917316
1070
     2
1040
6.8767830218646111
1040
-20.846688676751281
1040
1.7177276611328109
1040
3.1415926535897931
1040
6.2831853071795862
1070
     1
1070
     2
1040
6.8767830218646111
1040
-20.846688676751281
1040
2.1219024658203121
1040
3.1415926535897931
1040
6.2831853071795862
1070
     1
1070
     1
1040
8.9986859541201891
1040
-20.846688676751281
1040
8.9986859541201891
1040
-12.6419920214779
1070
     1
1040
8.5945111598345818
1040
-20.846688676751281
1040
8.5945111598345818
1040
-12.6419920214779
1070
     2
1040
6.8767830218646111
1040
-12.6419920214779
1040
2.1219024658203121
1040
0.0
1040
3.3993916414318428
1070
     1
1070
     2
1040
6.8767830218646111
1040
-12.6419920214779
1040
1.7177276611328109
1040
0.0
1040
3.3881629353185918
1070
     1
1070
     1
1040
5.2109962787005468
1040
-13.061257768548209
1040
4.8249946917864861
1040
-13.18297712889977
1071
       10
1005
2337
1005
233D
1005
233C
1005
232C
1005
232D
1005
231E
1005
231D
1005
234A
1005
2349
1005
2383
1070
     0
1070
     1
1040
1.5707963267948959
1040
0.1
1070
     0
1070
     1
1040
2.3561944901923439
1040
24.74867595094176
1040
-142.76857779113109
1040
-0.2245064030267288
1040
-0.2245064030267288
1070
     0
1071
        1
1040
24.74867595094176
1040
-142.76857779113109
1040
0.0
1002
}
  0
ARC
  5
2328
  8
247
 10
7.3820015277239861
 20
-18.95736067382165
 30
0.0
 40
1.0104217529296871
 50
0.0
 51
130.32984065416761
  0
LINE
  5
2329
  8
240
 10
1.0000335699999421
 20
-24.5
 30
0.0
 11
0.5000335699999428
 21
-24.0
 31
0.0
1001
GRPNAME
1000
PASTMD07
  0
LINE
  5
232A
  8
240
 10
0.5000335699999428
 20
-24.0
 30
0.0
 11
0.5000335699999428
 21
-23.000033569999971
 31
0.0
1001
GRPNAME
1000
PASTMD07
  0
LINE
  5
232B
  8
240
 10
-0.0000000000000284
 20
-22.5
 30
0.0
 11
0.4999999999999716
 21
-23.0
 31
0.0
1001
GRPNAME
1000
PASTMD03
  0
ARC
  5
232C
  8
247
 10
6.8767830218646111
 20
-20.846688676751281
 30
0.0
 40
1.7177276611328109
 50
180.0
 51
0.0
1001
ACAD
1000
ASC_BOUNDS
1002
{
1070
    19
1005
2327
1002
}
  0
ARC
  5
232D
  8
247
 10
6.8767830218646111
 20
-20.846688676751281
 30
0.0
 40
2.1219024658203121
 50
180.0
 51
0.0
1001
ACAD
1000
ASC_BOUNDS
1002
{
1070
    19
1005
2327
1002
}
  0
LINE
  5
232E
  8
247
 10
7.3987778291971997
 20
-20.34968305287742
 30
0.0
 11
5.9839922235173324
 21
-18.93489744719767
 31
0.0
  0
ARC
  5
232F
  8
247
 10
5.7248970355364861
 20
-18.944695878899768
 30
0.0
 40
0.6062452793121338
 50
351.66260168792928
 51
156.3381550951899
  0
LINE
  5
2330
  8
247
 10
6.769250860907702
 20
-20.169168890641512
 30
0.0
 11
5.3544712135040671
 21
-18.754389243237821
 31
0.0
  0
LINE
  5
2331
  8
247
 10
8.3924237574908318
 20
-20.63460676757159
 30
0.0
 11
5.1590553607330492
 21
-19.70745222655642
 31
0.0
  0
LINE
  5
2332
  8
247
 10
8.0283047974865802
 20
-20.530197215113439
 30
0.0
 11
6.3181988355899801
 21
-18.82009125321683
 31
0.0
  0
LINE
  5
2333
  8
247
 10
5.1590553607317968
 20
-19.917687822259548
 30
0.0
 11
5.1590553607330492
 21
-19.70745222655642
 31
0.0
  0
LINE
  5
2334
  8
247
 10
4.7548805560442968
 20
-19.801797319329179
 30
0.0
 11
4.7548805560444123
 21
-18.497948149749789
 31
0.0
  0
LINE
  5
2335
  8
247
 10
5.2157241652775781
 20
-18.615642195011379
 30
0.0
 11
4.7988875257651369
 21
-18.19880555549895
 31
0.0
  0
LINE
  5
2336
  8
247
 10
4.7548805560442968
 20
-19.801797319329179
 30
0.0
 11
5.1590553607317968
 21
-19.917687822259548
 31
0.0
  0
LINE
  5
2337
  8
247
 10
4.7548805560442968
 20
-20.012017656243469
 30
0.0
 11
5.1590553607317968
 21
-20.12790815917316
 31
0.0
1001
ACAD
1000
ASC_BOUNDS
1002
{
1070
    19
1005
2327
1002
}
  0
LINE
  5
2338
  8
247
 10
5.1590553607319123
 20
-19.90601180862603
 30
0.0
 11
4.7548805560442968
 21
-19.50183700393853
 31
0.0
  0
LINE
  5
2339
  8
247
 10
5.510196924328822
 20
-19.80814056616958
 30
0.0
 11
4.7548805560444123
 21
-19.052824197885109
 31
0.0
  0
LINE
  5
233A
  8
247
 10
5.1696194682764078
 20
-18.701385044809001
 30
0.0
 11
6.3247352603103471
 21
-19.032601753495609
 31
0.0
  0
LINE
  5
233B
  8
247
 10
6.1397238926183189
 20
-19.988654728405489
 30
0.0
 11
4.7548805560444123
 21
-18.603811391831691
 31
0.0
  0
LINE
  5
233C
  8
247
 10
5.1590553607317968
 20
-20.846688676751281
 30
0.0
 11
5.1590553607317968
 21
-20.12790815917316
 31
0.0
1001
ACAD
1000
ASC_BOUNDS
1002
{
1070
    19
1005
2327
1002
}
  0
LINE
  5
233D
  8
247
 10
4.7548805560442968
 20
-20.846688676751281
 30
0.0
 11
4.7548805560442968
 21
-20.012017656243469
 31
0.0
1001
ACAD
1000
ASC_BOUNDS
1002
{
1070
    19
1005
2327
1002
}
  0
LINE
  5
233E
  8
247
 10
6.7862866049660777
 20
-19.164957491416541
 30
0.0
 11
7.941436658888362
 21
-19.496179649036659
 31
0.0
  0
LINE
  5
233F
  8
247
 10
8.3924237574908318
 20
-19.996290563010859
 30
0.0
 11
7.8725648823286463
 21
-19.47643168784861
 31
0.0
  0
LINE
  5
2340
  8
247
 10
8.3924237574908318
 20
-20.44530336906422
 30
0.0
 11
7.243047215246035
 21
-19.295926826819422
 31
0.0
  0
LINE
  5
2341
  8
247
 10
8.3924237574908318
 20
-19.547277756957381
 30
0.0
 11
6.909414504347267
 21
-18.064268503813761
 31
0.0
  0
ARC
  5
2342
  8
247
 10
7.3415809954974227
 20
-19.408273149407592
 30
0.0
 40
0.6062626242637637
 50
351.66285421114878
 51
156.3381921591137
  0
LINE
  5
2343
  8
247
 10
8.3924237574908318
 20
-20.63460676757159
 30
0.0
 11
8.3924237574908318
 21
-18.95736067382165
 31
0.0
  0
LINE
  5
2344
  8
247
 10
8.1553479518267693
 20
-13.97615950194665
 30
0.0
 11
8.3924237574908318
 21
-13.73906843749352
 31
0.0
1001
ACAD
1000
ASC_BOUNDS
1002
{
1070
    19
1005
2346
1002
}
  0
LINE
  5
2345
  8
247
 10
6.3311439837786727
 20
-14.325295854485709
 30
0.0
 11
6.3311439837786727
 21
-13.148003984368531
 31
0.0
1001
ACAD
1000
ASC_BOUNDS
1002
{
1070
    19
1005
2346
1002
}
  0
INSERT
  5
2346
  8
247
  6
CONTINUOUS
  2
*X9
 10
0.0
 20
0.0
 30
0.0
1001
ACAD
1000
HATCH
1002
{
1070
    19
1000
ANSI31
1040
0.1
1040
1.5707963267948959
1000
ASC_BOUNDS
1070
     1
1070
     2
1070
    15
1005
236A
1005
2348
1005
234B
1005
2368
1005
2344
1005
2369
1005
2345
1005
234C
1005
2365
1005
2364
1005
2366
1005
234D
1005
2347
1005
2385
1005
2384
1000
ASC_SEEDPOINT
1011
24.74867595094176
1021
0.0
1031
0.0
1021
-142.76857779113109
1031
0.0
1000
R14_HATCH_DATA
1000
2346
1011
1.0
1021
0.0
1031
0.0
1021
0.0
1031
0.0
1011
0.0
1021
0.0
1031
0.0
1021
1.0
1031
0.0
1011
0.0
1021
0.0
1031
0.0
1021
0.0
1031
1.0
1040
0.0
1010
0.0
1020
0.0
1030
1.0
1000
ANSI31
1070
     0
1070
     1
1071
        1
1071
       33
1071
       15
1070
     1
1040
5.2717720355364861
1040
-13.25399153319665
1040
4.8857704486224218
1040
-13.375710893548209
1070
     2
1040
6.8767830218646111
1040
-12.6419920214779
1040
1.717732429504393
1040
3.5058809760360892
1040
3.8840897327625181
1070
     1
1070
     2
1040
5.6238533343646111
1040
-14.22759382811852
1040
0.4243833422660829
1040
1.600643575520647
1040
4.4331083460772751
1070
     1
1070
     1
1040
7.4064766253802361
1040
-15.18024580565759
1040
5.5068641986224227
1040
-14.635537553704459
1070
     2
1040
7.5234505023333611
1040
-14.77230208007165
1040
0.4243830442428589
1040
4.433141065812503
1040
7.574733719402297
1070
     1
1070
     1
1040
7.6404243792864861
1040
-14.364358354485709
1040
6.7353187884661727
1040
-14.10482161132165
1070
     1
1040
6.7353187884661727
1040
-14.4411863574154
1040
6.7353187884661727
1040
-14.10482161132165
1070
     1
1040
6.7353187884661727
1040
-14.4411863574154
1040
6.3311439837786727
1040
-14.325295854485709
1070
     1
1040
6.3311439837786727
1040
-14.325295854485709
1040
6.3311439837786727
1040
-13.148003984368531
1070
     1
1040
8.3924237574908318
1040
-13.73906843749352
1040
6.3311439837786727
1040
-13.148003984368531
1070
     1
1040
8.1553479518267693
1040
-13.97615950194665
1040
8.3924237574908318
1040
-13.73906843749352
1070
     2
1040
7.0788704242083611
1040
-14.7289060839779
1040
1.313568115234375
1040
4.4331319489899528
1040
6.8934200153686511
1070
     1
1070
     2
1040
7.1479317035052361
1040
-12.581292558587281
1040
3.43743896484375
1040
4.2796376880404088
1040
4.5866349702432849
1070
     1
1070
     2
1040
6.0684334124896111
1040
-14.43917219725915
1040
1.3135547637939451
1040
2.5035703051095641
1040
4.4331395182378071
1070
     1
1070
     2
1040
6.8767830218646111
1040
-12.6419920214779
1040
2.121903419494628
1040
3.4946665664545451
1040
3.6402626981642419
1070
     1
1071
       15
1005
2384
1005
2385
1005
2347
1005
234D
1005
2366
1005
2364
1005
2365
1005
234C
1005
2345
1005
2369
1005
2344
1005
2368
1005
234B
1005
2348
1005
236A
1070
     0
1070
     1
1040
1.5707963267948959
1040
0.1
1070
     0
1070
     1
1040
2.3561944901923439
1040
24.74867595094176
1040
-142.76857779113109
1040
-0.2245064030267288
1040
-0.2245064030267288
1070
     0
1071
        1
1040
24.74867595094176
1040
-142.76857779113109
1040
0.0
1002
}
  0
ARC
  5
2347
  8
247
 10
5.6238533343646111
 20
-14.22759382811852
 30
0.0
 40
0.4243833422660829
 50
91.710121382062738
 51
253.9983983544486
1001
ACAD
1000
ASC_BOUNDS
1002
{
1070
    19
1005
2346
1002
}
  0
ARC
  5
2348
  8
247
 10
6.0684334124896111
 20
-14.43917219725915
 30
0.0
 40
1.3135547637939451
 50
143.44401219705779
 51
254.00018438768541
1001
ACAD
1000
ASC_BOUNDS
1002
{
1070
    19
1005
2346
1002
}
  0
ARC
  5
2349
  8
247
 10
6.8767830218646111
 20
-12.6419920214779
 30
0.0
 40
1.7177276611328109
 50
0.0
 51
194.12743649641189
1001
ACAD
1000
ASC_BOUNDS
1002
{
1070
    19
1005
2327
1002
}
  0
ARC
  5
234A
  8
247
 10
6.8767830218646111
 20
-12.6419920214779
 30
0.0
 40
2.1219024658203121
 50
0.0
 51
194.77079396609389
1001
ACAD
1000
ASC_BOUNDS
1002
{
1070
    19
1005
2327
1002
}
  0
ARC
  5
234B
  8
247
 10
7.1479317035052361
 20
-12.581292558587281
 30
0.0
 40
3.43743896484375
 50
245.2051773698407
 51
262.79482596205219
1001
ACAD
1000
ASC_BOUNDS
1002
{
1070
    19
1005
2346
1002
}
  0
LINE
  5
234C
  8
247
 10
6.7353187884661727
 20
-14.4411863574154
 30
0.0
 11
6.3311439837786727
 21
-14.325295854485709
 31
0.0
1001
ACAD
1000
ASC_BOUNDS
1002
{
1070
    19
1005
2346
1002
}
  0
LINE
  5
234D
  8
247
 10
7.4064766253802361
 20
-15.18024580565759
 30
0.0
 11
5.5068641986224227
 21
-14.635537553704459
 31
0.0
1001
ACAD
1000
ASC_BOUNDS
1002
{
1070
    19
1005
2346
1002
}
  0
LINE
  5
234E
  8
247
 10
8.3924237574908318
 20
-17.733437944329459
 30
0.0
 11
5.1994606341692968
 21
-16.817864824212279
 31
0.0
  0
INSERT
  5
234F
  8
247
  6
CONTINUOUS
  2
*X10
 10
0.0
 20
0.0
 30
0.0
1001
ACAD
1000
HATCH
1002
{
1070
    19
1000
ANSI31
1040
0.1
1040
1.5707963267948959
1000
ASC_BOUNDS
1070
     1
1070
     1
1070
     1
1005
2351
1000
ASC_SEEDPOINT
1011
6.4784049427092611
1021
0.0
1031
0.0
1021
-16.731383466104202
1031
0.0
1000
R14_HATCH_DATA
1000
234F
1011
1.0
1021
0.0
1031
0.0
1021
0.0
1031
0.0
1011
0.0
1021
0.0
1031
0.0
1021
1.0
1031
0.0
1011
0.0
1021
0.0
1031
0.0
1021
0.0
1031
1.0
1040
0.0
1010
0.0
1020
0.0
1030
1.0
1000
ANSI31
1070
     0
1070
     1
1071
        1
1071
        7
1070
     0
1070
     1
1071
        6
1040
4.7548805560442977
1040
-15.7864012011654
1040
4.7548805560442968
1040
-16.8375486621029
1040
5.1994606341692968
1040
-16.965035844720092
1040
5.1994606341692968
1040
-16.817864824212279
1040
8.3924237574908318
1040
-17.733437944329459
1040
8.3924237574908318
1040
-16.829446245110709
1071
        1
1005
2351
1070
     0
1070
     1
1040
1.5707963267948959
1040
0.1
1070
     0
1070
     1
1040
2.3561944901923439
1040
24.74867595094176
1040
-142.76857779113109
1040
-0.2245064030267288
1040
-0.2245064030267288
1070
     0
1040
0.0134348504236232
1071
        1
1040
6.4784049427092611
1040
-16.731383466104202
1040
0.0
1002
}
  0
LINE
  5
2350
  8
247
 10
8.3924237574908318
 20
-16.829446245110709
 30
0.0
 11
4.7548805560442968
 21
-15.7864012011654
 31
0.0
  0
POLYLINE
  5
2351
  8
247
 66
     1
 10
0.0
 20
0.0
 30
0.0
 70
     1
1001
ACAD
1000
ASC_BOUNDS
1002
{
1070
    19
1005
234F
1002
}
  0
VERTEX
  5
2352
  8
247
 10
4.7548805560442968
 20
-16.8375486621029
 30
0.0
  0
VERTEX
  5
2353
  8
247
 10
5.1994606341692968
 20
-16.965035844720092
 30
0.0
  0
VERTEX
  5
2354
  8
247
 10
5.1994606341692968
 20
-16.817864824212279
 30
0.0
  0
VERTEX
  5
2355
  8
247
 10
8.3924237574908318
 20
-17.733437944329459
 30
0.0
  0
VERTEX
  5
2356
  8
247
 10
8.3924237574908318
 20
-16.829446245110709
 30
0.0
  0
VERTEX
  5
2357
  8
247
 10
4.7548805560442968
 20
-15.7864012011654
 30
0.0
  0
SEQEND
  5
2358
  8
247
  0
POLYLINE
  5
2359
  8
247
 66
     1
 10
0.0
 20
0.0
 30
0.0
 70
     1
1001
HATCH_DISTANCE
1040
1.0
1001
HATCH_DISPLAY
1070
     0
1001
HATCH_TYPE
1070
     7
  0
VERTEX
  5
235A
  8
247
 10
4.7548805560442968
 20
-16.8375486621029
 30
0.0
  0
VERTEX
  5
235B
  8
247
 10
5.1994606341692968
 20
-16.965035844720092
 30
0.0
  0
VERTEX
  5
235C
  8
247
 10
5.1994606341692968
 20
-16.817864824212279
 30
0.0
  0
VERTEX
  5
235D
  8
247
 10
8.3924237574908318
 20
-17.733437944329459
 30
0.0
  0
VERTEX
  5
235E
  8
247
 10
8.3924237574908318
 20
-16.829446245110709
 30
0.0
  0
VERTEX
  5
235F
  8
247
 10
4.7548805560442968
 20
-15.7864012011654
 30
0.0
  0
SEQEND
  5
2360
  8
247
  0
LINE
  5
2361
  8
247
 10
5.1994606341692968
 20
-16.965035844720092
 30
0.0
 11
5.1994606341692968
 21
-16.817864824212279
 31
0.0
  0
LINE
  5
2362
  8
247
 10
5.1994606341692968
 20
-16.965035844720092
 30
0.0
 11
4.7548805560442968
 21
-16.8375486621029
 31
0.0
  0
LINE
  5
2363
  8
247
 10
4.7548805560442968
 20
-16.8375486621029
 30
0.0
 11
4.7548805560442968
 21
-15.7864012011654
 31
0.0
  0
LINE
  5
2364
  8
247
 10
7.6404243792864861
 20
-14.364358354485709
 30
0.0
 11
6.7353187884661727
 21
-14.10482161132165
 31
0.0
1001
ACAD
1000
ASC_BOUNDS
1002
{
1070
    19
1005
2346
1002
}
  0
LINE
  5
2365
  8
247
 10
6.7353187884661727
 20
-14.4411863574154
 30
0.0
 11
6.7353187884661727
 21
-14.10482161132165
 31
0.0
1001
ACAD
1000
ASC_BOUNDS
1002
{
1070
    19
1005
2346
1002
}
  0
ARC
  5
2366
  8
247
 10
7.5234505023333611
 20
-14.77230208007165
 30
0.0
 40
0.4243830442428589
 50
254.00027305718399
 51
74.00027305718406
1001
ACAD
1000
ASC_BOUNDS
1002
{
1070
    19
1005
2346
1002
}
  0
LINE
  5
2367
  8
247
 10
8.3924237574908318
 20
-17.733437944329459
 30
0.0
 11
8.3924237574908318
 21
-16.829446245110709
 31
0.0
  0
ARC
  5
2368
  8
247
 10
7.0788704242083611
 20
-14.7289060839779
 30
0.0
 40
1.313568115234375
 50
253.99975070172931
 51
34.963873291630819
1001
ACAD
1000
ASC_BOUNDS
1002
{
1070
    19
1005
2346
1002
}
  0
LINE
  5
2369
  8
247
 10
8.3924237574908318
 20
-13.73906843749352
 30
0.0
 11
6.3311439837786727
 21
-13.148003984368531
 31
0.0
1001
ACAD
1000
ASC_BOUNDS
1002
{
1070
    19
1005
2346
1002
}
  0
ARC
  5
236A
  8
247
 10
6.8767830218646111
 20
-12.6419920214779
 30
0.0
 40
2.121903419494628
 50
200.22964506332011
 51
208.57168892371661
1001
ACAD
1000
ASC_BOUNDS
1002
{
1070
    19
1005
2346
1002
}
  0
POLYLINE
  5
236B
  8
247
 66
     1
 10
0.0
 20
0.0
 30
0.0
 70
     1
  0
VERTEX
  5
236C
  8
247
 10
5.2109962787005468
 20
-13.061257768548209
 30
0.0
  0
VERTEX
  5
236D
  8
247
 10
4.8249946917864861
 20
-13.18297712889977
 30
0.0
  0
VERTEX
  5
236E
  8
247
 10
4.8249946917864861
 20
-13.18297712889977
 30
0.0
  0
VERTEX
  5
236F
  8
247
 10
5.2109962787005468
 20
-13.061257768548209
 30
0.0
  0
SEQEND
  5
2370
  8
247
  0
POLYLINE
  5
2371
  8
247
 66
     1
 10
0.0
 20
0.0
 30
0.0
 70
     1
1001
HATCH_DISTANCE
1040
1.0
1001
HATCH_DISPLAY
1070
     0
1001
HATCH_TYPE
1070
     7
  0
VERTEX
  5
2372
  8
247
 10
5.2109962787005468
 20
-13.061257768548209
 30
0.0
  0
VERTEX
  5
2373
  8
247
 10
4.8249946917864861
 20
-13.18297712889977
 30
0.0
  0
VERTEX
  5
2374
  8
247
 10
4.8249946917864861
 20
-13.18297712889977
 30
0.0
  0
VERTEX
  5
2375
  8
247
 10
5.2109962787005468
 20
-13.061257768548209
 30
0.0
  0
SEQEND
  5
2376
  8
247
  0
POLYLINE
  5
2377
  8
247
 66
     1
 10
0.0
 20
0.0
 30
0.0
 70
     1
  0
VERTEX
  5
2378
  8
247
 10
5.2109962787005468
 20
-13.061257768548209
 30
0.0
  0
VERTEX
  5
2379
  8
247
 10
4.8249946917864861
 20
-13.18297712889977
 30
0.0
  0
VERTEX
  5
237A
  8
247
 10
4.8249946917864861
 20
-13.18297712889977
 30
0.0
  0
VERTEX
  5
237B
  8
247
 10
5.2109962787005468
 20
-13.061257768548209
 30
0.0
  0
SEQEND
  5
237C
  8
247
  0
POLYLINE
  5
237D
  8
247
 66
     1
 10
0.0
 20
0.0
 30
0.0
 70
     1
1001
HATCH_DISTANCE
1040
1.0
1001
HATCH_DISPLAY
1070
     0
1001
HATCH_TYPE
1070
     7
  0
VERTEX
  5
237E
  8
247
 10
5.2109962787005468
 20
-13.061257768548209
 30
0.0
  0
VERTEX
  5
237F
  8
247
 10
4.8249946917864861
 20
-13.18297712889977
 30
0.0
  0
VERTEX
  5
2380
  8
247
 10
4.8249946917864861
 20
-13.18297712889977
 30
0.0
  0
VERTEX
  5
2381
  8
247
 10
5.2109962787005468
 20
-13.061257768548209
 30
0.0
  0
SEQEND
  5
2382
  8
247
  0
LINE
  5
2383
  8
247
 10
5.2109962787005468
 20
-13.061257768548209
 30
0.0
 11
4.8249946917864861
 21
-13.18297712889977
 31
0.0
1001
ACAD
1000
ASC_BOUNDS
1002
{
1070
    19
1005
2327
1002
}
  0
LINE
  5
2384
  8
247
 10
5.2717720355364861
 20
-13.25399153319665
 30
0.0
 11
4.8857704486224218
 21
-13.375710893548209
 31
0.0
1001
ACAD
1000
ASC_BOUNDS
1002
{
1070
    19
1005
2346
1002
}
  0
ARC
  5
2385
  8
247
 10
6.8767830218646111
 20
-12.6419920214779
 30
0.0
 40
1.717732429504393
 50
200.8721834020736
 51
222.5419489373881
1001
ACAD
1000
ASC_BOUNDS
1002
{
1070
    19
1005
2346
1002
}
  0
LINE
  5
2386
  8
240
 10
-25.49999999999994
 20
14.0
 30
0.0
 11
-0.0000000000000284
 21
14.0
 31
0.0
1001
GRPNAME
1000
PASTMD04
  0
LINE
  5
2387
  8
240
 10
-27.51998596254651
 20
13.71610948673657
 30
0.0
 11
-25.49999999999994
 21
14.0
 31
0.0
1001
GRPNAME
1000
PASTMD04
  0
LINE
  5
2388
  8
240
 10
-27.51998596254651
 20
13.71610948673657
 30
0.0
 11
-29.061081457866461
 21
13.98784620240974
 31
0.0
1001
GRPNAME
1000
PASTMD04
  0
LINE
  5
2389
  8
240
 10
-30.0
 20
13.41435935394486
 30
0.0
 11
-29.892820323027479
 21
13.600000000000019
 31
0.0
1001
GRPNAME
1000
PASTMD04
  0
ARC
  5
238A
  8
240
 10
-29.199999999999989
 20
13.19999999999998
 30
0.0
 40
0.7999999999999687
 50
79.999999967431123
 51
149.9999999674248
1001
GRPNAME
1000
PASTMD04
  0
LINE
  5
238B
  8
240
 10
0.4999999999999716
 20
23.0
 30
0.0
 11
-0.0000000000000284
 21
22.5
 31
0.0
1001
GRPNAME
1000
PASTMD03
  0
LINE
  5
238C
  8
240
 10
-0.0000000000000284
 20
22.5
 30
0.0
 11
-0.0000000000000284
 21
14.0
 31
0.0
1001
GRPNAME
1000
PASTMD03
  0
LINE
  5
238D
  8
240
 10
1.0000335699999421
 20
24.5
 30
0.0
 11
0.5000335699999428
 21
24.0
 31
0.0
1001
GRPNAME
1000
PASTMD07
  0
LINE
  5
238E
  8
240
 10
0.5000335699999428
 20
23.000033569999971
 30
0.0
 11
0.5000335699999428
 21
24.0
 31
0.0
1001
GRPNAME
1000
PASTMD07
  0
LINE
  5
238F
  8
241
 10
23.30003356999995
 20
24.5
 30
0.0
 11
23.30003356999995
 21
3.6949393637331678
 31
0.0
1001
GRPNAME
1000
PASTMD03
  0
LINE
  5
2390
  8
245
 10
38.000015259999969
 20
-24.663859801288481
 30
0.0
 11
38.000015259999913
 21
35.024816950388811
 31
0.0
1001
GRPNAME
1000
PASTMD06
  0
LINE
  5
2391
  8
240
 10
52.999999999999972
 20
15.84742261192855
 30
0.0
 11
52.999999999999972
 21
-20.5
 31
0.0
1001
GRPNAME
1000
PASTMD03
  0
LINE
  5
2392
  8
240
 10
33.984450085105628
 20
-23.259999999999991
 30
0.0
 11
25.550015259999981
 21
-20.99999999999994
 31
0.0
1001
GRPNAME
1000
PASTMD05
  0
LINE
  5
2393
  8
241
 10
50.450015260000001
 20
-21.0
 30
0.0
 11
25.550015260000212
 21
-21.0
 31
0.0
1001
GRPNAME
1000
PASTMD05
  0
LINE
  5
2394
  8
241
 10
50.450015260000001
 20
-21.0
 30
0.0
 11
24.999999999999972
 21
-21.0
 31
0.0
1001
GRPNAME
1000
PASTMD03
  0
LINE
  5
2395
  8
241
 10
23.30003356999995
 20
-23.700012210000011
 30
0.0
 11
23.30003356999995
 21
-3.6949393637331678
 31
0.0
1001
GRPNAME
1000
PASTMD07
  0
TEXT
  5
2396
  8
247
 10
14.48963040779361
 20
-23.169390751711141
 30
0.0
 40
3.0
  1
EWB53-70CK5
 50
90.0
 41
0.85
  7
YOKO
 11
14.48963040779361
 21
-23.169390751711141
 31
0.0
 73
     1
  0
LINE
  5
2397
  8
240
 10
24.999999999999972
 20
-21.0
 30
0.0
 11
23.441147223741069
 21
-23.700012210000011
 31
0.0
1001
GRPNAME
1000
PASTMD03
  0
LINE
  5
2398
  8
240
 10
23.30003356999995
 20
-24.5
 30
0.0
 11
23.30003356999995
 21
-23.700012210000011
 31
0.0
1001
GRPNAME
1000
PASTMD03
  0
LINE
  5
2399
  8
240
 10
23.441147223741069
 20
-23.700012210000011
 30
0.0
 11
23.30003356999995
 21
-23.700012210000011
 31
0.0
1001
GRPNAME
1000
PASTMD03
  0
LINE
  5
239A
  8
241
 10
25.40001525999994
 20
-2.30940107675849
 30
0.0
 11
23.40001525999994
 21
-1.154700538379245
 31
0.0
1001
GRPNAME
1000
PASTMD07
  0
LINE
  5
239B
  8
241
 10
27.40001525999995
 20
-1.1547005383791871
 30
0.0
 11
25.40001525999994
 21
-2.30940107675849
 31
0.0
1001
GRPNAME
1000
PASTMD07
  0
LINE
  5
239C
  8
245
 10
25.40001525999994
 20
-5.0729958148612013
 30
0.0
 11
25.40001525999994
 21
5.2466425898126081
 31
0.0
1001
GRPNAME
1000
PASTMD03
  0
CIRCLE
  5
239D
  8
242
 10
25.40001525999994
 20
0.0
 30
0.0
 40
4.0
1001
GRPNAME
1000
PASTMD07
  0
CIRCLE
  5
239E
  8
241
 10
25.40001525999994
 20
0.0
 30
0.0
 40
4.25
1001
GRPNAME
1000
PASTMD07
  0
LINE
  5
239F
  8
241
 10
25.40001525999994
 20
2.30940107675849
 30
0.0
 11
27.40001525999995
 21
1.154700538379245
 31
0.0
1001
GRPNAME
1000
PASTMD07
  0
LINE
  5
23A0
  8
241
 10
23.40001525999994
 20
1.1547005383793021
 30
0.0
 11
25.40001525999994
 21
2.30940107675849
 31
0.0
1001
GRPNAME
1000
PASTMD07
  0
LINE
  5
23A1
  8
241
 10
23.40001525999994
 20
-1.154700538379245
 30
0.0
 11
23.40001525999994
 21
1.1547005383793021
 31
0.0
1001
GRPNAME
1000
PASTMD07
  0
LINE
  5
23A2
  8
241
 10
27.40001525999995
 20
1.154700538379245
 30
0.0
 11
27.40001525999995
 21
-1.1547005383791871
 31
0.0
1001
GRPNAME
1000
PASTMD07
  0
LINE
  5
23A3
  8
240
 10
50.450015259999887
 20
-21.0
 30
0.0
 11
42.01558043489436
 21
-23.259999999999991
 31
0.0
1001
GRPNAME
1000
PASTMD05
  0
LINE
  5
23A4
  8
240
 10
42.01558043489436
 20
-23.259999999999991
 30
0.0
 11
33.984450085105628
 21
-23.259999999999991
 31
0.0
1001
GRPNAME
1000
PASTMD05
  0
LINE
  5
23A5
  8
240
 10
52.999999999999972
 20
-20.5
 30
0.0
 11
52.499999999999972
 21
-21.0
 31
0.0
1001
GRPNAME
1000
PASTMD03
  0
LINE
  5
23A6
  8
240
 10
52.499999999999972
 20
-21.0
 30
0.0
 11
50.450015260000001
 21
-21.0
 31
0.0
1001
GRPNAME
1000
PASTMD03
  0
LINE
  5
23A7
  8
241
 10
28.500015259999909
 20
24.973579652740678
 30
0.0
 11
35.500015259999913
 21
24.973579652740678
 31
0.0
1001
GRPNAME
1000
PASTMD07
  0
LINE
  5
23A8
  8
241
 10
47.500015260000083
 20
24.973579652740678
 30
0.0
 11
28.500015259999969
 21
24.973579652740739
 31
0.0
1001
GRPNAME
1000
PASTMD06
  0
LINE
  5
23A9
  8
241
 10
48.000015259999969
 20
24.473579652740789
 30
0.0
 11
28.000015259999969
 21
24.473579652740789
 31
0.0
1001
GRPNAME
1000
PASTMD06
  0
LINE
  5
23AA
  8
241
 10
28.000015259999969
 20
22.546148333801959
 30
0.0
 11
48.000015259999969
 21
17.18716448517949
 31
0.0
1001
GRPNAME
1000
PASTMD03
  0
LINE
  5
23AB
  8
240
 10
30.500015259999909
 20
32.473579652740682
 30
0.0
 11
47.800015259999867
 21
32.473579652740682
 31
0.0
1001
GRPNAME
1000
PASTMD07
  0
LINE
  5
23AC
  8
240
 10
28.000015259999969
 20
22.546148333801959
 30
0.0
 11
28.000015259999969
 21
24.473579652740789
 31
0.0
1001
GRPNAME
1000
PASTMD03
  0
LINE
  5
23AD
  8
240
 10
25.00000000000173
 20
23.349999999999518
 30
0.0
 11
28.000015259999969
 21
22.546148333801959
 31
0.0
1001
GRPNAME
1000
PASTMD03
  0
ARC
  5
23AE
  8
240
 10
30.500015259999909
 20
30.473579652740678
 30
0.0
 40
2.0
 50
89.999999997427025
 51
179.99999999742701
1001
GRPNAME
1000
PASTMD07
  0
LINE
  5
23AF
  8
240
 10
23.30003356999995
 20
24.5
 30
0.0
 11
24.69185842870419
 21
24.5
 31
0.0
1001
GRPNAME
1000
PASTMD03
  0
LINE
  5
23B0
  8
240
 10
24.69185842870419
 20
24.5
 30
0.0
 11
24.999999999999911
 21
23.350000000000019
 31
0.0
1001
GRPNAME
1000
PASTMD03
  0
LINE
  5
23B1
  8
240
 10
28.500015259999909
 20
24.973579652740678
 30
0.0
 11
28.500015259999909
 21
30.473579652740678
 31
0.0
1001
GRPNAME
1000
PASTMD07
  0
LINE
  5
23B2
  8
240
 10
28.500015259999969
 20
24.973579652740739
 30
0.0
 11
28.000015260000019
 21
24.473579652740789
 31
0.0
1001
GRPNAME
1000
PASTMD06
  0
LINE
  5
23B3
  8
240
 10
48.000015259999969
 20
17.18716448517949
 30
0.0
 11
48.000015259999969
 21
24.473579652740789
 31
0.0
1001
GRPNAME
1000
PASTMD06
  0
LINE
  5
23B4
  8
240
 10
48.000015259999969
 20
17.18716448517949
 30
0.0
 11
52.999999999999972
 21
15.84742261192855
 31
0.0
1001
GRPNAME
1000
PASTMD03
  0
LINE
  5
23B5
  8
241
 10
39.998798563653359
 20
26.77357965274075
 30
0.0
 11
36.001231956346508
 21
26.77357965274075
 31
0.0
1001
GRPNAME
1000
PASTMD06
  0
LINE
  5
23B6
  8
241
 10
35.768222435174401
 20
26.57632253243332
 30
0.0
 11
35.500015259999969
 21
24.973579652740739
 31
0.0
1001
GRPNAME
1000
PASTMD06
  0
LINE
  5
23B7
  8
241
 10
35.768222435174401
 20
26.57632253243332
 30
0.0
 11
36.001231956346508
 21
26.77357965274075
 31
0.0
1001
GRPNAME
1000
PASTMD06
  0
LINE
  5
23B8
  8
241
 10
39.998798563653359
 20
26.77357965274075
 30
0.0
 11
40.231808084825524
 21
26.57632253243332
 31
0.0
1001
GRPNAME
1000
PASTMD06
  0
LINE
  5
23B9
  8
241
 10
40.500015259999969
 20
24.973579652740739
 30
0.0
 11
40.231808084825524
 21
26.57632253243332
 31
0.0
1001
GRPNAME
1000
PASTMD06
  0
LINE
  5
23BA
  8
240
 10
47.500015259999969
 20
24.973579652740678
 30
0.0
 11
55.370309912972203
 21
24.973579652740678
 31
0.0
1001
GRPNAME
1000
PASTMD07
  0
LINE
  5
23BB
  8
240
 10
48.000015259999969
 20
24.473579652740789
 30
0.0
 11
47.500015260000083
 21
24.973579652740678
 31
0.0
1001
GRPNAME
1000
PASTMD06
  0
ARC
  5
23BC
  8
241
 10
48.035133530818349
 20
30.214044209889039
 30
0.0
 40
0.3999999999999847
 50
116.9999999555185
 51
236.9999999555159
1001
GRPNAME
1000
PASTMD07
  0
LINE
  5
23BD
  8
240
 10
48.592845357683487
 20
33.266409750424259
 30
0.0
 11
55.553461607392691
 21
34.49375419760576
 31
0.0
1001
GRPNAME
1000
PASTMD07
  0
LINE
  5
23BE
  8
240
 10
47.800015259999867
 20
32.473579652740682
 30
0.0
 11
48.592845357683487
 21
33.266409750424259
 31
0.0
1001
GRPNAME
1000
PASTMD07
  0
LINE
  5
23BF
  8
241
 10
56.999725906941677
 20
34.557266922340538
 30
0.0
 11
56.496626536162537
 21
24.95755906099782
 31
0.0
1001
GRPNAME
1000
PASTMD07
  0
ARC
  5
23C0
  8
241
 10
56.097174722260739
 20
24.97849344349504
 30
0.0
 40
0.3999999999999763
 50
237.00000008920779
 51
357.00000008920551
1001
GRPNAME
1000
PASTMD07
  0
ARC
  5
23C1
  8
241
 10
56.600274093039822
 20
34.578201304837698
 30
0.0
 40
0.4000000000000002
 50
357.00000009950168
 51
117.000000099495
1001
GRPNAME
1000
PASTMD07
  0
ENDBLK
  5
23C3
  8
0
  0
BLOCK
  8
0
  2
GENAXEH
 70
     0
 10
0.0
 20
0.0
 30
0.0
  3
GENAXEH
  1

  0
LINE
  5
2492
  8
0
 10
-1.0
 20
0.0
 30
0.0
 11
1.0
 21
0.0
 31
0.0
  0
ENDBLK
  5
2494
  8
0
  0
BLOCK
  8
0
  2
*U6
 70
     1
 10
0.0
 20
0.0
 30
0.0
  3
*U6
  1

  0
TEXT
  5
24E3
  8
250
 62
    40
 10
25.642720096346121
 20
50.0
 30
0.0
 40
3.0
  1
57
  0
ENDBLK
  5
24E5
  8
0
  0
BLOCK
  8
0
  2
*U7
 70
     1
 10
0.0
 20
0.0
 30
0.0
  3
*U7
  1

  0
TEXT
  5
24E7
  8
250
 62
    40
 10
74.714277133344936
 20
-13.11428943461711
 30
0.0
 40
3.0
  1
(
 50
90.0
  0
TEXT
  5
24E8
  8
250
 62
    40
 10
74.714277133344936
 20
-11.11428943461711
 30
0.0
 40
3.0
  1
âË53ü`âË70
 50
90.0
  0
TEXT
  5
24E9
  8
250
 62
    40
 10
74.714277133344936
 20
11.11428199395432
 30
0.0
 40
3.0
  1
)
 50
90.0
  0
ENDBLK
  5
24EB
  8
0
  0
BLOCK
  8
0
  2
*X8
 70
     1
 10
0.0
 20
0.0
 30
0.0
  3
*X8
  1

  0
LINE
  5
24ED
  8
0
 62
     0
 10
8.8854433905588337
 20
-11.95806688106302
 30
0.0
 11
7.5607081622794956
 21
-10.63333165278368
 31
0.0
  0
LINE
  5
24EE
  8
0
 62
     0
 10
7.5328553619687986
 20
-11.054491658526439
 30
0.0
 11
7.0021606125151257
 21
-10.523796909072759
 31
0.0
  0
LINE
  5
24EF
  8
0
 62
     0
 10
8.9949781342697435
 20
-12.51661443082739
 30
0.0
 11
8.4642833848160706
 21
-11.9859196813737
 31
0.0
  0
LINE
  5
24F0
  8
0
 62
     0
 10
6.9554160055950121
 20
-10.9260651082061
 30
0.0
 11
6.5715141226073106
 21
-10.542163225218401
 31
0.0
  0
LINE
  5
24F1
  8
0
 62
     0
 10
8.9986859541201767
 20
-12.96933505673127
 30
0.0
 11
8.5927099351363978
 21
-12.563359037747491
 31
0.0
  0
LINE
  5
24F2
  8
0
 62
     0
 10
6.5382851322533071
 20
-10.95794704091786
 30
0.0
 11
6.2084336073770743
 21
-10.62809551604162
 31
0.0
  0
LINE
  5
24F3
  8
0
 62
     0
 10
8.9986859541201891
 20
-13.41834786278474
 30
0.0
 11
8.5945111598345818
 21
-13.014173068499129
 31
0.0
  0
LINE
  5
24F4
  8
0
 62
     0
 10
6.1961787243722446
 20
-11.064853439090241
 30
0.0
 11
5.893166228293353
 21
-10.76184094301135
 31
0.0
  0
LINE
  5
24F5
  8
0
 62
     0
 10
8.9986859541201891
 20
-13.86736066883819
 30
0.0
 11
8.594511159834596
 21
-13.46318587455259
 31
0.0
  0
LINE
  5
24F6
  8
0
 62
     0
 10
5.9067157626172806
 20
-11.224403283388741
 30
0.0
 11
5.6169110005522782
 21
-10.93459852132373
 31
0.0
  0
LINE
  5
24F7
  8
0
 62
     0
 10
8.9986859541201891
 20
-14.31637347489165
 30
0.0
 11
8.5945111598345818
 21
-13.912198680606039
 31
0.0
  0
LINE
  5
24F8
  8
0
 62
     0
 10
5.661420709724708
 20
-11.428121036549619
 30
0.0
 11
5.375625920948039
 21
-11.14232624777296
 31
0.0
  0
LINE
  5
24F9
  8
0
 62
     0
 10
8.9986859541201891
 20
-14.76538628094511
 30
0.0
 11
8.594511159834596
 21
-14.36121148665951
 31
0.0
  0
LINE
  5
24FA
  8
0
 62
     0
 10
5.4579834423997653
 20
-11.673696575278161
 30
0.0
 11
5.1681238824078397
 21
-11.383837015286231
 31
0.0
  0
LINE
  5
24FB
  8
0
 62
     0
 10
8.9986859541201767
 20
-15.21439908699857
 30
0.0
 11
8.5945111598345818
 21
-14.81022429271297
 31
0.0
  0
LINE
  5
24FC
  8
0
 62
     0
 10
5.2987464491296228
 20
-11.96347238806146
 30
0.0
 11
4.9956083457171871
 21
-11.66033428464902
 31
0.0
  0
LINE
  5
24FD
  8
0
 62
     0
 10
8.9986859541201891
 20
-15.663411893052031
 30
0.0
 11
8.5945111598345818
 21
-15.25923709876642
 31
0.0
  0
LINE
  5
24FE
  8
0
 62
     0
 10
5.1922404445982693
 20
-12.305979189583571
 30
0.0
 11
4.8621443510577791
 21
-11.975883096043059
 31
0.0
  0
LINE
  5
24FF
  8
0
 62
     0
 10
8.9986859541201891
 20
-16.112424699105471
 30
0.0
 11
8.594511159834596
 21
-15.70824990481988
 31
0.0
  0
LINE
  5
2500
  8
0
 62
     0
 10
5.1610023503282463
 20
-12.723753901366999
 30
0.0
 11
4.7765770907582228
 21
-12.33932864179698
 31
0.0
  0
LINE
  5
2501
  8
0
 62
     0
 10
8.9986859541201891
 20
-16.561437505158949
 30
0.0
 11
8.5945111598345818
 21
-16.15726271087334
 31
0.0
  0
LINE
  5
2502
  8
0
 62
     0
 10
5.0882115809580171
 20
-13.099975938050219
 30
0.0
 11
4.7587780972567941
 21
-12.770542454349
 31
0.0
  0
LINE
  5
2503
  8
0
 62
     0
 10
8.9986859541201891
 20
-17.010450311212391
 30
0.0
 11
8.5945111598345818
 21
-16.606275516926779
 31
0.0
  0
LINE
  5
2504
  8
0
 62
     0
 10
8.9986859541201767
 20
-17.459463117265852
 30
0.0
 11
8.5945111598345818
 21
-17.055288322980239
 31
0.0
  0
LINE
  5
2505
  8
0
 62
     0
 10
8.9986859541201891
 20
-17.908475923319308
 30
0.0
 11
8.5945111598345818
 21
-17.504301129033699
 31
0.0
  0
LINE
  5
2506
  8
0
 62
     0
 10
8.9986859541201891
 20
-18.357488729372768
 30
0.0
 11
8.5945111598345818
 21
-17.953313935087159
 31
0.0
  0
LINE
  5
2507
  8
0
 62
     0
 10
8.9986859541201891
 20
-18.806501535426221
 30
0.0
 11
8.5945111598345676
 21
-18.402326741140609
 31
0.0
  0
LINE
  5
2508
  8
0
 62
     0
 10
8.9986859541202051
 20
-19.255514341479689
 30
0.0
 11
8.5945111598345818
 21
-18.85133954719409
 31
0.0
  0
LINE
  5
2509
  8
0
 62
     0
 10
8.9986859541201891
 20
-19.704527147533149
 30
0.0
 11
8.5945111598345818
 21
-19.30035235324755
 31
0.0
  0
LINE
  5
250A
  8
0
 62
     0
 10
8.9986859541201891
 20
-20.153539953586598
 30
0.0
 11
8.5945111598345818
 21
-19.749365159300989
 31
0.0
  0
LINE
  5
250B
  8
0
 62
     0
 10
8.9986859541201767
 20
-20.602552759640052
 30
0.0
 11
8.5945111598345818
 21
-20.19837796535445
 31
0.0
  0
LINE
  5
250C
  8
0
 62
     0
 10
8.9896304077943654
 20
-21.0425100193677
 30
0.0
 11
8.5945111598345818
 21
-20.64739077140791
 31
0.0
  0
LINE
  5
250D
  8
0
 62
     0
 10
8.9194031514421521
 20
-21.421295569068931
 30
0.0
 11
8.5785336369718408
 21
-21.080426054598622
 31
0.0
  0
LINE
  5
250E
  8
0
 62
     0
 10
8.7975396165596749
 20
-21.748444840239909
 30
0.0
 11
8.4888727754241131
 21
-21.439777999104351
 31
0.0
  0
LINE
  5
250F
  8
0
 62
     0
 10
8.6348734246280117
 20
-22.034791454361709
 30
0.0
 11
8.3424853868381348
 21
-21.74240341657185
 31
0.0
  0
LINE
  5
2510
  8
0
 62
     0
 10
8.4364623172358932
 20
-22.285393153023058
 30
0.0
 11
8.1503802501020033
 21
-21.999311085889179
 31
0.0
  0
LINE
  5
2511
  8
0
 62
     0
 10
8.2041837570374838
 20
-22.502127398878091
 30
0.0
 11
7.916255585769405
 21
-22.21419922761001
 31
0.0
  0
LINE
  5
2512
  8
0
 62
     0
 10
7.9374929594246453
 20
-22.684449407318709
 30
0.0
 11
7.6390582923671673
 21
-22.386014740261249
 31
0.0
  0
LINE
  5
2513
  8
0
 62
     0
 10
5.1590553607317977
 20
-20.355024614679341
 30
0.0
 11
4.8406379218154001
 21
-20.036607175762938
 31
0.0
  0
LINE
  5
2514
  8
0
 62
     0
 10
7.6332135438281483
 20
-22.82918279777569
 30
0.0
 11
7.3123150838489996
 21
-22.508284337796539
 31
0.0
  0
LINE
  5
2515
  8
0
 62
     0
 10
5.1590553607317977
 20
-20.804037420732779
 30
0.0
 11
4.7548805560442977
 21
-20.39986261604529
 31
0.0
  0
LINE
  5
2516
  8
0
 62
     0
 10
7.284140315517674
 20
-22.92912237551867
 30
0.0
 11
6.9189174391881352
 21
-22.56389949918912
 31
0.0
  0
LINE
  5
2517
  8
0
 62
     0
 10
5.2253697585964431
 20
-21.319364624650891
 30
0.0
 11
4.7548816839921813
 21
-20.848876550046629
 31
0.0
  0
LINE
  5
2518
  8
0
 62
     0
 10
6.8745951485692549
 20
-22.968590014623711
 30
0.0
 11
6.404107073964993
 21
-22.498101940019449
 31
0.0
  0
LINE
  5
2519
  8
0
 62
     0
 10
6.3622563259995104
 20
-22.905263998107419
 30
0.0
 11
4.8182077005084798
 21
-21.361215372616378
 31
0.0
  0
ENDBLK
  5
251B
  8
0
  0
BLOCK
  8
0
  2
*X9
 70
     1
 10
0.0
 20
0.0
 30
0.0
  3
*X9
  1

  0
LINE
  5
251D
  8
0
 62
     0
 10
8.1824026928189966
 20
-13.94910301964393
 30
0.0
 11
7.8034949138691578
 21
-13.570195240694069
 31
0.0
  0
LINE
  5
251E
  8
0
 62
     0
 10
8.3862946111832173
 20
-14.602007744061609
 30
0.0
 11
7.173967386645387
 21
-13.389680519523781
 31
0.0
  0
LINE
  5
251F
  8
0
 62
     0
 10
7.746594575065898
 20
-14.41132051399774
 30
0.0
 11
6.5444398594216286
 21
-13.209165798353469
 31
0.0
  0
LINE
  5
2520
  8
0
 62
     0
 10
8.3589399055137505
 20
-15.02366584444559
 30
0.0
 11
7.8844320684072642
 21
-14.5491580073391
 31
0.0
  0
LINE
  5
2521
  8
0
 62
     0
 10
7.0939071832620888
 20
-14.20764592824737
 30
0.0
 11
6.3311439837786869
 21
-13.44488272876397
 31
0.0
  0
LINE
  5
2522
  8
0
 62
     0
 10
8.2363034263208164
 20
-15.3500421713061
 30
0.0
 11
7.8833878598239826
 21
-14.99712660480928
 31
0.0
  0
LINE
  5
2523
  8
0
 62
     0
 10
6.7353187884661727
 20
-14.29807033950493
 30
0.0
 11
6.3311439837786727
 21
-13.89389553481743
 31
0.0
  0
LINE
  5
2524
  8
0
 62
     0
 10
8.0503195532239431
 20
-15.61307110426271
 30
0.0
 11
7.6222683514461664
 21
-15.185019902484919
 31
0.0
  0
LINE
  5
2525
  8
0
 62
     0
 10
5.2913910649090212
 20
-13.30315542200122
 30
0.0
 11
5.2493101641338171
 21
-13.261074521226019
 31
0.0
  0
LINE
  5
2526
  8
0
 62
     0
 10
7.809059687615771
 20
-15.820824044707971
 30
0.0
 11
7.072800928018764
 21
-15.08456528511098
 31
0.0
  0
LINE
  5
2527
  8
0
 62
     0
 10
5.40388863732771
 20
-13.864665800473389
 30
0.0
 11
4.9079422205522141
 21
-13.368719383697879
 31
0.0
  0
LINE
  5
2528
  8
0
 62
     0
 10
7.5092060505957781
 20
-15.96998321374144
 30
0.0
 11
6.4432727871998727
 21
-14.90404995034554
 31
0.0
  0
LINE
  5
2529
  8
0
 62
     0
 10
5.212692895427721
 20
-14.122482864626839
 30
0.0
 11
4.9100495560480928
 21
-13.81983952524722
 31
0.0
  0
LINE
  5
252A
  8
0
 62
     0
 10
7.1316244778693507
 20
-16.041414447068469
 30
0.0
 11
5.8137446463809956
 21
-14.723534615580119
 31
0.0
  0
LINE
  5
252B
  8
0
 62
     0
 10
6.6189888822388658
 20
-15.977791657491441
 30
0.0
 11
4.787861242545886
 21
-14.14666401779847
 31
0.0
  0
LINE
  5
252C
  8
0
 62
     0
 10
6.0209070476936537
 20
-15.828722628999699
 30
0.0
 11
4.7613241782491817
 21
-14.56913975955521
 31
0.0
  0
ENDBLK
  5
252E
  8
0
  0
BLOCK
  8
0
  2
*X10
 70
     1
 10
0.0
 20
0.0
 30
0.0
  3
*X10
  1

  0
LINE
  5
2530
  8
0
 62
     0
 10
8.3924237574908318
 20
-16.853200920636489
 30
0.0
 11
8.3591191824956326
 21
-16.8198963456413
 31
0.0
  0
LINE
  5
2531
  8
0
 62
     0
 10
8.3924237574908318
 20
-17.30221372668997
 30
0.0
 11
7.729593401064661
 21
-16.639383370263779
 31
0.0
  0
LINE
  5
2532
  8
0
 62
     0
 10
8.3674836696087596
 20
-17.726286444861341
 30
0.0
 11
7.1000676196336761
 21
-16.458870394886262
 31
0.0
  0
LINE
  5
2533
  8
0
 62
     0
 10
7.7379554247272893
 20
-17.54577100603332
 30
0.0
 11
6.470541838202692
 21
-16.27835741950874
 31
0.0
  0
LINE
  5
2534
  8
0
 62
     0
 10
7.1084271798458332
 20
-17.36525556720532
 30
0.0
 11
5.8410160567717346
 21
-16.097844444131219
 31
0.0
  0
LINE
  5
2535
  8
0
 62
     0
 10
6.4788989349643771
 20
-17.184740128377339
 30
0.0
 11
5.2114902753407497
 21
-15.91733146875371
 31
0.0
  0
LINE
  5
2536
  8
0
 62
     0
 10
5.8493706900829201
 20
-17.004224689549329
 30
0.0
 11
4.7548805560442977
 21
-15.90973455551071
 31
0.0
  0
LINE
  5
2537
  8
0
 62
     0
 10
5.2198424452014498
 20
-16.823709250721318
 30
0.0
 11
4.7548805560442977
 21
-16.35874736156417
 31
0.0
  0
LINE
  5
2538
  8
0
 62
     0
 10
4.7966455132322627
 20
-16.849525124805592
 30
0.0
 11
4.7548805560442977
 21
-16.80776016761763
 31
0.0
  0
ENDBLK
  5
253A
  8
0
  0
ENDSEC
  0
SECTION
  2
ENTITIES
  0
TEXT
  5
221F
  8
241
 10
-28.0
 20
63.0
 30
0.0
 40
5.0
  1
EWB53-70CK5
  7
YOKO
 11
-28.0
 21
63.0
 31
0.0
 73
     1
  0
LINE
  5
2235
  8
250
 10
-17.650476195629661
 20
-23.78489425430859
 30
0.0
 11
-31.650476195629661
 21
-23.78489425430859
 31
0.0
1001
ITEMNAME
1000
LNSP2
  0
LINE
  5
22DE
  8
250
 10
59.51600081557774
 20
47.945229280449539
 30
0.0
 11
81.944572244149185
 21
47.945229280449539
 31
0.0
1001
ITEMNAME
1000
LNSP2
  0
INSERT
  5
23C4
  8
240
  2
A$C2BBD4DDA
 10
0.0
 20
0.0
 30
0.0
  0
TEXT
  5
24A3
  8
250
 10
61.944572244149178
 20
48.945229280449539
 30
0.0
 40
3.0
  1
EBH5-1
  7
YOKO
1001
ITEMNAME
1000
LNSP3
1001
ACAD
1000
MTEXTBEGIN
1070
    73
1070
     1
1070
    44
1040
1.0
1070
    74
1070
     0
1000
MTEXTEND
  0
LINE
  5
24A6
  8
250
 10
56.918677892525082
 20
34.93460391419773
 30
0.0
 11
77.999991419059242
 21
34.93460391419773
 31
0.0
  0
LINE
  5
24A7
  8
250
 10
76.999991419059242
 20
32.70460391419774
 30
0.0
 11
76.999991419059242
 21
-13.542860863188549
 31
0.0
  0
TEXT
  5
24AA
  8
250
 10
-29.079047624201088
 20
-22.78489425430859
 30
0.0
 40
3.0
  1
CK5
  7
YOKO
1001
ITEMNAME
1000
LNSP3
1001
ACAD
1000
MTEXTBEGIN
1070
    73
1070
     1
1070
    44
1040
1.0
1070
    74
1070
     0
1000
MTEXTEND
  0
LINE
  5
24AD
  8
250
 10
-0.0000000000000284
 20
23.0
 30
0.0
 11
-0.0000000000000267
 21
50.0
 31
0.0
  0
LINE
  5
24AE
  8
250
 10
56.999725906978
 20
35.057266923034263
 30
0.0
 11
56.999725906978
 21
50.0
 31
0.0
  0
LINE
  5
24AF
  8
250
 10
2.2299999999999729
 20
49.0
 30
0.0
 11
54.769725906977989
 21
49.0
 31
0.0
  0
TEXT
  5
24B3
  8
250
 10
25.642720096346121
 20
50.0
 30
0.0
 40
3.0
  1
57
1001
ACAD
1000
MTEXTBEGIN
1070
    73
1070
     1
1070
    44
1040
1.0
1070
    74
1070
     0
1000
MTEXTEND
  0
LINE
  5
24B4
  8
250
 10
54.769725906978003
 20
49.37166666666667
 30
0.0
 11
56.999725906978
 21
49.0
 31
0.0
  0
LINE
  5
24B5
  8
250
 10
54.769725906978003
 20
48.62833333333333
 30
0.0
 11
56.999725906978
 21
49.0
 31
0.0
  0
LINE
  5
24B6
  8
250
 10
56.999725906978
 20
49.0
 30
0.0
 11
54.769725906978003
 21
49.0
 31
0.0
  0
LINE
  5
24B7
  8
250
 10
2.229999999999972
 20
48.62833333333333
 30
0.0
 11
-0.0000000000000268
 21
49.0
 31
0.0
  0
LINE
  5
24B8
  8
250
 10
2.229999999999972
 20
49.371666666666663
 30
0.0
 11
-0.0000000000000268
 21
49.0
 31
0.0
  0
LINE
  5
24B9
  8
250
 10
-0.0000000000000268
 20
49.0
 30
0.0
 11
2.229999999999972
 21
49.0
 31
0.0
  0
LINE
  5
24BA
  8
250
 10
-13.116164863912569
 20
-15.93123665043929
 30
0.0
 11
-17.650476195629661
 21
-23.78489425430859
 31
0.0
1001
ACAD
1000
DSTYLE
1002
{
1070
     5
1000
OPEN
1070
    78
1070
     8
1070
   140
1040
3.0
1002
}
  0
LINE
  5
24BB
  8
250
 10
-13.438037638985779
 20
-15.745403317105961
 30
0.0
 11
-12.001164863912569
 21
-14.0
 31
0.0
  0
LINE
  5
24BC
  8
250
 10
-12.794292088839351
 20
-16.11706998377263
 30
0.0
 11
-12.001164863912569
 21
-14.0
 31
0.0
  0
LINE
  5
24BD
  8
250
 10
-12.001164863912569
 20
-14.0
 30
0.0
 11
-13.116164863912569
 21
-15.93123665043929
 31
0.0
  0
TEXT
  5
24BE
  8
250
 10
74.714277133344936
 20
-13.11428943461711
 30
0.0
 40
3.0
  1
(
 50
90.0
1001
ACAD
1000
MTEXTBEGIN
1070
    73
1070
     1
1070
    44
1040
1.0
1070
    74
1070
     0
1000
MTEXTEND
  0
TEXT
  5
24BF
  8
250
 10
74.714277133344936
 20
-11.11428943461711
 30
0.0
 40
3.0
  1
âË53ü`âË70
 50
90.0
1001
ACAD
1000
MTEXTBEGIN
1070
    73
1070
     1
1070
    44
1040
1.0
1070
    74
1070
     0
1000
MTEXTEND
  0
TEXT
  5
24C0
  8
250
 10
74.714277133344936
 20
11.11428199395432
 30
0.0
 40
3.0
  1
)
 50
90.0
1001
ACAD
1000
MTEXTBEGIN
1070
    73
1070
     1
1070
    44
1040
1.0
1070
    74
1070
     0
1000
MTEXTEND
  0
LINE
  5
24C1
  8
250
 10
76.628324752392572
 20
32.704603914197733
 30
0.0
 11
76.999991419059242
 21
34.93460391419773
 31
0.0
  0
LINE
  5
24C2
  8
250
 10
77.371658085725912
 20
32.704603914197733
 30
0.0
 11
76.999991419059242
 21
34.93460391419773
 31
0.0
  0
LINE
  5
24C3
  8
250
 10
76.999991419059242
 20
34.93460391419773
 30
0.0
 11
76.999991419059242
 21
32.704603914197733
 31
0.0
  0
LINE
  5
24C4
  8
250
 10
52.433676658074901
 20
35.678284003982213
 30
0.0
 11
59.51600081557774
 21
47.945229280449539
 31
0.0
1001
ACAD
1000
DSTYLE
1002
{
1070
     5
1000
OPEN
1070
    78
1070
     8
1070
   140
1040
3.0
1002
}
  0
LINE
  5
24C5
  8
250
 10
52.755549433148111
 20
35.492450670648871
 30
0.0
 11
51.318676658074892
 21
33.747047353542911
 31
0.0
  0
LINE
  5
24C6
  8
250
 10
52.11180388300167
 20
35.864117337315541
 30
0.0
 11
51.318676658074892
 21
33.747047353542911
 31
0.0
  0
LINE
  5
24C7
  8
250
 10
51.318676658074892
 20
33.747047353542911
 30
0.0
 11
52.433676658074901
 21
35.678284003982213
 31
0.0
  0
VIEWPORT
  5
22
 67
     1
  8
0
 10
261.51769911504419
 20
148.5
 30
0.0
 40
523.0353982300885
 41
297.0
 68
     1
 69
     1
1001
ACAD
1000
MVIEW
1002
{
1070
    16
1010
0.0
1020
0.0
1030
0.0
1010
0.0
1020
0.0
1030
1.0
1040
0.0
1040
297.0
1040
261.51769911504419
1040
148.5
1040
50.0
1040
0.0
1040
0.0
1070
     0
1070
   100
1070
     1
1070
     1
1070
     0
1070
     0
1070
     0
1070
     0
1040
0.0
1040
0.0
1040
0.0
1040
1.0
1040
1.0
1040
10.0
1040
10.0
1070
     0
1002
{
1002
}
1002
}
1001
GENIUS_GENOBJ-N-SDF_13
1002
{
1000
OWNER
1000
GEN
1002
}
1001
GENIUS_GENODEF_13
1002
{
1000
HIER
1070
     0
1002
}
1002
{
1000
MANEDIT
1070
     0
1002
}
1002
{
1000
NOSEL
1070
     0
1002
}
1002
{
1000
BEHIND
1070
     0
1002
}
1002
{
1000
OTHER
1070
     0
1002
}
1002
{
1000
REACTOR
1002
}
1001
GENIUS_GENSCREG_15
1000
PF
1040
1.0
1000
DF
1040
1.0
1000
MIN
1011
0.0
1021
0.0
1031
0.0
1021
0.0
1031
0.0
1000
MAX
1011
523.0353982300885
1021
0.0
1031
0.0
1021
297.0
1031
0.0
1000
FLAGS
1070
     2
  0
ENDSEC
  0
EOF
