  0
SECTION
  2
HEADER
  9
$ACADVER
  1
AC1009
  9
$INSBASE
 10
0.0
 20
0.0
 30
0.0
  9
$EXTMIN
 10
-30.481035012616871
 20
-20.78713933353669
 30
-0.0015258207003583
  9
$EXTMAX
 10
72.253410322740251
 20
61.01431312250719
 30
0.0000000349246037
  9
$LIMMIN
 10
0.0
 20
0.0
  9
$LIMMAX
 10
297.0
 20
210.0
  9
$ORTHOMODE
 70
     0
  9
$REGENMODE
 70
     1
  9
$FILLMODE
 70
     1
  9
$QTEXTMODE
 70
     0
  9
$MIRRTEXT
 70
     1
  9
$DRAGMODE
 70
     2
  9
$LTSCALE
 40
10.0
  9
$OSMODE
 70
   639
  9
$ATTMODE
 70
     1
  9
$TEXTSIZE
 40
3.0
  9
$TRACEWID
 40
1.0
  9
$TEXTSTYLE
  7
YOKO
  9
$CLAYER
  8
240
  9
$CELTYPE
  6
BYLAYER
  9
$CECOLOR
 62
   256
  9
$DIMSCALE
 40
1.0
  9
$DIMASZ
 40
2.2299999999999991
  9
$DIMEXO
 40
0.5
  9
$DIMDLI
 40
2.5
  9
$DIMRND
 40
0.0
  9
$DIMDLE
 40
0.0
  9
$DIMEXE
 40
1.0
  9
$DIMTP
 40
0.0
  9
$DIMTM
 40
0.0
  9
$DIMTXT
 40
3.0
  9
$DIMCEN
 40
0.0
  9
$DIMTSZ
 40
0.0
  9
$DIMTOL
 70
     0
  9
$DIMLIM
 70
     0
  9
$DIMTIH
 70
     0
  9
$DIMTOH
 70
     0
  9
$DIMSE1
 70
     0
  9
$DIMSE2
 70
     0
  9
$DIMTAD
 70
     3
  9
$DIMZIN
 70
     8
  9
$DIMBLK
  1
OPEN
  9
$DIMASO
 70
     1
  9
$DIMSHO
 70
     1
  9
$DIMPOST
  1

  9
$DIMAPOST
  1

  9
$DIMALT
 70
     0
  9
$DIMALTD
 70
     2
  9
$DIMALTF
 40
25.399999999999999
  9
$DIMLFAC
 40
1.0
  9
$DIMTOFL
 70
     1
  9
$DIMTVP
 40
0.0
  9
$DIMTIX
 70
     0
  9
$DIMSOXD
 70
     0
  9
$DIMSAH
 70
     0
  9
$DIMBLK1
  1

  9
$DIMBLK2
  1

  9
$DIMSTYLE
  2
BIGT
  9
$DIMCLRD
 70
   256
  9
$DIMCLRE
 70
   256
  9
$DIMCLRT
 70
    40
  9
$DIMTFAC
 40
1.0
  9
$DIMGAP
 40
1.0
  9
$LUNITS
 70
     2
  9
$LUPREC
 70
     2
  9
$SKETCHINC
 40
1.0
  9
$FILLETRAD
 40
0.0
  9
$AUNITS
 70
     0
  9
$AUPREC
 70
     3
  9
$MENU
  1
.
  9
$ELEVATION
 40
0.0
  9
$PELEVATION
 40
0.0
  9
$THICKNESS
 40
0.0
  9
$LIMCHECK
 70
     0
  9
$BLIPMODE
 70
     0
  9
$CHAMFERA
 40
10.0
  9
$CHAMFERB
 40
10.0
  9
$SKPOLY
 70
     0
  9
$TDCREATE
 40
2452227.4576188079
  9
$TDUPDATE
 40
2453614.7265424188
  9
$TDINDWG
 40
0.0960615625
  9
$TDUSRTIMER
 40
0.0960615625
  9
$USRTIMER
 70
     1
  9
$ANGBASE
 50
0.0
  9
$ANGDIR
 70
     0
  9
$PDMODE
 70
    35
  9
$PDSIZE
 40
-5.0
  9
$PLINEWID
 40
0.0
  9
$COORDS
 70
     2
  9
$SPLFRAME
 70
     0
  9
$SPLINETYPE
 70
     6
  9
$SPLINESEGS
 70
     8
  9
$ATTDIA
 70
     1
  9
$ATTREQ
 70
     1
  9
$HANDLING
 70
     1
  9
$HANDSEED
  5
20F9
  9
$SURFTAB1
 70
     6
  9
$SURFTAB2
 70
     6
  9
$SURFTYPE
 70
     6
  9
$SURFU
 70
     6
  9
$SURFV
 70
     6
  9
$UCSNAME
  2

  9
$UCSORG
 10
0.0
 20
0.0
 30
0.0
  9
$UCSXDIR
 10
1.0
 20
0.0
 30
0.0
  9
$UCSYDIR
 10
0.0
 20
1.0
 30
0.0
  9
$PUCSNAME
  2

  9
$PUCSORG
 10
0.0
 20
0.0
 30
0.0
  9
$PUCSXDIR
 10
1.0
 20
0.0
 30
0.0
  9
$PUCSYDIR
 10
0.0
 20
1.0
 30
0.0
  9
$USERI1
 70
     1
  9
$USERI2
 70
     0
  9
$USERI3
 70
     0
  9
$USERI4
 70
     0
  9
$USERI5
 70
     0
  9
$USERR1
 40
0.0
  9
$USERR2
 40
0.0
  9
$USERR3
 40
0.0
  9
$USERR4
 40
0.0
  9
$USERR5
 40
0.0
  9
$WORLDVIEW
 70
     1
  9
$SHADEDGE
 70
     3
  9
$SHADEDIF
 70
    70
  9
$TILEMODE
 70
     1
  9
$MAXACTVP
 70
    16
  9
$PLIMCHECK
 70
     0
  9
$PEXTMIN
 10
1.0000000000000000E+020
 20
1.0000000000000000E+020
 30
1.0000000000000000E+020
  9
$PEXTMAX
 10
-1.0000000000000000E+020
 20
-1.0000000000000000E+020
 30
-1.0000000000000000E+020
  9
$PLIMMIN
 10
0.0
 20
0.0
  9
$PLIMMAX
 10
420.0
 20
297.0
  9
$UNITMODE
 70
     0
  9
$VISRETAIN
 70
     0
  9
$PLINEGEN
 70
     0
  9
$PSLTSCALE
 70
     1
  0
ENDSEC
  0
SECTION
  2
TABLES
  0
TABLE
  2
VPORT
 70
     7
  0
VPORT
  2
*ACTIVE
 70
     0
 10
0.0
 20
0.0
 11
1.0
 21
1.0
 12
20.886187655061679
 22
20.113586894485259
 13
0.0
 23
0.0
 14
7.0
 24
7.0
 15
7.0
 25
7.0
 16
0.0
 26
0.0
 36
1.0
 17
0.0
 27
0.0
 37
0.0
 40
82.291770852383806
 41
1.4779999999999991
 42
50.0
 43
0.0
 44
0.0
 50
0.0
 51
0.0
 71
     0
 72
  2000
 73
     1
 74
     0
 75
     0
 76
     0
 77
     0
 78
     0
  0
ENDTAB
  0
TABLE
  2
LTYPE
 70
    15
  0
LTYPE
  2
CONTINUOUS
 70
     0
  3
Solid line
 72
    65
 73
     0
 40
0.0
  0
LTYPE
  2
CENTER2
 70
     0
  3
___ _ ___ _ ___ _ ___ _ ___ _ ___ _ ___ _ ___ _
 72
    65
 73
     4
 40
1.125
 49
0.75
 49
-0.125
 49
0.125
 49
-0.125
  0
LTYPE
  2
PHANTOM2
 70
     0
  3
___ _ _ ___ _ _ ___ _ _ ___ _ _ ___ _ _ ___ _ _
 72
    65
 73
     6
 40
1.25
 49
0.625
 49
-0.125
 49
0.125
 49
-0.125
 49
0.125
 49
-0.125
  0
LTYPE
  2
HIDDEN
 70
     0
  3
Hidden __ __ __ __ __ __ __ __ __ __ __ __ __ _
 72
    65
 73
     2
 40
9.5249999999999986
 49
6.3499999999999988
 49
-3.1749999999999989
  0
LTYPE
  2
CENTER
 70
     0
  3
Center ____ _ ____ _ ____ _ ____ _ ____ _ ____
 72
    65
 73
     4
 40
50.799999999999997
 49
31.75
 49
-6.3499999999999988
 49
6.3499999999999988
 49
-6.3499999999999988
  0
LTYPE
  2
AM_ISO02W050
 70
     0
  3
__ __ __ __ __ __ __ __ __ __ __ __ __ __ __
 72
    65
 73
     2
 40
7.5
 49
6.0
 49
-1.5
  0
LTYPE
  2
AM_ISO08W050
 70
     0
  3
____ . ____ . ____ . ____ . ____ . ____ . ____
 72
    65
 73
     4
 40
18.0
 49
12.0
 49
-1.5
 49
3.0
 49
-1.5
  0
LTYPE
  2
AM_ISO09W050
 70
     0
  3
_____ . . _____ . . _____ . . ____ .. ____
 72
    65
 73
     6
 40
22.5
 49
12.0
 49
-1.5
 49
3.0
 49
-1.5
 49
3.0
 49
-1.5
  0
LTYPE
  2
AMCONSTR
 70
     0
  3
_______________________
 72
    65
 73
     2
 40
9999.0
 49
9999.0
 49
0.0
  0
LTYPE
  2
AM_ISO08W050X2
 70
     0
  3
__ . __ . __ . __ . __ . __
 72
    65
 73
     4
 40
9.0
 49
6.0
 49
-0.75
 49
1.5
 49
-0.75
  0
LTYPE
  2
AM_ISO02W050X2
 70
     0
  3
 _ _ _ _ _ _ _ _ _ _ _ _
 72
    65
 73
     2
 40
3.75
 49
3.0
 49
-0.75
  0
LTYPE
  2
AMZIGZAG
 70
     0
  3
/\/-/\/-/\/-/\/-/\/-/\/
 72
    65
 73
     2
 40
11.0001
 49
0.0001
 49
-11.0
  0
LTYPE
  2
ACISOWELD
 70
     0
  3
_ _ _ _ _
 72
    65
 73
     2
 40
2.0
 49
2.0
 49
-1.0
  0
LTYPE
  2
ACISOTGB
 70
     0
  3
__ . . __ . .
 72
    65
 73
     6
 40
9.0
 49
4.0
 49
-1.0
 49
1.0
 49
-1.0
 49
1.0
 49
-1.0
  0
LTYPE
  2
ACISOTGL
 70
     0
  3
_ _ _ _ _
 72
    65
 73
     2
 40
3.0
 49
2.0
 49
-1.0
  0
ENDTAB
  0
TABLE
  2
LAYER
 70
    10
  0
LAYER
  2
0
 70
     0
 62
     7
  6
CONTINUOUS
  0
LAYER
  2
240
 70
     0
 62
     4
  6
CONTINUOUS
  0
LAYER
  2
241
 70
     0
 62
   211
  6
CONTINUOUS
  0
LAYER
  2
242
 70
     0
 62
     3
  6
CONTINUOUS
  0
LAYER
  2
245
 70
     0
 62
     2
  6
CENTER2
  0
LAYER
  2
246
 70
     0
 62
     3
  6
PHANTOM2
  0
LAYER
  2
247
 70
     0
 62
    60
  6
CONTINUOUS
  0
LAYER
  2
250
 70
     0
 62
     3
  6
CONTINUOUS
  0
LAYER
  2
DEFPOINTS
 70
     0
 62
     7
  6
CONTINUOUS
  0
LAYER
  2
107
 70
     0
 62
     6
  6
CONTINUOUS
  0
ENDTAB
  0
TABLE
  2
STYLE
 70
     5
  0
STYLE
  2
STANDARD
 70
     0
 40
0.0
 41
1.0
 50
0.0
 71
     0
 42
3.0
  3
romans.shx
  4
BIGFONT.SHX
  0
STYLE
  2
YOKO
 70
     0
 40
0.0
 41
1.0
 50
0.0
 71
     0
 42
3.0
  3
romans.shx
  4
extfont.shx
  0
STYLE
  2

 70
     1
 40
0.0
 41
1.0
 50
0.0
 71
     0
 42
3.0
  3
ltypeshp.shx
  4

  0
STYLE
  2
ACISOTS
 70
     0
 40
1.0
 41
1.0
 50
0.0
 71
     0
 42
3.0
  3
isocp.shx
  4
extfont.shx
  0
STYLE
  2
ACISOGDT
 70
     0
 40
0.0
 41
1.0
 50
0.0
 71
     0
 42
3.0
  3
amgdt.shx
  4

  0
ENDTAB
  0
TABLE
  2
VIEW
 70
     0
  0
ENDTAB
  0
TABLE
  2
UCS
 70
     0
  0
ENDTAB
  0
TABLE
  2
APPID
 70
    19
  0
APPID
  2
ACAD
 70
     0
  0
APPID
  2
GLOBAL
 70
     0
  0
APPID
  2
DETAIL
 70
     0
  0
APPID
  2
GRPNAME
 70
     0
  0
APPID
  2
GPARA
 70
     0
  0
APPID
  2
HATCH_TYPE
 70
     0
  0
APPID
  2
HATCH_DISPLAY
 70
     0
  0
APPID
  2
HATCH_DISTANCE
 70
     0
  0
APPID
  2
ITEMNAME
 70
     0
  0
APPID
  2
MCAD_NO_VIS
 70
     0
  0
APPID
  2
ACAD_TEMP_GRAPHIC
 70
     0
  0
APPID
  2
AD_DRAW
 70
     0
  0
APPID
  2
ACATTRIBSERVICES
 70
     0
  0
APPID
  2
DESIGNERASSEMBLIES
 70
     0
  0
APPID
  2
ACADM_DIM_EDIT
 70
     0
  0
APPID
  2
AMDT_DM_ADJ
 70
     0
  0
APPID
  2
GENIUS_GENSCREG_15
 70
     0
  0
APPID
  2
GENIUS_GENOBJ-N-SDF_13
 70
     0
  0
APPID
  2
GENIUS_GENODEF_13
 70
     0
  0
ENDTAB
  0
TABLE
  2
DIMSTYLE
 70
     9
  0
DIMSTYLE
  2
STANDARD
 70
     0
  3

  4

  5

  6

  7

 40
1.0
 41
2.0
 42
2.0
 43
3.75
 44
2.0
 45
0.0
 46
0.0
 47
0.0
 48
0.0
140
4.0
141
0.09
142
0.0
143
25.399999999999999
144
1.0
145
0.0
146
1.0
147
1.0
 71
     0
 72
     0
 73
     1
 74
     1
 75
     0
 76
     0
 77
     0
 78
     8
170
     0
171
     2
172
     0
173
     1
174
     0
175
     0
176
   256
177
   256
178
   256
  0
DIMSTYLE
  2
BIGT
 70
     0
  3

  4

  5
OPEN
  6

  7

 40
1.0
 41
2.2299999999999991
 42
0.5
 43
2.5
 44
1.0
 45
0.0
 46
0.0
 47
0.0
 48
0.0
140
3.5
141
0.0
142
0.0
143
25.399999999999999
144
1.0
145
0.0
146
1.0
147
1.0
 71
     0
 72
     0
 73
     0
 74
     0
 75
     0
 76
     0
 77
     3
 78
     9
170
     0
171
     2
172
     1
173
     0
174
     0
175
     0
176
   256
177
   256
178
    40
  0
DIMSTYLE
  2
AM_ISO
 70
     0
  3

  4
"
  5

  6

  7

 40
1.0
 41
2.5
 42
1.0
 43
10.0
 44
1.0
 45
0.0
 46
0.0
 47
0.1
 48
0.1
140
3.5
141
0.0
142
0.0
143
0.0393701
144
1.0
145
0.0
146
0.71
147
1.5
 71
     0
 72
     0
 73
     0
 74
     0
 75
     0
 76
     0
 77
     1
 78
     8
170
     0
171
     2
172
     1
173
     0
174
     0
175
     0
176
   256
177
   256
178
     2
  0
DIMSTYLE
  2
AM_ISO$3
 70
     0
  3

  4
"
  5

  6

  7

 40
1.0
 41
2.5
 42
1.0
 43
10.0
 44
1.0
 45
0.0
 46
0.0
 47
0.1
 48
0.1
140
3.5
141
0.0
142
0.0
143
0.0393701
144
1.0
145
0.0
146
0.71
147
1.5
 71
     0
 72
     0
 73
     0
 74
     1
 75
     0
 76
     0
 77
     1
 78
     8
170
     0
171
     2
172
     0
173
     0
174
     0
175
     0
176
   256
177
   256
178
     2
  0
DIMSTYLE
  2
AM_ISO$4
 70
     0
  3

  4
"
  5

  6

  7

 40
1.0
 41
2.5
 42
1.0
 43
10.0
 44
1.0
 45
0.0
 46
0.0
 47
0.1
 48
0.1
140
3.5
141
0.0
142
0.0
143
0.0393701
144
1.0
145
0.0
146
0.71
147
1.5
 71
     0
 72
     0
 73
     0
 74
     1
 75
     0
 76
     0
 77
     1
 78
     8
170
     0
171
     2
172
     0
173
     0
174
     0
175
     0
176
   256
177
   256
178
     2
  0
DIMSTYLE
  2
AM_ISO$6
 70
     0
  3

  4
"
  5

  6

  7

 40
1.0
 41
2.5
 42
1.0
 43
10.0
 44
1.0
 45
0.0
 46
0.0
 47
0.1
 48
0.1
140
3.5
141
0.0
142
0.0
143
0.0393701
144
1.0
145
0.0
146
0.71
147
1.5
 71
     0
 72
     0
 73
     0
 74
     0
 75
     0
 76
     0
 77
     0
 78
     8
170
     0
171
     2
172
     1
173
     0
174
     0
175
     0
176
   256
177
   256
178
     2
  0
DIMSTYLE
  2
AM_ISO$7
 70
     0
  3

  4
"
  5

  6

  7

 40
1.0
 41
2.5
 42
1.0
 43
10.0
 44
1.0
 45
0.0
 46
0.0
 47
0.1
 48
0.1
140
5.0
141
0.0
142
0.0
143
0.0393701
144
1.0
145
0.0
146
0.71
147
1.5
 71
     0
 72
     0
 73
     0
 74
     0
 75
     0
 76
     0
 77
     1
 78
     8
170
     0
171
     2
172
     1
173
     0
174
     0
175
     0
176
   256
177
   256
178
     2
  0
DIMSTYLE
  2
AM_ISO$SF
 70
     0
  3

  4
"
  5

  6

  7

 40
1.0
 41
2.5
 42
1.0
 43
10.0
 44
1.0
 45
0.0
 46
0.0
 47
0.1
 48
0.1
140
3.5
141
0.0
142
0.0
143
0.0393701
144
1.0
145
0.0
146
0.71
147
1.5
 71
     0
 72
     0
 73
     0
 74
     0
 75
     1
 76
     1
 77
     1
 78
     8
170
     0
171
     2
172
     1
173
     0
174
     0
175
     0
176
   256
177
   256
178
     2
  0
DIMSTYLE
  2
AM_ISO$SH
 70
     0
  3

  4
"
  5

  6
GENAXEH
  7

 40
1.0
 41
2.5
 42
1.0
 43
10.0
 44
1.0
 45
0.0
 46
0.0
 47
0.1
 48
0.1
140
3.5
141
0.0
142
0.0
143
0.0393701
144
2.0
145
0.0
146
0.71
147
1.5
 71
     0
 72
     0
 73
     0
 74
     0
 75
     1
 76
     1
 77
     1
 78
     8
170
     0
171
     2
172
     1
173
     1
174
     0
175
     0
176
   256
177
   256
178
     2
  0
ENDTAB
  0
ENDSEC
  0
SECTION
  2
BLOCKS
  0
BLOCK
  8
0
  2
$MODEL_SPACE
 70
     0
 10
0.0
 20
0.0
 30
0.0
  3
$MODEL_SPACE
  1

  0
ENDBLK
  5
1C
  8
0
  0
BLOCK
 67
     1
  8
0
  2
$PAPER_SPACE
 70
     0
 10
0.0
 20
0.0
 30
0.0
  3
$PAPER_SPACE
  1

  0
ENDBLK
  5
19
 67
     1
  8
0
  0
BLOCK
  8
0
  2
_OPEN
 70
     0
 10
0.0
 20
0.0
 30
0.0
  3
_OPEN
  1

  0
LINE
  5
595
  8
0
  6
BYBLOCK
 62
     0
 10
-1.0
 20
0.1666666666666666
 30
0.0
 11
0.0
 21
0.0
 31
0.0
  0
LINE
  5
596
  8
0
  6
BYBLOCK
 62
     0
 10
-1.0
 20
-0.1666666666666666
 30
0.0
 11
0.0
 21
0.0
 31
0.0
  0
LINE
  5
597
  8
0
  6
BYBLOCK
 62
     0
 10
0.0
 20
0.0
 30
0.0
 11
-1.0
 21
0.0
 31
0.0
  0
ENDBLK
  5
599
  8
0
  0
BLOCK
  8
0
  2
A$C1FDB63F1
 70
     0
 10
0.0
 20
0.0
 30
0.0
  3
A$C1FDB63F1
  1

  0
LINE
  5
1EBE
  8
240
 10
0.9006253819101742
 20
19.0
 30
0.0
 11
17.900625381910171
 21
19.0
 31
0.0
1001
GRPNAME
1000
PASTMD0D
  0
LINE
  5
1EBF
  8
240
 10
0.9006253819101742
 20
-19.0
 30
0.0
 11
17.900625381910171
 21
-19.0
 31
0.0
1001
GRPNAME
1000
PASTMD0D
  0
LINE
  5
1EC0
  8
245
 10
-26.099938959999911
 20
0.0
 30
0.0
 11
45.217746376690343
 21
0.0
 31
0.0
1001
GRPNAME
1000
PASTMD0B
  0
LINE
  5
1EC1
  8
241
 10
-19.49999999999994
 20
0.0
 30
0.0
 11
-19.49999999999994
 21
11.0
 31
0.0
1001
GRPNAME
1000
PASTMD0C
  0
LINE
  5
1EC2
  8
241
 10
-21.641016615246709
 20
10.69909973778152
 30
0.0
 11
-21.641016615246709
 21
-10.69909973778158
 31
0.0
1001
GRPNAME
1000
PASTMD0D
  0
LINE
  5
1EC3
  8
241
 10
0.0
 20
11.0
 30
0.0
 11
0.0
 21
0.0
 31
0.0
1001
GRPNAME
1000
PASTMD0B
  0
LINE
  5
1EC4
  8
240
 10
-24.0
 20
-10.746410161513831
 30
0.0
 11
-24.0
 21
10.74641016151377
 31
0.0
1001
GRPNAME
1000
PASTMD0C
  0
LINE
  5
1EC5
  8
241
 10
0.4006253819101744
 20
17.5
 30
0.0
 11
0.4006253819101744
 21
-17.5
 31
0.0
  0
LINE
  5
1EC6
  8
240
 10
-19.50000000000005
 20
-11.0
 30
0.0
 11
0.0
 21
-11.0
 31
0.0
1001
GRPNAME
1000
PASTMD0C
  0
CIRCLE
  5
1EC7
  8
241
 10
-10.0
 20
0.0
 30
0.0
 40
4.0469999999999677
1001
GRPNAME
1000
PASTMD01
  0
LINE
  5
1EC8
  8
241
 10
-19.49999999999994
 20
0.0
 30
0.0
 11
-19.49999999999994
 21
-11.0
 31
0.0
1001
GRPNAME
1000
PASTMD0C
  0
LINE
  5
1EC9
  8
240
 10
-21.641016615246709
 20
-10.69909973778158
 30
0.0
 11
-19.50000000000005
 21
-11.0
 31
0.0
1001
GRPNAME
1000
PASTMD0C
  0
LINE
  5
1ECA
  8
240
 10
-21.641016615246709
 20
-10.69909973778158
 30
0.0
 11
-23.295811093399891
 21
-10.990884651807329
 31
0.0
1001
GRPNAME
1000
PASTMD0C
  0
LINE
  5
1ECB
  8
240
 10
-24.0
 20
-10.746410161513831
 30
0.0
 11
-23.699999999999982
 21
-10.9196152422707
 31
0.0
1001
GRPNAME
1000
PASTMD0C
  0
ARC
  5
1ECC
  8
240
 10
-23.400000000000031
 20
-10.400000000000031
 30
0.0
 40
0.5999999999999665
 50
239.9999998851531
 51
279.99999988515009
1001
GRPNAME
1000
PASTMD0C
  0
ARC
  5
1ECD
  8
247
 10
3.479082932546758
 20
-10.27548421339878
 30
0.0
 40
1.2731414794921869
 50
0.0
 51
194.77079396609389
1001
ACAD
1000
ASC_BOUNDS
1002
{
1070
    19
1005
1ED1
1002
}
  0
ARC
  5
1ECE
  8
247
 10
3.479082932546758
 20
-10.27548421339878
 30
0.0
 40
1.0306365966796871
 50
0.0
 51
194.12743649641189
1001
ACAD
1000
ASC_BOUNDS
1002
{
1070
    19
1005
1ED1
1002
}
  0
TEXT
  5
1ECF
  8
247
 10
8.2499999999896545
 20
-15.74743264352383
 30
0.0
 40
2.0
  1
EWB41-54CK4
 50
90.0
 41
0.65
  7
YOKO
 11
8.2499999999896545
 21
-15.74743264352383
 31
0.0
 73
     1
  0
LINE
  5
1ED0
  8
241
 10
0.0
 20
0.0
 30
0.0
 11
0.0
 21
-11.0
 31
0.0
1001
GRPNAME
1000
PASTMD0B
  0
INSERT
  5
1ED1
  8
247
  6
CONTINUOUS
  2
*X8
 10
0.0
 20
0.0
 30
0.0
1001
ACAD
1000
HATCH
1002
{
1070
    19
1000
ANSI31
1040
0.06
1040
1.5707963267948959
1000
ASC_BOUNDS
1070
     1
1070
     2
1070
    10
1005
1F21
1005
1ECE
1005
1ECD
1005
1F31
1005
1F30
1005
1EF5
1005
1EF2
1005
1F02
1005
1F00
1005
1EFF
1000
ASC_SEEDPOINT
1011
14.20221868999306
1021
-3.0051346778631980E+084
1031
5.6999499209893230E+015
1021
-88.351435675190771
1031
0.0
1000
R14_HATCH_DATA
1000
1ED1
1011
1.0
1021
-3.0051346778631980E+084
1031
5.6999499209893230E+015
1021
0.0
1031
0.0
1011
0.0
1021
-3.0051346778631980E+084
1031
5.6999499209893230E+015
1021
1.0
1031
0.0
1011
0.0
1021
-3.0051346778631980E+084
1031
5.6999499209893230E+015
1021
0.0
1031
1.0
1040
0.0
1010
0.0
1020
0.0
1030
1.0
1000
ANSI31
1070
     0
1070
     1
1071
        1
1071
       33
1071
       10
1070
     1
1040
2.2059414530546051
1040
-14.697499594258201
1040
2.4484463358670601
1040
-14.767033896016009
1070
     1
1040
2.2059414530546051
1040
-15.198302206562911
1040
2.2059414530546051
1040
-14.697499594258201
1070
     1
1040
2.4484463358670601
1040
-15.198302206562911
1040
2.4484463358670601
1040
-14.767033896016009
1070
     2
1040
3.479082932546758
1040
-15.198302206562911
1040
1.0306365966796871
1040
3.1415926535897931
1040
6.2831853071795862
1070
     1
1070
     2
1040
3.479082932546758
1040
-15.198302206562911
1040
1.2731414794921869
1040
3.1415926535897931
1040
6.2831853071795862
1070
     1
1070
     1
1040
4.7522246919000963
1040
-15.198302206562911
1040
4.7522246919000963
1040
-10.27548421339878
1070
     1
1040
4.5097198153287641
1040
-15.198302206562911
1040
4.5097198153287641
1040
-10.27548421339878
1070
     2
1040
3.479082932546758
1040
-10.27548421339878
1040
1.2731414794921869
1040
0.0
1040
3.3993916414318428
1070
     1
1070
     2
1040
3.479082932546758
1040
-10.27548421339878
1040
1.0306365966796871
1040
0.0
1040
3.3881629353185918
1070
     1
1070
     1
1040
2.4796108866483451
1040
-10.527043661641009
1040
2.248009934499918
1040
-10.600075277851881
1071
       10
1005
1EFF
1005
1F00
1005
1F02
1005
1EF2
1005
1EF5
1005
1F30
1005
1F31
1005
1ECD
1005
1ECE
1005
1F21
1070
     0
1070
     1
1040
1.5707963267948959
1040
0.06
1070
     0
1070
     1
1040
2.3561944901923439
1040
14.20221868999306
1040
-88.351435675190771
1040
-0.1347038418160373
1040
-0.1347038418160372
1070
     0
1071
        1
1040
14.20221868999306
1040
-88.351435675190771
1040
0.0
1002
}
  0
LINE
  5
1ED2
  8
240
 10
0.4006253819101744
 20
-18.5
 30
0.0
 11
0.4006253819101744
 21
-17.5
 31
0.0
1001
GRPNAME
1000
PASTMD0D
  0
LINE
  5
1ED3
  8
240
 10
0.4006253819101744
 20
-18.5
 30
0.0
 11
0.9006253819101742
 21
-19.0
 31
0.0
1001
GRPNAME
1000
PASTMD0D
  0
LINE
  5
1ED4
  8
247
 10
3.9372677469999071
 20
-11.308904013203509
 30
0.0
 11
3.394204392507731
 21
-11.1531819673051
 31
0.0
1001
ACAD
1000
ASC_BOUNDS
1002
{
1070
    19
1005
1EDE
1002
}
  0
LINE
  5
1ED5
  8
247
 10
4.3884673739224791
 20
-10.93373006300822
 30
0.0
 11
3.1516995096952201
 21
-10.579091391133201
 31
0.0
1001
ACAD
1000
ASC_BOUNDS
1002
{
1070
    19
1005
1EDE
1002
}
  0
ARC
  5
1ED6
  8
247
 10
3.7579617167264701
 20
-14.335252890156591
 30
0.0
 40
0.363757574558258
 50
351.66285421114878
 51
156.3381921591137
  0
LINE
  5
1ED7
  8
247
 10
3.4247850824076518
 20
-14.18926349536201
 30
0.0
 11
4.1178751147609773
 21
-14.3879967899341
 31
0.0
  0
LINE
  5
1ED8
  8
247
 10
3.7922798169462899
 20
-14.900098832238591
 30
0.0
 11
2.9434084535383809
 21
-14.05122746883063
 31
0.0
  0
LINE
  5
1ED9
  8
247
 10
4.169995997919953
 20
-15.008407329580161
 30
0.0
 11
3.143932420781935
 21
-13.982343752442199
 31
0.0
  0
LINE
  5
1EDA
  8
247
 10
3.6802888158770761
 20
-13.979884780273149
 30
0.0
 11
2.8851050751319458
 21
-13.18470103952796
 31
0.0
  0
ARC
  5
1EDB
  8
247
 10
3.782214036062383
 20
-14.064705404805011
 30
0.0
 40
0.6062530517578125
 50
0.0
 51
130.32984065416761
  0
ARC
  5
1EDC
  8
247
 10
3.600335373953043
 20
-11.52763265089885
 30
0.0
 40
0.788140869140625
 50
253.9997507017259
 51
34.963873291630819
1001
ACAD
1000
ASC_BOUNDS
1002
{
1070
    19
1005
1EDE
1002
}
  0
INSERT
  5
1EDD
  8
247
  6
CONTINUOUS
  2
*X9
 10
0.0
 20
0.0
 30
0.0
1001
ACAD
1000
HATCH
1002
{
1070
    19
1000
ANSI31
1040
0.06
1040
1.5707963267948959
1000
ASC_BOUNDS
1070
     1
1070
     1
1070
     1
1005
1EE8
1000
ASC_SEEDPOINT
1011
3.240056085053538
1021
-3.0051346778631980E+084
1031
5.6999499209893230E+015
1021
-12.7291190801746
1031
0.0
1000
R14_HATCH_DATA
1000
1EDD
1011
1.0
1021
-3.0051346778631980E+084
1031
5.6999499209893230E+015
1021
0.0
1031
0.0
1011
0.0
1021
-3.0051346778631980E+084
1031
5.6999499209893230E+015
1021
1.0
1031
0.0
1011
0.0
1021
-3.0051346778631980E+084
1031
5.6999499209893230E+015
1021
0.0
1031
1.0
1040
0.0
1010
0.0
1020
0.0
1030
1.0
1000
ANSI31
1070
     0
1070
     1
1071
        1
1071
        7
1070
     0
1070
     1
1071
        6
1040
2.2059414530546051
1040
-12.16212972121132
1040
2.2059414530546051
1040
-12.79281819777378
1040
2.472689499929571
1040
-12.869310507344091
1040
2.472689499929571
1040
-12.7810078950394
1040
4.3884673739224791
1040
-13.330351767109789
1040
4.3884673739224791
1040
-12.787956747578439
1071
        1
1005
1EE8
1070
     0
1070
     1
1040
1.5707963267948959
1040
0.06
1070
     0
1070
     1
1040
2.3561944901923439
1040
14.20221868999306
1040
-88.351435675190771
1040
-0.1347038418160373
1040
-0.1347038418160372
1070
     0
1040
0.0134348504236232
1071
        1
1040
3.240056085053538
1040
-12.7291190801746
1040
0.0
1002
}
  0
INSERT
  5
1EDE
  8
247
  6
CONTINUOUS
  2
*X10
 10
0.0
 20
0.0
 30
0.0
1001
ACAD
1000
HATCH
1002
{
1070
    19
1000
ANSI31
1040
0.06
1040
1.5707963267948959
1000
ASC_BOUNDS
1070
     1
1070
     2
1070
    15
1005
1F23
1005
1F2B
1005
1F08
1005
1EDC
1005
1F36
1005
1ED5
1005
1F05
1005
1F06
1005
1F07
1005
1ED4
1005
1F35
1005
1EF1
1005
1F29
1005
1F2A
1005
1F22
1000
ASC_SEEDPOINT
1011
14.20221868999306
1021
-3.0051346778631980E+084
1031
5.6999499209893230E+015
1021
-88.351435675190771
1031
0.0
1000
R14_HATCH_DATA
1000
1EDE
1011
1.0
1021
-3.0051346778631980E+084
1031
5.6999499209893230E+015
1021
0.0
1031
0.0
1011
0.0
1021
-3.0051346778631980E+084
1031
5.6999499209893230E+015
1021
1.0
1031
0.0
1011
0.0
1021
-3.0051346778631980E+084
1031
5.6999499209893230E+015
1021
0.0
1031
1.0
1040
0.0
1010
0.0
1020
0.0
1030
1.0
1000
ANSI31
1070
     0
1070
     1
1071
        1
1071
       33
1071
       15
1070
     1
1040
2.516076340749918
1040
-10.6426839204301
1040
2.2844753886014351
1040
-10.715715536640969
1070
     2
1040
3.479082932546758
1040
-10.27548421339878
1040
1.030639457702635
1040
3.5058809760360892
1040
3.8840897327625181
1070
     1
1070
     2
1040
2.7273251200467712
1040
-11.226845297383131
1040
0.2546300053596497
1040
1.600643575520647
1040
4.4331083460772751
1070
     1
1070
     1
1040
3.796899094656168
1040
-11.79843648390664
1040
2.6571316386014701
1040
-11.471611532734689
1070
     2
1040
3.867083420828008
1040
-11.55367024855507
1040
0.2546298265457153
1040
4.433141065812503
1040
7.574733719402297
1070
     1
1070
     1
1040
3.9372677469999071
1040
-11.308904013203509
1040
3.394204392507731
1040
-11.1531819673051
1070
     1
1040
3.394204392507731
1040
-11.35500081496132
1040
3.394204392507731
1040
-11.1531819673051
1070
     1
1040
3.394204392507731
1040
-11.35500081496132
1040
3.1516995096952201
1040
-11.285466513203509
1070
     1
1040
3.1516995096952201
1040
-11.285466513203509
1040
3.1516995096952201
1040
-10.579091391133201
1070
     1
1040
4.3884673739224791
1040
-10.93373006300822
1040
3.1516995096952201
1040
-10.579091391133201
1070
     1
1040
4.246221890524053
1040
-11.075984701680049
1040
4.3884673739224791
1040
-10.93373006300822
1070
     2
1040
3.600335373953043
1040
-11.52763265089885
1040
0.788140869140625
1040
4.433131948989895
1040
6.8934200153686511
1070
     1
1070
     2
1040
3.641772141531133
1040
-10.239064535664451
1040
2.0624633789062501
1040
4.2796376880404088
1040
4.5866349702432281
1070
     1
1070
     2
1040
2.994073166921793
1040
-11.35379231886753
1040
0.7881328582763673
1040
2.5035703051095641
1040
4.4331395182378071
1070
     1
1070
     2
1040
3.479082932546758
1040
-10.27548421339878
1040
1.2731420516967771
1040
3.4946665664545451
1040
3.6402626981642419
1070
     1
1071
       15
1005
1F22
1005
1F2A
1005
1F29
1005
1EF1
1005
1F35
1005
1ED4
1005
1F07
1005
1F06
1005
1F05
1005
1ED5
1005
1F36
1005
1EDC
1005
1F08
1005
1F2B
1005
1F23
1070
     0
1070
     1
1040
1.5707963267948959
1040
0.06
1070
     0
1070
     1
1040
2.3561944901923439
1040
14.20221868999306
1040
-88.351435675190771
1040
-0.1347038418160373
1040
-0.1347038418160372
1070
     0
1071
        1
1040
14.20221868999306
1040
-88.351435675190771
1040
0.0
1002
}
  0
LINE
  5
1EDF
  8
247
 10
4.3884673739224791
 20
-12.787956747578439
 30
0.0
 11
2.2059414530546051
 21
-12.16212972121132
 31
0.0
  0
POLYLINE
  5
1EE0
  8
247
 66
     1
 10
0.0
 20
0.0
 30
0.0
 70
     1
1001
HATCH_DISTANCE
1040
1.0
1001
HATCH_DISPLAY
1070
     0
1001
HATCH_TYPE
1070
     7
  0
VERTEX
  5
1EE1
  8
247
 10
2.2059414530546051
 20
-12.79281819777378
 30
0.0
  0
VERTEX
  5
1EE2
  8
247
 10
2.472689499929571
 20
-12.869310507344091
 30
0.0
  0
VERTEX
  5
1EE3
  8
247
 10
2.472689499929571
 20
-12.7810078950394
 30
0.0
  0
VERTEX
  5
1EE4
  8
247
 10
4.3884673739224791
 20
-13.33035176710978
 30
0.0
  0
VERTEX
  5
1EE5
  8
247
 10
4.3884673739224791
 20
-12.787956747578439
 30
0.0
  0
VERTEX
  5
1EE6
  8
247
 10
2.2059414530546051
 20
-12.16212972121132
 30
0.0
  0
SEQEND
  5
1EE7
  8
247
  0
POLYLINE
  5
1EE8
  8
247
 66
     1
 10
0.0
 20
0.0
 30
0.0
 70
     1
1001
ACAD
1000
ASC_BOUNDS
1002
{
1070
    19
1005
1EDD
1002
}
  0
VERTEX
  5
1EE9
  8
247
 10
2.2059414530546051
 20
-12.79281819777378
 30
0.0
  0
VERTEX
  5
1EEA
  8
247
 10
2.472689499929571
 20
-12.869310507344091
 30
0.0
  0
VERTEX
  5
1EEB
  8
247
 10
2.472689499929571
 20
-12.7810078950394
 30
0.0
  0
VERTEX
  5
1EEC
  8
247
 10
4.3884673739224791
 20
-13.33035176710978
 30
0.0
  0
VERTEX
  5
1EED
  8
247
 10
4.3884673739224791
 20
-12.787956747578439
 30
0.0
  0
VERTEX
  5
1EEE
  8
247
 10
2.2059414530546051
 20
-12.16212972121132
 30
0.0
  0
SEQEND
  5
1EEF
  8
247
  0
LINE
  5
1EF0
  8
247
 10
4.3884673739224791
 20
-13.33035176710978
 30
0.0
 11
2.472689499929571
 21
-12.7810078950394
 31
0.0
  0
LINE
  5
1EF1
  8
247
 10
3.796899094656168
 20
-11.79843648390664
 30
0.0
 11
2.6571316386014701
 21
-11.471611532734689
 31
0.0
1001
ACAD
1000
ASC_BOUNDS
1002
{
1070
    19
1005
1EDE
1002
}
  0
ARC
  5
1EF2
  8
247
 10
3.479082932546758
 20
-15.198302206562911
 30
0.0
 40
1.0306365966796871
 50
180.0
 51
0.0
1001
ACAD
1000
ASC_BOUNDS
1002
{
1070
    19
1005
1ED1
1002
}
  0
LINE
  5
1EF3
  8
247
 10
4.3884673739224791
 20
-15.071053061055011
 30
0.0
 11
2.448446335867799
 21
-14.51476033644593
 31
0.0
  0
LINE
  5
1EF4
  8
247
 10
3.5049234120997981
 20
-14.073927060127909
 30
0.0
 11
2.6371248460200141
 21
-13.20612849404818
 31
0.0
  0
ARC
  5
1EF5
  8
247
 10
3.479082932546758
 20
-15.198302206562911
 30
0.0
 40
1.2731414794921869
 50
180.0
 51
0.0
1001
ACAD
1000
ASC_BOUNDS
1002
{
1070
    19
1005
1ED1
1002
}
  0
LINE
  5
1EF6
  8
247
 10
2.2059414530546051
 20
-14.5713673921096
 30
0.0
 11
2.2059414530546619
 21
-13.789057890361899
 31
0.0
  0
ARC
  5
1EF7
  8
247
 10
2.7879513407498839
 20
-14.057106527851881
 30
0.0
 40
0.3637471675872803
 50
351.66260168792928
 51
156.3381550951899
  0
LINE
  5
1EF8
  8
247
 10
2.4547848003938371
 20
-13.91112002739743
 30
0.0
 11
3.1478542756141779
 21
-14.109850052609479
 31
0.0
  0
LINE
  5
1EF9
  8
247
 10
3.4145636359726259
 20
-14.791790334896911
 30
0.0
 11
2.565695847530435
 21
-13.942922546454779
 31
0.0
  0
LINE
  5
1EFA
  8
247
 10
3.036847454998961
 20
-14.683481837555339
 30
0.0
 11
2.2059414530546619
 21
-13.85257583561104
 31
0.0
  0
LINE
  5
1EFB
  8
240
 10
0.0
 20
-11.0
 30
0.0
 11
0.0
 21
-17.199999999999982
 31
0.0
1001
GRPNAME
1000
PASTMD0B
  0
LINE
  5
1EFC
  8
240
 10
0.3000000000000114
 20
-17.5
 30
0.0
 11
0.4006253819101744
 21
-17.5
 31
0.0
1001
GRPNAME
1000
PASTMD0B
  0
LINE
  5
1EFD
  8
240
 10
0.3000000000000114
 20
-17.5
 30
0.0
 11
0.0
 21
-17.199999999999982
 31
0.0
1001
GRPNAME
1000
PASTMD0B
  0
LINE
  5
1EFE
  8
247
 10
2.2059414530546051
 20
-14.5713673921096
 30
0.0
 11
2.4484463358670601
 21
-14.640901693867869
 31
0.0
  0
LINE
  5
1EFF
  8
247
 10
2.2059414530546051
 20
-14.697499594258201
 30
0.0
 11
2.4484463358670601
 21
-14.767033896016009
 31
0.0
1001
ACAD
1000
ASC_BOUNDS
1002
{
1070
    19
1005
1ED1
1002
}
  0
LINE
  5
1F00
  8
247
 10
2.2059414530546051
 20
-15.198302206562911
 30
0.0
 11
2.2059414530546051
 21
-14.697499594258201
 31
0.0
1001
ACAD
1000
ASC_BOUNDS
1002
{
1070
    19
1005
1ED1
1002
}
  0
LINE
  5
1F01
  8
247
 10
2.4484463358670601
 20
-14.640901693867869
 30
0.0
 11
2.448446335867799
 21
-14.51476033644593
 31
0.0
  0
LINE
  5
1F02
  8
247
 10
2.4484463358670601
 20
-15.198302206562911
 30
0.0
 11
2.4484463358670601
 21
-14.767033896016009
 31
0.0
1001
ACAD
1000
ASC_BOUNDS
1002
{
1070
    19
1005
1ED1
1002
}
  0
LINE
  5
1F03
  8
247
 10
2.6591312740252979
 20
-14.57517334021378
 30
0.0
 11
2.2059414530546051
 21
-14.121983519243081
 31
0.0
  0
LINE
  5
1F04
  8
247
 10
2.448446335867116
 20
-14.63389608568769
 30
0.0
 11
2.2059414530546051
 21
-14.391391202875241
 31
0.0
  0
LINE
  5
1F05
  8
247
 10
3.1516995096952201
 20
-11.285466513203509
 30
0.0
 11
3.1516995096952201
 21
-10.579091391133201
 31
0.0
1001
ACAD
1000
ASC_BOUNDS
1002
{
1070
    19
1005
1EDE
1002
}
  0
LINE
  5
1F06
  8
247
 10
3.394204392507731
 20
-11.35500081496132
 30
0.0
 11
3.1516995096952201
 21
-11.285466513203509
 31
0.0
1001
ACAD
1000
ASC_BOUNDS
1002
{
1070
    19
1005
1EDE
1002
}
  0
LINE
  5
1F07
  8
247
 10
3.394204392507731
 20
-11.35500081496132
 30
0.0
 11
3.394204392507731
 21
-11.1531819673051
 31
0.0
1001
ACAD
1000
ASC_BOUNDS
1002
{
1070
    19
1005
1EDE
1002
}
  0
ARC
  5
1F08
  8
247
 10
3.641772141531133
 20
-10.239064535664451
 30
0.0
 40
2.0624633789062501
 50
245.2051773698407
 51
262.79482596204889
1001
ACAD
1000
ASC_BOUNDS
1002
{
1070
    19
1005
1EDE
1002
}
  0
POLYLINE
  5
1F09
  8
247
 66
     1
 10
0.0
 20
0.0
 30
0.0
 70
     1
1001
HATCH_DISTANCE
1040
1.0
1001
HATCH_DISPLAY
1070
     0
1001
HATCH_TYPE
1070
     7
  0
VERTEX
  5
1F0A
  8
247
 10
2.4796108866483451
 20
-10.527043661641009
 30
0.0
  0
VERTEX
  5
1F0B
  8
247
 10
2.248009934499918
 20
-10.600075277851881
 30
0.0
  0
VERTEX
  5
1F0C
  8
247
 10
2.248009934499918
 20
-10.600075277851881
 30
0.0
  0
VERTEX
  5
1F0D
  8
247
 10
2.4796108866483451
 20
-10.527043661641009
 30
0.0
  0
SEQEND
  5
1F0E
  8
247
  0
POLYLINE
  5
1F0F
  8
247
 66
     1
 10
0.0
 20
0.0
 30
0.0
 70
     1
  0
VERTEX
  5
1F10
  8
247
 10
2.4796108866483451
 20
-10.527043661641009
 30
0.0
  0
VERTEX
  5
1F11
  8
247
 10
2.248009934499918
 20
-10.600075277851881
 30
0.0
  0
VERTEX
  5
1F12
  8
247
 10
2.248009934499918
 20
-10.600075277851881
 30
0.0
  0
VERTEX
  5
1F13
  8
247
 10
2.4796108866483451
 20
-10.527043661641009
 30
0.0
  0
SEQEND
  5
1F14
  8
247
  0
POLYLINE
  5
1F15
  8
247
 66
     1
 10
0.0
 20
0.0
 30
0.0
 70
     1
1001
HATCH_DISTANCE
1040
1.0
1001
HATCH_DISPLAY
1070
     0
1001
HATCH_TYPE
1070
     7
  0
VERTEX
  5
1F16
  8
247
 10
2.4796108866483451
 20
-10.527043661641009
 30
0.0
  0
VERTEX
  5
1F17
  8
247
 10
2.248009934499918
 20
-10.600075277851881
 30
0.0
  0
VERTEX
  5
1F18
  8
247
 10
2.248009934499918
 20
-10.600075277851881
 30
0.0
  0
VERTEX
  5
1F19
  8
247
 10
2.4796108866483451
 20
-10.527043661641009
 30
0.0
  0
SEQEND
  5
1F1A
  8
247
  0
POLYLINE
  5
1F1B
  8
247
 66
     1
 10
0.0
 20
0.0
 30
0.0
 70
     1
  0
VERTEX
  5
1F1C
  8
247
 10
2.4796108866483451
 20
-10.527043661641009
 30
0.0
  0
VERTEX
  5
1F1D
  8
247
 10
2.248009934499918
 20
-10.600075277851881
 30
0.0
  0
VERTEX
  5
1F1E
  8
247
 10
2.248009934499918
 20
-10.600075277851881
 30
0.0
  0
VERTEX
  5
1F1F
  8
247
 10
2.4796108866483451
 20
-10.527043661641009
 30
0.0
  0
SEQEND
  5
1F20
  8
247
  0
LINE
  5
1F21
  8
247
 10
2.4796108866483451
 20
-10.527043661641009
 30
0.0
 11
2.248009934499918
 21
-10.600075277851881
 31
0.0
1001
ACAD
1000
ASC_BOUNDS
1002
{
1070
    19
1005
1ED1
1002
}
  0
LINE
  5
1F22
  8
247
 10
2.516076340749918
 20
-10.6426839204301
 30
0.0
 11
2.2844753886014351
 21
-10.715715536640969
 31
0.0
1001
ACAD
1000
ASC_BOUNDS
1002
{
1070
    19
1005
1EDE
1002
}
  0
ARC
  5
1F23
  8
247
 10
3.479082932546758
 20
-10.27548421339878
 30
0.0
 40
1.2731420516967771
 50
200.22964506332011
 51
208.57168892371661
1001
ACAD
1000
ASC_BOUNDS
1002
{
1070
    19
1005
1EDE
1002
}
  0
LINE
  5
1F24
  8
247
 10
2.472689499929571
 20
-12.869310507344091
 30
0.0
 11
2.2059414530546051
 21
-12.79281819777378
 31
0.0
  0
LINE
  5
1F25
  8
247
 10
2.472689499929571
 20
-12.869310507344091
 30
0.0
 11
2.472689499929571
 21
-12.7810078950394
 31
0.0
  0
LINE
  5
1F26
  8
247
 10
2.4824476185945619
 20
-13.859674317518911
 30
0.0
 11
2.23234563488711
 21
-13.6095723338114
 31
0.0
  0
LINE
  5
1F27
  8
247
 10
2.6243886733079762
 20
-13.732207688600219
 30
0.0
 11
2.3220030064735502
 21
-13.4298220217658
 31
0.0
  0
LINE
  5
1F28
  8
247
 10
2.2059414530546051
 20
-12.79281819777378
 30
0.0
 11
2.2059414530546051
 21
-12.16212972121132
 31
0.0
  0
ARC
  5
1F29
  8
247
 10
2.7273251200467712
 20
-11.226845297383131
 30
0.0
 40
0.2546300053596497
 50
91.710121382062738
 51
253.9983983544486
1001
ACAD
1000
ASC_BOUNDS
1002
{
1070
    19
1005
1EDE
1002
}
  0
ARC
  5
1F2A
  8
247
 10
3.479082932546758
 20
-10.27548421339878
 30
0.0
 40
1.030639457702635
 50
200.8721834020736
 51
222.5419489373881
1001
ACAD
1000
ASC_BOUNDS
1002
{
1070
    19
1005
1EDE
1002
}
  0
ARC
  5
1F2B
  8
247
 10
2.994073166921793
 20
-11.35379231886753
 30
0.0
 40
0.7881328582763673
 50
143.44401219705779
 51
254.00018438768541
1001
ACAD
1000
ASC_BOUNDS
1002
{
1070
    19
1005
1EDE
1002
}
  0
ARC
  5
1F2C
  8
247
 10
2.8121945048123962
 20
-13.786559042500411
 30
0.0
 40
0.606258201599121
 50
17.669577547398159
 51
180.2361598426715
  0
LINE
  5
1F2D
  8
247
 10
2.862714116159621
 20
-13.70112544781983
 30
0.0
 11
2.4569056061068291
 21
-13.295316937767041
 31
0.0
  0
LINE
  5
1F2E
  8
247
 10
4.3884673739224791
 20
-14.418655654686461
 30
0.0
 11
3.4986618220362962
 21
-13.52885010280027
 31
0.0
  0
LINE
  5
1F2F
  8
247
 10
4.3884673739225359
 20
-14.14924797105442
 30
0.0
 11
3.702884400035316
 21
-13.4636649971672
 31
0.0
  0
LINE
  5
1F30
  8
247
 10
4.7522246919000963
 20
-15.198302206562911
 30
0.0
 11
4.7522246919000963
 21
-10.27548421339878
 31
0.0
1001
ACAD
1000
ASC_BOUNDS
1002
{
1070
    19
1005
1ED1
1002
}
  0
LINE
  5
1F31
  8
247
 10
4.5097198153287641
 20
-15.198302206562911
 30
0.0
 11
4.5097198153287641
 21
-10.27548421339878
 31
0.0
1001
ACAD
1000
ASC_BOUNDS
1002
{
1070
    19
1005
1ED1
1002
}
  0
LINE
  5
1F32
  8
247
 10
4.3884673739224791
 20
-15.071053061055011
 30
0.0
 11
4.3884673739224791
 21
-14.064705404805011
 31
0.0
  0
LINE
  5
1F33
  8
247
 10
4.3884673739224791
 20
-14.68806333831861
 30
0.0
 11
4.0765520488251923
 21
-14.37614801322121
 31
0.0
  0
LINE
  5
1F34
  8
247
 10
4.3884673739224791
 20
-14.957471021950649
 30
0.0
 11
3.6988414485755921
 21
-14.2678450966037
 31
0.0
  0
ARC
  5
1F35
  8
247
 10
3.867083420828008
 20
-11.55367024855507
 30
0.0
 40
0.2546298265457153
 50
254.00027305718399
 51
74.00027305718406
1001
ACAD
1000
ASC_BOUNDS
1002
{
1070
    19
1005
1EDE
1002
}
  0
LINE
  5
1F36
  8
247
 10
4.246221890524053
 20
-11.075984701680049
 30
0.0
 11
4.3884673739224791
 21
-10.93373006300822
 31
0.0
1001
ACAD
1000
ASC_BOUNDS
1002
{
1070
    19
1005
1EDE
1002
}
  0
LINE
  5
1F37
  8
247
 10
4.3884673739224791
 20
-13.33035176710978
 30
0.0
 11
4.3884673739224791
 21
-12.787956747578439
 31
0.0
  0
LINE
  5
1F38
  8
247
 10
4.3430133279127281
 20
-13.83438624141257
 30
0.0
 11
4.012533199454877
 21
-13.50390611295466
 31
0.0
  0
LINE
  5
1F39
  8
245
 10
-10.0
 20
4.845667897579915
 30
0.0
 11
-10.0
 21
-5.0356906689445964
 31
0.0
1001
GRPNAME
1000
PASTMD01
  0
CIRCLE
  5
1F3A
  8
241
 10
-10.0
 20
0.0
 30
0.0
 40
3.0
1001
GRPNAME
1000
PASTMD01
  0
LINE
  5
1F3B
  8
240
 10
-19.49999999999994
 20
11.0
 30
0.0
 11
0.0
 21
11.0
 31
0.0
1001
GRPNAME
1000
PASTMD0C
  0
LINE
  5
1F3C
  8
240
 10
-21.641016615246709
 20
10.69909973778152
 30
0.0
 11
-19.49999999999994
 21
11.0
 31
0.0
1001
GRPNAME
1000
PASTMD0C
  0
LINE
  5
1F3D
  8
240
 10
-21.641016615246709
 20
10.69909973778152
 30
0.0
 11
-23.295811093399891
 21
10.990884651807271
 31
0.0
1001
GRPNAME
1000
PASTMD0C
  0
LINE
  5
1F3E
  8
240
 10
-24.0
 20
10.74641016151377
 30
0.0
 11
-23.699999999999982
 21
10.91961524227065
 31
0.0
1001
GRPNAME
1000
PASTMD0C
  0
ARC
  5
1F3F
  8
240
 10
-23.400000000000031
 20
10.39999999999997
 30
0.0
 40
0.6000000000000055
 50
79.999999940005125
 51
119.9999999399992
1001
GRPNAME
1000
PASTMD0C
  0
LINE
  5
1F40
  8
240
 10
0.0
 20
17.199999999999982
 30
0.0
 11
0.0
 21
11.0
 31
0.0
1001
GRPNAME
1000
PASTMD0B
  0
LINE
  5
1F41
  8
240
 10
0.9006253819101742
 20
19.0
 30
0.0
 11
0.4006253819101744
 21
18.5
 31
0.0
1001
GRPNAME
1000
PASTMD0D
  0
LINE
  5
1F42
  8
240
 10
0.4006253819101744
 20
17.5
 30
0.0
 11
0.4006253819101744
 21
18.5
 31
0.0
1001
GRPNAME
1000
PASTMD0D
  0
LINE
  5
1F43
  8
240
 10
0.3000000000000114
 20
17.5
 30
0.0
 11
0.4006253819101744
 21
17.5
 31
0.0
1001
GRPNAME
1000
PASTMD0B
  0
LINE
  5
1F44
  8
240
 10
0.0
 20
17.199999999999982
 30
0.0
 11
0.3000000000000114
 21
17.5
 31
0.0
1001
GRPNAME
1000
PASTMD0B
  0
LINE
  5
1F45
  8
241
 10
17.900625381910171
 20
3.0373098770626248
 30
0.0
 11
17.900625381910171
 21
19.0
 31
0.0
1001
GRPNAME
1000
PASTMD0D
  0
LINE
  5
1F46
  8
245
 10
30.5
 20
-18.24583731842614
 30
0.0
 11
30.5
 21
27.254834058205631
 31
0.0
1001
GRPNAME
1000
PASTMD0B
  0
LINE
  5
1F47
  8
240
 10
43.0
 20
10.887168574084219
 30
0.0
 11
43.0
 21
-14.07461258708377
 31
0.0
1001
GRPNAME
1000
PASTMD0B
  0
LINE
  5
1F48
  8
240
 10
33.732308546376032
 20
-17.89999999999997
 30
0.0
 11
27.267691453623961
 21
-17.89999999999997
 31
0.0
1001
GRPNAME
1000
PASTMD0E
  0
LINE
  5
1F49
  8
241
 10
40.450000000000102
 20
-16.099999999999959
 30
0.0
 11
20.550000000000239
 21
-16.099999999999959
 31
0.0
1001
GRPNAME
1000
PASTMD0B
  0
LINE
  5
1F4A
  8
241
 10
17.900625381910171
 20
-19.0
 30
0.0
 11
17.900625381910171
 21
-3.0373098770626248
 31
0.0
1001
GRPNAME
1000
PASTMD0D
  0
LINE
  5
1F4B
  8
240
 10
27.267691453623961
 20
-17.89999999999997
 30
0.0
 11
20.550000000000011
 21
-16.099999999999959
 31
0.0
1001
GRPNAME
1000
PASTMD0E
  0
LINE
  5
1F4C
  8
240
 10
20.0
 20
-16.099999999999959
 30
0.0
 11
18.325684219349959
 21
-19.0
 31
0.0
1001
GRPNAME
1000
PASTMD0B
  0
LINE
  5
1F4D
  8
240
 10
17.900625381910171
 20
-19.0
 30
0.0
 11
18.325684219349959
 21
-19.0
 31
0.0
1001
GRPNAME
1000
PASTMD0B
  0
LINE
  5
1F4E
  8
240
 10
20.550000000000239
 20
-16.099999999999959
 30
0.0
 11
20.0
 21
-16.099999999999959
 31
0.0
1001
GRPNAME
1000
PASTMD0B
  0
LINE
  5
1F4F
  8
241
 10
22.099999999999959
 20
1.154700538379245
 30
0.0
 11
20.100000000000019
 21
2.309401076758546
 31
0.0
1001
GRPNAME
1000
PASTMD0G
  0
LINE
  5
1F50
  8
241
 10
20.100000000000019
 20
-2.309401076758546
 30
0.0
 11
22.099999999999959
 21
-1.154700538379245
 31
0.0
1001
GRPNAME
1000
PASTMD0G
  0
CIRCLE
  5
1F51
  8
242
 10
20.100000000000019
 20
0.0
 30
0.0
 40
3.5
1001
GRPNAME
1000
PASTMD0G
  0
CIRCLE
  5
1F52
  8
241
 10
20.100000000000019
 20
0.0
 30
0.0
 40
3.75
1001
GRPNAME
1000
PASTMD0G
  0
LINE
  5
1F53
  8
241
 10
18.100000000000019
 20
-1.154700538379245
 30
0.0
 11
20.100000000000019
 21
-2.309401076758546
 31
0.0
1001
GRPNAME
1000
PASTMD0G
  0
LINE
  5
1F54
  8
245
 10
20.100000000000019
 20
4.4704756595972981
 30
0.0
 11
20.100000000000019
 21
-4.4241437550276119
 31
0.0
1001
GRPNAME
1000
PASTMD0B
  0
LINE
  5
1F55
  8
241
 10
20.100000000000019
 20
2.309401076758546
 30
0.0
 11
18.100000000000019
 21
1.154700538379245
 31
0.0
1001
GRPNAME
1000
PASTMD0G
  0
LINE
  5
1F56
  8
241
 10
18.100000000000019
 20
1.154700538379245
 30
0.0
 11
18.100000000000019
 21
-1.154700538379245
 31
0.0
1001
GRPNAME
1000
PASTMD0G
  0
LINE
  5
1F57
  8
241
 10
22.099999999999959
 20
-1.154700538379245
 30
0.0
 11
22.099999999999959
 21
1.154700538379245
 31
0.0
1001
GRPNAME
1000
PASTMD0G
  0
LINE
  5
1F58
  8
240
 10
40.450000000000102
 20
-16.099999999999959
 30
0.0
 11
33.732308546376032
 21
-17.89999999999997
 31
0.0
1001
GRPNAME
1000
PASTMD0E
  0
LINE
  5
1F59
  8
240
 10
41.830664993293553
 20
-16.099999999999959
 30
0.0
 11
40.450000000000102
 21
-16.099999999999959
 31
0.0
1001
GRPNAME
1000
PASTMD0B
  0
LINE
  5
1F5A
  8
107
 10
38.338110350000079
 20
-16.545867920000031
 30
0.0
 11
38.350683600000131
 21
-16.558471680000022
 31
0.0
1001
GRPNAME
1000
PASTMD0B
  0
LINE
  5
1F5B
  8
240
 10
43.0
 20
-14.07461258708377
 30
0.0
 11
41.830664993293553
 21
-16.099999999999959
 31
0.0
1001
GRPNAME
1000
PASTMD0B
  0
LINE
  5
1F5C
  8
240
 10
23.800000000000011
 20
25.495378347903451
 30
0.0
 11
39.300000000000182
 21
25.495378347903451
 31
0.0
1001
GRPNAME
1000
PASTMD0D
  0
LINE
  5
1F5D
  8
241
 10
32.498783303653511
 20
20.695378347903439
 30
0.0
 11
28.501216696346649
 21
20.6953783479035
 31
0.0
1001
GRPNAME
1000
PASTMD0F
  0
LINE
  5
1F5E
  8
240
 10
22.800000000000011
 20
18.895378347903431
 30
0.0
 11
39.0
 21
18.895378347903431
 31
0.0
1001
GRPNAME
1000
PASTMD0D
  0
LINE
  5
1F5F
  8
241
 10
38.200000000000038
 20
18.895378347903431
 30
0.0
 11
22.800000000000061
 21
18.895378347903481
 31
0.0
1001
GRPNAME
1000
PASTMD0F
  0
LINE
  5
1F60
  8
241
 10
38.50000000000005
 20
18.59537834790342
 30
0.0
 11
22.50000000000005
 21
18.59537834790342
 31
0.0
1001
GRPNAME
1000
PASTMD0F
  0
LINE
  5
1F61
  8
241
 10
22.50000000000005
 20
16.38012701892222
 30
0.0
 11
38.5
 21
12.09293994002422
 31
0.0
1001
GRPNAME
1000
PASTMD0B
  0
LINE
  5
1F62
  8
240
 10
22.800000000000011
 20
18.895378347903431
 30
0.0
 11
22.800000000000011
 21
24.495378347903451
 31
0.0
1001
GRPNAME
1000
PASTMD0D
  0
LINE
  5
1F63
  8
240
 10
20.00067375537003
 20
17.049819467792702
 30
0.0
 11
22.50000000000005
 21
16.38012701892222
 31
0.0
1001
GRPNAME
1000
PASTMD0B
  0
LINE
  5
1F64
  8
240
 10
19.478124456669491
 20
19.0
 30
0.0
 11
20.00067375537003
 21
17.049819467792702
 31
0.0
1001
GRPNAME
1000
PASTMD0B
  0
LINE
  5
1F65
  8
240
 10
17.900625381910171
 20
19.0
 30
0.0
 11
19.478124456669491
 21
19.0
 31
0.0
1001
GRPNAME
1000
PASTMD0B
  0
LINE
  5
1F66
  8
240
 10
22.800000000000061
 20
18.895378347903481
 30
0.0
 11
22.50000000000005
 21
18.59537834790347
 31
0.0
1001
GRPNAME
1000
PASTMD0F
  0
LINE
  5
1F67
  8
240
 10
22.50000000000005
 20
16.38012701892222
 30
0.0
 11
22.50000000000005
 21
18.59537834790347
 31
0.0
1001
GRPNAME
1000
PASTMD0F
  0
LINE
  5
1F68
  8
241
 10
28.268207175174489
 20
20.498121227596009
 30
0.0
 11
28.00000000000011
 21
18.895378347903431
 31
0.0
1001
GRPNAME
1000
PASTMD0F
  0
LINE
  5
1F69
  8
241
 10
28.268207175174489
 20
20.498121227596009
 30
0.0
 11
28.501216696346649
 21
20.6953783479035
 31
0.0
1001
GRPNAME
1000
PASTMD0F
  0
ARC
  5
1F6A
  8
240
 10
23.800000000000011
 20
24.495378347903451
 30
0.0
 40
1.0
 50
89.999999992281175
 51
179.99999999228109
1001
GRPNAME
1000
PASTMD0D
  0
LINE
  5
1F6B
  8
241
 10
46.999451813891987
 20
26.579065617502799
 30
0.0
 11
46.496352443112862
 21
16.979357756160081
 31
0.0
1001
GRPNAME
1000
PASTMD0D
  0
CIRCLE
  5
1F6C
  8
246
 10
43.577253355656573
 20
21.945378347902871
 30
0.0
 40
3.174999999999998
1001
GRPNAME
1000
PASTMD0D
  0
LINE
  5
1F6D
  8
241
 10
37.853263237872852
 20
22.592245514726638
 30
0.0
 11
46.418403800094389
 21
26.956402609675362
 31
0.0
1001
GRPNAME
1000
PASTMD0D
  0
LINE
  5
1F6E
  8
241
 10
45.879045015205001
 20
16.6648239114791
 30
0.0
 11
37.817003823762612
 21
21.90037467787311
 31
0.0
1001
GRPNAME
1000
PASTMD0D
  0
LINE
  5
1F6F
  8
240
 10
43.503332099679312
 20
16.295378347903402
 30
0.0
 11
46.230190961671333
 21
16.295378347903402
 31
0.0
1001
GRPNAME
1000
PASTMD0D
  0
LINE
  5
1F70
  8
240
 10
38.5
 20
12.09293994002422
 30
0.0
 11
38.50000000000005
 21
18.59537834790342
 31
0.0
1001
GRPNAME
1000
PASTMD0F
  0
LINE
  5
1F71
  8
240
 10
38.5
 20
12.09293994002422
 30
0.0
 11
43.0
 21
10.887168574084219
 31
0.0
1001
GRPNAME
1000
PASTMD0B
  0
LINE
  5
1F72
  8
240
 10
38.50000000000005
 20
18.59537834790342
 30
0.0
 11
38.200000000000038
 21
18.895378347903431
 31
0.0
1001
GRPNAME
1000
PASTMD0F
  0
LINE
  5
1F73
  8
241
 10
33.000000000000057
 20
18.895378347903431
 30
0.0
 11
32.731792824825618
 21
20.498121227596009
 31
0.0
1001
GRPNAME
1000
PASTMD0F
  0
LINE
  5
1F74
  8
241
 10
32.498783303653511
 20
20.695378347903439
 30
0.0
 11
32.731792824825618
 21
20.498121227596009
 31
0.0
1001
GRPNAME
1000
PASTMD0F
  0
ARC
  5
1F75
  8
241
 10
38.034859437768652
 20
22.235842905051289
 30
0.0
 40
0.4000000000000023
 50
117.00000001053451
 51
237.00000001053161
1001
GRPNAME
1000
PASTMD0D
  0
LINE
  5
1F76
  8
240
 10
43.503332099679312
 20
16.295378347903402
 30
0.0
 11
39.0
 21
18.895378347903431
 31
0.0
1001
GRPNAME
1000
PASTMD0D
  0
ARC
  5
1F77
  8
241
 10
46.096900629211063
 20
17.000292138657301
 30
0.0
 40
0.3999999999999535
 50
237.00000000024511
 51
357.00000000023908
1001
GRPNAME
1000
PASTMD0D
  0
LINE
  5
1F78
  8
240
 10
46.230190961671333
 20
16.295378347903402
 30
0.0
 11
46.247717986306768
 21
16.62981390070177
 31
0.0
1001
GRPNAME
1000
PASTMD0D
  0
LINE
  5
1F79
  8
240
 10
39.300000000000239
 20
25.495378347903451
 30
0.0
 11
45.800580996202989
 21
26.6416061678147
 31
0.0
1001
GRPNAME
1000
PASTMD0D
  0
ARC
  5
1F7A
  8
241
 10
46.599999999990168
 20
26.600000000000019
 30
0.0
 40
0.3999999999999836
 50
357.00000022649562
 51
117.0000002265018
1001
GRPNAME
1000
PASTMD0D
  0
ENDBLK
  5
1F7C
  8
0
  0
BLOCK
  8
0
  2
GENAXEH
 70
     0
 10
0.0
 20
0.0
 30
0.0
  3
GENAXEH
  1

  0
LINE
  5
204B
  8
0
 10
-1.0
 20
0.0
 30
0.0
 11
1.0
 21
0.0
 31
0.0
  0
ENDBLK
  5
204D
  8
0
  0
BLOCK
  8
0
  2
*U6
 70
     1
 10
0.0
 20
0.0
 30
0.0
  3
*U6
  1

  0
TEXT
  5
209D
  8
250
 62
    40
 10
20.642857142852218
 20
43.0
 30
0.0
 40
3.0
  1
47
  0
ENDBLK
  5
209F
  8
0
  0
BLOCK
  8
0
  2
*U7
 70
     1
 10
0.0
 20
0.0
 30
0.0
  3
*U7
  1

  0
TEXT
  5
20A1
  8
250
 62
    40
 10
60.71428172095068
 20
-13.114287162298201
 30
0.0
 40
3.0
  1
(
 50
90.0
  0
TEXT
  5
20A2
  8
250
 62
    40
 10
60.71428172095068
 20
-11.114287162298201
 30
0.0
 40
3.0
  1
âË41ü`âË54
 50
90.0
  0
TEXT
  5
20A3
  8
250
 62
    40
 10
60.71428172095068
 20
11.114284266273231
 30
0.0
 40
3.0
  1
)
 50
90.0
  0
ENDBLK
  5
20A5
  8
0
  0
BLOCK
  8
0
  2
*X8
 70
     1
 10
0.0
 20
0.0
 30
0.0
  3
*X8
  1

  0
LINE
  5
20A7
  8
0
 62
     0
 10
4.6842791537633204
 20
-9.8651291291499401
 30
0.0
 11
3.8894380167956011
 21
-9.070287992182223
 31
0.0
  0
LINE
  5
20A8
  8
0
 62
     0
 10
3.8727263366091691
 20
-9.3229839956278582
 30
0.0
 11
3.5543094869370071
 21
-9.0045671459556971
 31
0.0
  0
LINE
  5
20A9
  8
0
 62
     0
 10
4.7499999999898463
 20
-10.20025765900853
 30
0.0
 11
4.4315831503176781
 21
-9.8818408093363672
 31
0.0
  0
LINE
  5
20AA
  8
0
 62
     0
 10
3.526262722784935
 20
-9.2459280654357041
 30
0.0
 11
3.295921592992328
 21
-9.0155869356430998
 31
0.0
  0
LINE
  5
20AB
  8
0
 62
     0
 10
4.7522246919000963
 20
-10.471890034550871
 30
0.0
 11
4.5086390805098304
 21
-10.2283044231606
 31
0.0
  0
LINE
  5
20AC
  8
0
 62
     0
 10
3.275984198779923
 20
-9.2650572250627619
 30
0.0
 11
3.0780732838541871
 21
-9.0671463101370264
 31
0.0
  0
LINE
  5
20AD
  8
0
 62
     0
 10
4.7522246919000963
 20
-10.741297718182929
 30
0.0
 11
4.5097198153287641
 21
-10.4987928416116
 31
0.0
  0
LINE
  5
20AE
  8
0
 62
     0
 10
3.0707203540512888
 20
-9.3292010639662095
 30
0.0
 11
2.8889128564039548
 21
-9.1473935663188755
 31
0.0
  0
LINE
  5
20AF
  8
0
 62
     0
 10
4.7522246919000963
 20
-11.010705401815009
 30
0.0
 11
4.509719815328757
 21
-10.76820052524368
 31
0.0
  0
LINE
  5
20B0
  8
0
 62
     0
 10
2.8970425769983299
 20
-9.4249309705453186
 30
0.0
 11
2.7231597197593231
 21
-9.2510481133063092
 31
0.0
  0
LINE
  5
20B1
  8
0
 62
     0
 10
4.7522246919000963
 20
-11.280113085447081
 30
0.0
 11
4.5097198153287641
 21
-11.037608208875749
 31
0.0
  0
LINE
  5
20B2
  8
0
 62
     0
 10
2.7498655452627849
 20
-9.5471616224418554
 30
0.0
 11
2.5783886719967759
 21
-9.3756847491758464
 31
0.0
  0
LINE
  5
20B3
  8
0
 62
     0
 10
4.7522246919000963
 20
-11.549520769079161
 30
0.0
 11
4.509719815328757
 21
-11.307015892507829
 31
0.0
  0
LINE
  5
20B4
  8
0
 62
     0
 10
2.6278031848678292
 20
-9.6945069456789668
 30
0.0
 11
2.4538874488726701
 21
-9.5205912096838077
 31
0.0
  0
LINE
  5
20B5
  8
0
 62
     0
 10
4.7522246919000963
 20
-11.81892845271123
 30
0.0
 11
4.5097198153287641
 21
-11.5764235761399
 31
0.0
  0
LINE
  5
20B6
  8
0
 62
     0
 10
2.5322609889057399
 20
-9.8683724333489593
 30
0.0
 11
2.3503781268582808
 21
-9.6864895713015002
 31
0.0
  0
LINE
  5
20B7
  8
0
 62
     0
 10
4.7522246919000963
 20
-12.08833613634331
 30
0.0
 11
4.509719815328757
 21
-11.84583125977197
 31
0.0
  0
LINE
  5
20B8
  8
0
 62
     0
 10
2.4683573861869439
 20
-10.07387651426223
 30
0.0
 11
2.2702997300626389
 21
-9.8758188581379258
 31
0.0
  0
LINE
  5
20B9
  8
0
 62
     0
 10
4.7522246919000963
 20
-12.357743819975379
 30
0.0
 11
4.5097198153287641
 21
-12.11523894340405
 31
0.0
  0
LINE
  5
20BA
  8
0
 62
     0
 10
2.4496145296249381
 20
-10.324541341332299
 30
0.0
 11
2.218959373882917
 21
-10.09388618559028
 31
0.0
  0
LINE
  5
20BB
  8
0
 62
     0
 10
4.7522246919000892
 20
-12.627151503607459
 30
0.0
 11
4.509719815328757
 21
-12.384646627036121
 31
0.0
  0
LINE
  5
20BC
  8
0
 62
     0
 10
2.4059400680027769
 20
-10.55027456334221
 30
0.0
 11
2.2082799777820759
 21
-10.352614473121511
 31
0.0
  0
LINE
  5
20BD
  8
0
 62
     0
 10
4.7522246919000963
 20
-12.89655918723953
 30
0.0
 11
4.5097198153287641
 21
-12.654054310668201
 31
0.0
  0
LINE
  5
20BE
  8
0
 62
     0
 10
4.7522246919000963
 20
-13.16596687087161
 30
0.0
 11
4.509719815328757
 21
-12.92346199430027
 31
0.0
  0
LINE
  5
20BF
  8
0
 62
     0
 10
4.7522246919000963
 20
-13.43537455450368
 30
0.0
 11
4.5097198153287641
 21
-13.19286967793235
 31
0.0
  0
LINE
  5
20C0
  8
0
 62
     0
 10
4.7522246919000892
 20
-13.704782238135749
 30
0.0
 11
4.509719815328757
 21
-13.46227736156442
 31
0.0
  0
LINE
  5
20C1
  8
0
 62
     0
 10
4.7522246919000963
 20
-13.974189921767829
 30
0.0
 11
4.5097198153287641
 21
-13.7316850451965
 31
0.0
  0
LINE
  5
20C2
  8
0
 62
     0
 10
4.7522246919000963
 20
-14.243597605399909
 30
0.0
 11
4.509719815328757
 21
-14.001092728828571
 31
0.0
  0
LINE
  5
20C3
  8
0
 62
     0
 10
4.7522246919000963
 20
-14.51300528903198
 30
0.0
 11
4.5097198153287641
 21
-14.270500412460651
 31
0.0
  0
LINE
  5
20C4
  8
0
 62
     0
 10
4.7522246919000892
 20
-14.78241297266405
 30
0.0
 11
4.509719815328757
 21
-14.53990809609272
 31
0.0
  0
LINE
  5
20C5
  8
0
 62
     0
 10
4.7522246919000892
 20
-15.05182065629613
 30
0.0
 11
4.509719815328757
 21
-14.8093157797248
 31
0.0
  0
LINE
  5
20C6
  8
0
 62
     0
 10
4.7467913641046229
 20
-15.315795012132741
 30
0.0
 11
4.509719815328757
 21
-15.078723463356869
 31
0.0
  0
LINE
  5
20C7
  8
0
 62
     0
 10
4.704655010293294
 20
-15.54306634195348
 30
0.0
 11
4.5001333016111067
 21
-15.338544633271299
 31
0.0
  0
LINE
  5
20C8
  8
0
 62
     0
 10
4.631536889363808
 20
-15.739355904656071
 30
0.0
 11
4.4463367846824724
 21
-15.55415579997474
 31
0.0
  0
LINE
  5
20C9
  8
0
 62
     0
 10
4.5339371742048007
 20
-15.911163873129141
 30
0.0
 11
4.3585043515308817
 21
-15.73573105045522
 31
0.0
  0
LINE
  5
20CA
  8
0
 62
     0
 10
4.4148905097695481
 20
-16.061524892325949
 30
0.0
 11
4.2432412694892099
 21
-15.88987565204561
 31
0.0
  0
LINE
  5
20CB
  8
0
 62
     0
 10
4.2755233736504996
 20
-16.191565439838978
 30
0.0
 11
4.1027664708896623
 21
-16.01880853707814
 31
0.0
  0
LINE
  5
20CC
  8
0
 62
     0
 10
4.1155088950827974
 20
-16.300958644903361
 30
0.0
 11
3.9364480948483158
 21
-16.121897844668879
 31
0.0
  0
LINE
  5
20CD
  8
0
 62
     0
 10
2.4484463358670601
 20
-14.903303769319701
 30
0.0
 11
2.2573958725172432
 21
-14.712253305969879
 31
0.0
  0
LINE
  5
20CE
  8
0
 62
     0
 10
3.932941245724904
 20
-16.387798679177539
 30
0.0
 11
3.740402169737421
 21
-16.19525960319006
 31
0.0
  0
LINE
  5
20CF
  8
0
 62
     0
 10
2.448446335867053
 20
-15.172711452951759
 30
0.0
 11
2.205941453054606
 21
-14.93020657013931
 31
0.0
  0
LINE
  5
20D0
  8
0
 62
     0
 10
3.7234973087386218
 20
-16.447762425823331
 30
0.0
 11
3.5043635829409041
 21
-16.22862870002561
 31
0.0
  0
LINE
  5
20D1
  8
0
 62
     0
 10
2.4882349745858501
 20
-15.481907775302631
 30
0.0
 11
2.2059421298233128
 21
-15.19961493054009
 31
0.0
  0
LINE
  5
20D2
  8
0
 62
     0
 10
3.477770208569587
 20
-16.471443009286372
 30
0.0
 11
3.1954773638070502
 21
-16.189150164523831
 31
0.0
  0
LINE
  5
20D3
  8
0
 62
     0
 10
3.170366915027734
 20
-16.4334473993766
 30
0.0
 11
2.2439377397330769
 21
-15.507018224081939
 31
0.0
  0
ENDBLK
  5
20D5
  8
0
  0
BLOCK
  8
0
  2
*X9
 70
     1
 10
0.0
 20
0.0
 30
0.0
  3
*X9
  1

  0
LINE
  5
20D7
  8
0
 62
     0
 10
4.3884673739224729
 20
-12.80220955289399
 30
0.0
 11
4.368484628925251
 21
-12.78222680789677
 31
0.0
  0
LINE
  5
20D8
  8
0
 62
     0
 10
4.38846737392248
 20
-13.071617236526061
 30
0.0
 11
3.9907691600666828
 21
-12.673919022670271
 31
0.0
  0
LINE
  5
20D9
  8
0
 62
     0
 10
4.3735033211932608
 20
-13.32606086742893
 30
0.0
 11
3.613053691208115
 21
-12.565611237443781
 31
0.0
  0
LINE
  5
20DA
  8
0
 62
     0
 10
3.9957863742643691
 20
-13.217751604132101
 30
0.0
 11
3.2353382223495402
 21
-12.457303452217269
 31
0.0
  0
LINE
  5
20DB
  8
0
 62
     0
 10
3.6180694273354632
 20
-13.10944234083528
 30
0.0
 11
2.8576227534909568
 21
-12.348995666990771
 31
0.0
  0
LINE
  5
20DC
  8
0
 62
     0
 10
3.2403524804065711
 20
-13.00113307753845
 30
0.0
 11
2.4799072846323891
 21
-12.24068788176427
 31
0.0
  0
LINE
  5
20DD
  8
0
 62
     0
 10
2.8626355334776639
 20
-12.89282381424163
 30
0.0
 11
2.205941453054606
 21
-12.23612973381857
 31
0.0
  0
LINE
  5
20DE
  8
0
 62
     0
 10
2.4849185865487722
 20
-12.784514550944809
 30
0.0
 11
2.2059414530545989
 21
-12.50553741745064
 31
0.0
  0
LINE
  5
20DF
  8
0
 62
     0
 10
2.231000427367241
 20
-12.80000407539535
 30
0.0
 11
2.205941453054606
 21
-12.77494510108272
 31
0.0
  0
ENDBLK
  5
20E1
  8
0
  0
BLOCK
  8
0
  2
*X10
 70
     1
 10
0.0
 20
0.0
 30
0.0
  3
*X10
  1

  0
LINE
  5
20E3
  8
0
 62
     0
 10
4.262454735119376
 20
-11.05975081229845
 30
0.0
 11
4.0351100677494918
 21
-10.83240614492856
 31
0.0
  0
LINE
  5
20E4
  8
0
 62
     0
 10
4.3847898861379662
 20
-11.4514936469491
 30
0.0
 11
3.6573935514152249
 21
-10.724097312226361
 31
0.0
  0
LINE
  5
20E5
  8
0
 62
     0
 10
4.0009698644674989
 20
-11.337081308910721
 30
0.0
 11
3.2796770350809501
 21
-10.61578847952417
 31
0.0
  0
LINE
  5
20E6
  8
0
 62
     0
 10
4.3683770627362639
 20
-11.70448850717948
 30
0.0
 11
4.0836723604723772
 21
-11.419783804915591
 31
0.0
  0
LINE
  5
20E7
  8
0
 62
     0
 10
3.6093574293852342
 20
-11.214876557460521
 30
0.0
 11
3.1516995096952201
 21
-10.757218637770499
 31
0.0
  0
LINE
  5
20E8
  8
0
 62
     0
 10
4.2947951752205
 20
-11.900314303295779
 30
0.0
 11
4.0830458353223804
 21
-11.68856496339766
 31
0.0
  0
LINE
  5
20E9
  8
0
 62
     0
 10
3.3942043925077239
 20
-11.269131204215091
 30
0.0
 11
3.1516995096952121
 21
-11.026626321402579
 31
0.0
  0
LINE
  5
20EA
  8
0
 62
     0
 10
4.1832048513623903
 20
-12.05813166306976
 30
0.0
 11
3.9263741302956841
 21
-11.801300942003049
 31
0.0
  0
LINE
  5
20EB
  8
0
 62
     0
 10
2.5278477583734471
 20
-10.672182253712879
 30
0.0
 11
2.5025992179082972
 21
-10.64693371324773
 31
0.0
  0
LINE
  5
20EC
  8
0
 62
     0
 10
4.038448931997471
 20
-12.18278342733691
 30
0.0
 11
3.5966936762392052
 21
-11.741028171578639
 31
0.0
  0
LINE
  5
20ED
  8
0
 62
     0
 10
2.595346301824569
 20
-11.00908848079608
 30
0.0
 11
2.2977784517592701
 21
-10.71152063073079
 31
0.0
  0
LINE
  5
20EE
  8
0
 62
     0
 10
3.858536749785479
 20
-12.27227892875699
 30
0.0
 11
3.2189767917478269
 21
-11.63271897071934
 31
0.0
  0
LINE
  5
20EF
  8
0
 62
     0
 10
2.4806288566846169
 20
-11.163778719288199
 30
0.0
 11
2.2990428530568532
 21
-10.982192715660441
 31
0.0
  0
LINE
  5
20F0
  8
0
 62
     0
 10
3.631987806149616
 20
-12.3151376687532
 30
0.0
 11
2.8412599072564708
 21
-11.52440976986006
 31
0.0
  0
LINE
  5
20F1
  8
0
 62
     0
 10
3.324406448771291
 20
-12.276963995006961
 30
0.0
 11
2.225729864955539
 21
-11.17828741119121
 31
0.0
  0
LINE
  5
20F2
  8
0
 62
     0
 10
2.9655573480441708
 20
-12.187522577911899
 30
0.0
 11
2.209807626377553
 21
-11.43177285624529
 31
0.0
  0
ENDBLK
  5
20F4
  8
0
  0
ENDSEC
  0
SECTION
  2
ENTITIES
  0
TEXT
  5
1DD0
  8
241
 10
-21.0
 20
56.0
 30
0.0
 40
5.0
  1
EWB41-54CK4
  7
YOKO
 11
-21.0
 21
56.0
 31
0.0
 73
     1
  0
LINE
  5
1DDF
  8
250
 10
-16.32818500908845
 20
-20.78489425430859
 30
0.0
 11
-30.471042151945589
 21
-20.78489425430859
 31
0.0
1001
ITEMNAME
1000
LNSP2
  0
LINE
  5
1E71
  8
250
 10
49.814648867619972
 20
39.203588074820118
 30
0.0
 11
72.243220296191382
 21
39.203588074820118
 31
0.0
1001
ITEMNAME
1000
LNSP2
  0
INSERT
  5
1F7D
  8
240
  2
A$C1FDB63F1
 10
0.0
 20
0.0
 30
0.0
  0
TEXT
  5
205E
  8
250
 10
52.243220296191403
 20
40.203588074820097
 30
0.0
 40
3.0
  1
EBH4-1
  7
YOKO
1001
ITEMNAME
1000
LNSP3
1001
ACAD
1000
MTEXTBEGIN
1070
    73
1070
     1
1070
    44
1040
1.0
1070
    74
1070
     0
1000
MTEXTEND
  0
LINE
  5
205F
  8
250
 10
47.099999999990189
 20
27.0
 30
0.0
 11
63.999996006664972
 21
26.999999999999989
 31
0.0
  0
LINE
  5
2060
  8
250
 10
62.999996006664958
 20
24.769999999999989
 30
0.0
 11
62.999996006664951
 21
-13.54285859086963
 31
0.0
  0
TEXT
  5
2063
  8
250
 10
-27.89961358051702
 20
-19.78489425430859
 30
0.0
 40
3.0
  1
CK4
  7
YOKO
1001
ITEMNAME
1000
LNSP3
1001
ACAD
1000
MTEXTBEGIN
1070
    73
1070
     1
1070
    44
1040
1.0
1070
    74
1070
     0
1000
MTEXTEND
  0
LINE
  5
2066
  8
250
 10
0.0
 20
17.699999999999982
 30
0.0
 11
0.0000000000000016
 21
43.0
 31
0.0
  0
LINE
  5
2067
  8
250
 10
46.999999999990159
 20
27.100000000000019
 30
0.0
 11
46.999999999990159
 21
43.0
 31
0.0
  0
LINE
  5
2068
  8
250
 10
2.23
 20
42.0
 30
0.0
 11
44.769999999990169
 21
42.0
 31
0.0
  0
TEXT
  5
206C
  8
250
 10
20.642857142852218
 20
43.0
 30
0.0
 40
3.0
  1
47
1001
ACAD
1000
MTEXTBEGIN
1070
    73
1070
     1
1070
    44
1040
1.0
1070
    74
1070
     0
1000
MTEXTEND
  0
LINE
  5
206D
  8
250
 10
44.769999999990162
 20
42.371666666666663
 30
0.0
 11
46.999999999990159
 21
42.0
 31
0.0
  0
LINE
  5
206E
  8
250
 10
44.769999999990162
 20
41.62833333333333
 30
0.0
 11
46.999999999990159
 21
42.0
 31
0.0
  0
LINE
  5
206F
  8
250
 10
46.999999999990159
 20
42.0
 30
0.0
 11
44.769999999990162
 21
42.0
 31
0.0
  0
LINE
  5
2070
  8
250
 10
2.23
 20
41.62833333333333
 30
0.0
 11
0.0000000000000015
 21
42.0
 31
0.0
  0
LINE
  5
2071
  8
250
 10
2.23
 20
42.371666666666663
 30
0.0
 11
0.0000000000000015
 21
42.0
 31
0.0
  0
LINE
  5
2072
  8
250
 10
0.0000000000000015
 20
42.0
 30
0.0
 11
2.23
 21
42.0
 31
0.0
  0
LINE
  5
2073
  8
250
 10
-11.79387367737136
 20
-12.931236650439301
 30
0.0
 11
-16.32818500908845
 21
-20.78489425430859
 31
0.0
1001
ACAD
1000
DSTYLE
1002
{
1070
     5
1000
OPEN
1070
    78
1070
     8
1070
   140
1040
3.0
1002
}
  0
LINE
  5
2074
  8
250
 10
-12.115746452444579
 20
-12.745403317105961
 30
0.0
 11
-10.678873677371371
 21
-11.0
 31
0.0
  0
LINE
  5
2075
  8
250
 10
-11.47200090229815
 20
-13.11706998377263
 30
0.0
 11
-10.678873677371371
 21
-11.0
 31
0.0
  0
LINE
  5
2076
  8
250
 10
-10.678873677371371
 20
-11.0
 30
0.0
 11
-11.79387367737136
 21
-12.93123665043929
 31
0.0
  0
TEXT
  5
2077
  8
250
 10
60.71428172095068
 20
-13.114287162298201
 30
0.0
 40
3.0
  1
(
 50
90.0
1001
ACAD
1000
MTEXTBEGIN
1070
    73
1070
     1
1070
    44
1040
1.0
1070
    74
1070
     0
1000
MTEXTEND
  0
TEXT
  5
2078
  8
250
 10
60.71428172095068
 20
-11.114287162298201
 30
0.0
 40
3.0
  1
âË41ü`âË54
 50
90.0
1001
ACAD
1000
MTEXTBEGIN
1070
    73
1070
     1
1070
    44
1040
1.0
1070
    74
1070
     0
1000
MTEXTEND
  0
TEXT
  5
2079
  8
250
 10
60.71428172095068
 20
11.114284266273231
 30
0.0
 40
3.0
  1
)
 50
90.0
1001
ACAD
1000
MTEXTBEGIN
1070
    73
1070
     1
1070
    44
1040
1.0
1070
    74
1070
     0
1000
MTEXTEND
  0
LINE
  5
207A
  8
250
 10
62.628329339998288
 20
24.769999999999989
 30
0.0
 11
62.999996006664958
 21
26.999999999999989
 31
0.0
  0
LINE
  5
207B
  8
250
 10
63.371662673331628
 20
24.769999999999989
 30
0.0
 11
62.999996006664958
 21
26.999999999999989
 31
0.0
  0
LINE
  5
207C
  8
250
 10
62.999996006664958
 20
26.999999999999989
 30
0.0
 11
62.999996006664958
 21
24.769999999999989
 31
0.0
  0
LINE
  5
207D
  8
250
 10
43.309920202280679
 20
27.9370675370028
 30
0.0
 11
49.814648867619972
 21
39.203588074820118
 31
0.0
1001
ACAD
1000
DSTYLE
1002
{
1070
     5
1000
OPEN
1070
    78
1070
     8
1070
   140
1040
3.0
1002
}
  0
LINE
  5
207E
  8
250
 10
43.631792977353889
 20
27.751234203669458
 30
0.0
 11
42.19492020228067
 21
26.005830886563501
 31
0.0
  0
LINE
  5
207F
  8
250
 10
42.988047427207462
 20
28.122900870336132
 30
0.0
 11
42.19492020228067
 21
26.005830886563501
 31
0.0
  0
LINE
  5
2080
  8
250
 10
42.19492020228067
 20
26.005830886563501
 30
0.0
 11
43.309920202280679
 21
27.9370675370028
 31
0.0
  0
VIEWPORT
  5
22
 67
     1
  8
0
 10
261.51769911504419
 20
148.5
 30
0.0
 40
523.0353982300885
 41
297.0
 68
     1
 69
     1
1001
ACAD
1000
MVIEW
1002
{
1070
    16
1010
0.0
1020
0.0
1030
0.0
1010
0.0
1020
0.0
1030
1.0
1040
0.0
1040
297.0
1040
261.51769911504419
1040
148.5
1040
50.0
1040
0.0
1040
0.0
1070
     0
1070
   100
1070
     1
1070
     1
1070
     0
1070
     0
1070
     0
1070
     0
1040
0.0
1040
0.0
1040
0.0
1040
1.0
1040
1.0
1040
10.0
1040
10.0
1070
     0
1002
{
1002
}
1002
}
1001
GENIUS_GENOBJ-N-SDF_13
1002
{
1000
OWNER
1000
GEN
1002
}
1001
GENIUS_GENODEF_13
1002
{
1000
HIER
1070
     0
1002
}
1002
{
1000
MANEDIT
1070
     0
1002
}
1002
{
1000
NOSEL
1070
     0
1002
}
1002
{
1000
BEHIND
1070
     0
1002
}
1002
{
1000
OTHER
1070
     0
1002
}
1002
{
1000
REACTOR
1002
}
1001
GENIUS_GENSCREG_15
1000
PF
1040
1.0
1000
DF
1040
1.0
1000
MIN
1011
0.0
1021
-3.0051346778631980E+084
1031
5.6999499209893230E+015
1021
0.0
1031
0.0
1000
MAX
1011
523.0353982300885
1021
-3.0051346778631980E+084
1031
5.6999499209893230E+015
1021
297.0
1031
0.0
1000
FLAGS
1070
     2
  0
ENDSEC
  0
EOF
