  0
SECTION
  2
HEADER
  9
$ACADVER
  1
AC1009
  9
$INSBASE
 10
0.0
 20
0.0
 30
0.0
  9
$EXTMIN
 10
-27.883480755544159
 20
-21.00704902271627
 30
-0.0015258207003583
  9
$EXTMAX
 10
64.642232032350535
 20
54.000275014434351
 30
0.0000000349246037
  9
$LIMMIN
 10
0.0
 20
0.0
  9
$LIMMAX
 10
297.0
 20
210.0
  9
$ORTHOMODE
 70
     0
  9
$REGENMODE
 70
     1
  9
$FILLMODE
 70
     1
  9
$QTEXTMODE
 70
     0
  9
$MIRRTEXT
 70
     1
  9
$DRAGMODE
 70
     2
  9
$LTSCALE
 40
10.0
  9
$OSMODE
 70
   639
  9
$ATTMODE
 70
     1
  9
$TEXTSIZE
 40
3.0
  9
$TRACEWID
 40
1.0
  9
$TEXTSTYLE
  7
YOKO
  9
$CLAYER
  8
240
  9
$CELTYPE
  6
BYLAYER
  9
$CECOLOR
 62
   256
  9
$DIMSCALE
 40
1.0
  9
$DIMASZ
 40
2.2299999999999991
  9
$DIMEXO
 40
0.5
  9
$DIMDLI
 40
2.5
  9
$DIMRND
 40
0.0
  9
$DIMDLE
 40
0.0
  9
$DIMEXE
 40
1.0
  9
$DIMTP
 40
0.0
  9
$DIMTM
 40
0.0
  9
$DIMTXT
 40
3.0
  9
$DIMCEN
 40
0.0
  9
$DIMTSZ
 40
0.0
  9
$DIMTOL
 70
     0
  9
$DIMLIM
 70
     0
  9
$DIMTIH
 70
     0
  9
$DIMTOH
 70
     0
  9
$DIMSE1
 70
     0
  9
$DIMSE2
 70
     0
  9
$DIMTAD
 70
     3
  9
$DIMZIN
 70
     8
  9
$DIMBLK
  1
OPEN
  9
$DIMASO
 70
     1
  9
$DIMSHO
 70
     1
  9
$DIMPOST
  1

  9
$DIMAPOST
  1

  9
$DIMALT
 70
     0
  9
$DIMALTD
 70
     2
  9
$DIMALTF
 40
25.399999999999999
  9
$DIMLFAC
 40
1.0
  9
$DIMTOFL
 70
     1
  9
$DIMTVP
 40
0.0
  9
$DIMTIX
 70
     0
  9
$DIMSOXD
 70
     0
  9
$DIMSAH
 70
     0
  9
$DIMBLK1
  1

  9
$DIMBLK2
  1

  9
$DIMSTYLE
  2
BIGT
  9
$DIMCLRD
 70
   256
  9
$DIMCLRE
 70
   256
  9
$DIMCLRT
 70
    40
  9
$DIMTFAC
 40
1.0
  9
$DIMGAP
 40
1.0
  9
$LUNITS
 70
     2
  9
$LUPREC
 70
     2
  9
$SKETCHINC
 40
1.0
  9
$FILLETRAD
 40
0.0
  9
$AUNITS
 70
     0
  9
$AUPREC
 70
     3
  9
$MENU
  1
.
  9
$ELEVATION
 40
0.0
  9
$PELEVATION
 40
0.0
  9
$THICKNESS
 40
0.0
  9
$LIMCHECK
 70
     0
  9
$BLIPMODE
 70
     0
  9
$CHAMFERA
 40
10.0
  9
$CHAMFERB
 40
10.0
  9
$SKPOLY
 70
     0
  9
$TDCREATE
 40
2452227.4576188079
  9
$TDUPDATE
 40
2453614.7248008801
  9
$TDINDWG
 40
0.081202963
  9
$TDUSRTIMER
 40
0.0812027778
  9
$USRTIMER
 70
     1
  9
$ANGBASE
 50
0.0
  9
$ANGDIR
 70
     0
  9
$PDMODE
 70
    35
  9
$PDSIZE
 40
-5.0
  9
$PLINEWID
 40
0.0
  9
$COORDS
 70
     2
  9
$SPLFRAME
 70
     0
  9
$SPLINETYPE
 70
     6
  9
$SPLINESEGS
 70
     8
  9
$ATTDIA
 70
     1
  9
$ATTREQ
 70
     1
  9
$HANDLING
 70
     1
  9
$HANDSEED
  5
1DDE
  9
$SURFTAB1
 70
     6
  9
$SURFTAB2
 70
     6
  9
$SURFTYPE
 70
     6
  9
$SURFU
 70
     6
  9
$SURFV
 70
     6
  9
$UCSNAME
  2

  9
$UCSORG
 10
0.0
 20
0.0
 30
0.0
  9
$UCSXDIR
 10
1.0
 20
0.0
 30
0.0
  9
$UCSYDIR
 10
0.0
 20
1.0
 30
0.0
  9
$PUCSNAME
  2

  9
$PUCSORG
 10
0.0
 20
0.0
 30
0.0
  9
$PUCSXDIR
 10
1.0
 20
0.0
 30
0.0
  9
$PUCSYDIR
 10
0.0
 20
1.0
 30
0.0
  9
$USERI1
 70
     1
  9
$USERI2
 70
     0
  9
$USERI3
 70
     0
  9
$USERI4
 70
     0
  9
$USERI5
 70
     0
  9
$USERR1
 40
0.0
  9
$USERR2
 40
0.0
  9
$USERR3
 40
0.0
  9
$USERR4
 40
0.0
  9
$USERR5
 40
0.0
  9
$WORLDVIEW
 70
     1
  9
$SHADEDGE
 70
     3
  9
$SHADEDIF
 70
    70
  9
$TILEMODE
 70
     1
  9
$MAXACTVP
 70
    16
  9
$PLIMCHECK
 70
     0
  9
$PEXTMIN
 10
1.0000000000000000E+020
 20
1.0000000000000000E+020
 30
1.0000000000000000E+020
  9
$PEXTMAX
 10
-1.0000000000000000E+020
 20
-1.0000000000000000E+020
 30
-1.0000000000000000E+020
  9
$PLIMMIN
 10
0.0
 20
0.0
  9
$PLIMMAX
 10
420.0
 20
297.0
  9
$UNITMODE
 70
     0
  9
$VISRETAIN
 70
     0
  9
$PLINEGEN
 70
     0
  9
$PSLTSCALE
 70
     1
  0
ENDSEC
  0
SECTION
  2
TABLES
  0
TABLE
  2
VPORT
 70
     7
  0
VPORT
  2
*ACTIVE
 70
     0
 10
0.0
 20
0.0
 11
1.0
 21
1.0
 12
18.379375638403179
 22
16.496612995859032
 13
0.0
 23
0.0
 14
7.0
 24
7.0
 15
7.0
 25
7.0
 16
0.0
 26
0.0
 36
1.0
 17
0.0
 27
0.0
 37
0.0
 40
75.456918387023649
 41
1.4779999999999991
 42
50.0
 43
0.0
 44
0.0
 50
0.0
 51
0.0
 71
     0
 72
  2000
 73
     1
 74
     0
 75
     0
 76
     0
 77
     0
 78
     0
  0
ENDTAB
  0
TABLE
  2
LTYPE
 70
    15
  0
LTYPE
  2
CONTINUOUS
 70
     0
  3
Solid line
 72
    65
 73
     0
 40
0.0
  0
LTYPE
  2
CENTER2
 70
     0
  3
___ _ ___ _ ___ _ ___ _ ___ _ ___ _ ___ _ ___ _
 72
    65
 73
     4
 40
1.125
 49
0.75
 49
-0.125
 49
0.125
 49
-0.125
  0
LTYPE
  2
PHANTOM2
 70
     0
  3
___ _ _ ___ _ _ ___ _ _ ___ _ _ ___ _ _ ___ _ _
 72
    65
 73
     6
 40
1.25
 49
0.625
 49
-0.125
 49
0.125
 49
-0.125
 49
0.125
 49
-0.125
  0
LTYPE
  2
HIDDEN
 70
     0
  3
Hidden __ __ __ __ __ __ __ __ __ __ __ __ __ _
 72
    65
 73
     2
 40
9.5249999999999986
 49
6.3499999999999988
 49
-3.1749999999999989
  0
LTYPE
  2
CENTER
 70
     0
  3
Center ____ _ ____ _ ____ _ ____ _ ____ _ ____
 72
    65
 73
     4
 40
50.799999999999997
 49
31.75
 49
-6.3499999999999988
 49
6.3499999999999988
 49
-6.3499999999999988
  0
LTYPE
  2
AM_ISO02W050
 70
     0
  3
__ __ __ __ __ __ __ __ __ __ __ __ __ __ __
 72
    65
 73
     2
 40
7.5
 49
6.0
 49
-1.5
  0
LTYPE
  2
AM_ISO08W050
 70
     0
  3
____ . ____ . ____ . ____ . ____ . ____ . ____
 72
    65
 73
     4
 40
18.0
 49
12.0
 49
-1.5
 49
3.0
 49
-1.5
  0
LTYPE
  2
AM_ISO09W050
 70
     0
  3
_____ . . _____ . . _____ . . ____ .. ____
 72
    65
 73
     6
 40
22.5
 49
12.0
 49
-1.5
 49
3.0
 49
-1.5
 49
3.0
 49
-1.5
  0
LTYPE
  2
AMCONSTR
 70
     0
  3
_______________________
 72
    65
 73
     2
 40
9999.0
 49
9999.0
 49
0.0
  0
LTYPE
  2
AM_ISO08W050X2
 70
     0
  3
__ . __ . __ . __ . __ . __
 72
    65
 73
     4
 40
9.0
 49
6.0
 49
-0.75
 49
1.5
 49
-0.75
  0
LTYPE
  2
AM_ISO02W050X2
 70
     0
  3
 _ _ _ _ _ _ _ _ _ _ _ _
 72
    65
 73
     2
 40
3.75
 49
3.0
 49
-0.75
  0
LTYPE
  2
AMZIGZAG
 70
     0
  3
/\/-/\/-/\/-/\/-/\/-/\/
 72
    65
 73
     2
 40
11.0001
 49
0.0001
 49
-11.0
  0
LTYPE
  2
ACISOWELD
 70
     0
  3
_ _ _ _ _
 72
    65
 73
     2
 40
2.0
 49
2.0
 49
-1.0
  0
LTYPE
  2
ACISOTGB
 70
     0
  3
__ . . __ . .
 72
    65
 73
     6
 40
9.0
 49
4.0
 49
-1.0
 49
1.0
 49
-1.0
 49
1.0
 49
-1.0
  0
LTYPE
  2
ACISOTGL
 70
     0
  3
_ _ _ _ _
 72
    65
 73
     2
 40
3.0
 49
2.0
 49
-1.0
  0
ENDTAB
  0
TABLE
  2
LAYER
 70
     9
  0
LAYER
  2
0
 70
     0
 62
     7
  6
CONTINUOUS
  0
LAYER
  2
240
 70
     0
 62
     4
  6
CONTINUOUS
  0
LAYER
  2
241
 70
     0
 62
   211
  6
CONTINUOUS
  0
LAYER
  2
242
 70
     0
 62
     3
  6
CONTINUOUS
  0
LAYER
  2
245
 70
     0
 62
     2
  6
CENTER2
  0
LAYER
  2
246
 70
     0
 62
     3
  6
PHANTOM2
  0
LAYER
  2
247
 70
     0
 62
    60
  6
CONTINUOUS
  0
LAYER
  2
250
 70
     0
 62
     3
  6
CONTINUOUS
  0
LAYER
  2
DEFPOINTS
 70
     0
 62
     7
  6
CONTINUOUS
  0
ENDTAB
  0
TABLE
  2
STYLE
 70
     5
  0
STYLE
  2
STANDARD
 70
     0
 40
0.0
 41
1.0
 50
0.0
 71
     0
 42
3.0
  3
romans.shx
  4
BIGFONT.SHX
  0
STYLE
  2
YOKO
 70
     0
 40
0.0
 41
1.0
 50
0.0
 71
     0
 42
3.0
  3
romans.shx
  4
extfont.shx
  0
STYLE
  2

 70
     1
 40
0.0
 41
1.0
 50
0.0
 71
     0
 42
3.0
  3
ltypeshp.shx
  4

  0
STYLE
  2
ACISOTS
 70
     0
 40
1.0
 41
1.0
 50
0.0
 71
     0
 42
3.0
  3
isocp.shx
  4
extfont.shx
  0
STYLE
  2
ACISOGDT
 70
     0
 40
0.0
 41
1.0
 50
0.0
 71
     0
 42
3.0
  3
amgdt.shx
  4

  0
ENDTAB
  0
TABLE
  2
VIEW
 70
     0
  0
ENDTAB
  0
TABLE
  2
UCS
 70
     0
  0
ENDTAB
  0
TABLE
  2
APPID
 70
    19
  0
APPID
  2
ACAD
 70
     0
  0
APPID
  2
GLOBAL
 70
     0
  0
APPID
  2
DETAIL
 70
     0
  0
APPID
  2
GRPNAME
 70
     0
  0
APPID
  2
GPARA
 70
     0
  0
APPID
  2
HATCH_TYPE
 70
     0
  0
APPID
  2
HATCH_DISPLAY
 70
     0
  0
APPID
  2
HATCH_DISTANCE
 70
     0
  0
APPID
  2
ITEMNAME
 70
     0
  0
APPID
  2
MCAD_NO_VIS
 70
     0
  0
APPID
  2
ACAD_TEMP_GRAPHIC
 70
     0
  0
APPID
  2
AD_DRAW
 70
     0
  0
APPID
  2
ACATTRIBSERVICES
 70
     0
  0
APPID
  2
DESIGNERASSEMBLIES
 70
     0
  0
APPID
  2
ACADM_DIM_EDIT
 70
     0
  0
APPID
  2
AMDT_DM_ADJ
 70
     0
  0
APPID
  2
GENIUS_GENSCREG_15
 70
     0
  0
APPID
  2
GENIUS_GENOBJ-N-SDF_13
 70
     0
  0
APPID
  2
GENIUS_GENODEF_13
 70
     0
  0
ENDTAB
  0
TABLE
  2
DIMSTYLE
 70
     9
  0
DIMSTYLE
  2
STANDARD
 70
     0
  3

  4

  5

  6

  7

 40
1.0
 41
2.0
 42
2.0
 43
3.75
 44
2.0
 45
0.0
 46
0.0
 47
0.0
 48
0.0
140
4.0
141
0.09
142
0.0
143
25.399999999999999
144
1.0
145
0.0
146
1.0
147
1.0
 71
     0
 72
     0
 73
     1
 74
     1
 75
     0
 76
     0
 77
     0
 78
     8
170
     0
171
     2
172
     0
173
     1
174
     0
175
     0
176
   256
177
   256
178
   256
  0
DIMSTYLE
  2
BIGT
 70
     0
  3

  4

  5
OPEN
  6

  7

 40
1.0
 41
2.2299999999999991
 42
0.5
 43
2.5
 44
1.0
 45
0.0
 46
0.0
 47
0.0
 48
0.0
140
3.5
141
0.0
142
0.0
143
25.399999999999999
144
1.0
145
0.0
146
1.0
147
1.0
 71
     0
 72
     0
 73
     0
 74
     0
 75
     0
 76
     0
 77
     3
 78
     9
170
     0
171
     2
172
     1
173
     0
174
     0
175
     0
176
   256
177
   256
178
    40
  0
DIMSTYLE
  2
AM_ISO
 70
     0
  3

  4
"
  5

  6

  7

 40
1.0
 41
2.5
 42
1.0
 43
10.0
 44
1.0
 45
0.0
 46
0.0
 47
0.1
 48
0.1
140
3.5
141
0.0
142
0.0
143
0.0393701
144
1.0
145
0.0
146
0.71
147
1.5
 71
     0
 72
     0
 73
     0
 74
     0
 75
     0
 76
     0
 77
     1
 78
     8
170
     0
171
     2
172
     1
173
     0
174
     0
175
     0
176
   256
177
   256
178
     2
  0
DIMSTYLE
  2
AM_ISO$3
 70
     0
  3

  4
"
  5

  6

  7

 40
1.0
 41
2.5
 42
1.0
 43
10.0
 44
1.0
 45
0.0
 46
0.0
 47
0.1
 48
0.1
140
3.5
141
0.0
142
0.0
143
0.0393701
144
1.0
145
0.0
146
0.71
147
1.5
 71
     0
 72
     0
 73
     0
 74
     1
 75
     0
 76
     0
 77
     1
 78
     8
170
     0
171
     2
172
     0
173
     0
174
     0
175
     0
176
   256
177
   256
178
     2
  0
DIMSTYLE
  2
AM_ISO$4
 70
     0
  3

  4
"
  5

  6

  7

 40
1.0
 41
2.5
 42
1.0
 43
10.0
 44
1.0
 45
0.0
 46
0.0
 47
0.1
 48
0.1
140
3.5
141
0.0
142
0.0
143
0.0393701
144
1.0
145
0.0
146
0.71
147
1.5
 71
     0
 72
     0
 73
     0
 74
     1
 75
     0
 76
     0
 77
     1
 78
     8
170
     0
171
     2
172
     0
173
     0
174
     0
175
     0
176
   256
177
   256
178
     2
  0
DIMSTYLE
  2
AM_ISO$6
 70
     0
  3

  4
"
  5

  6

  7

 40
1.0
 41
2.5
 42
1.0
 43
10.0
 44
1.0
 45
0.0
 46
0.0
 47
0.1
 48
0.1
140
3.5
141
0.0
142
0.0
143
0.0393701
144
1.0
145
0.0
146
0.71
147
1.5
 71
     0
 72
     0
 73
     0
 74
     0
 75
     0
 76
     0
 77
     0
 78
     8
170
     0
171
     2
172
     1
173
     0
174
     0
175
     0
176
   256
177
   256
178
     2
  0
DIMSTYLE
  2
AM_ISO$7
 70
     0
  3

  4
"
  5

  6

  7

 40
1.0
 41
2.5
 42
1.0
 43
10.0
 44
1.0
 45
0.0
 46
0.0
 47
0.1
 48
0.1
140
5.0
141
0.0
142
0.0
143
0.0393701
144
1.0
145
0.0
146
0.71
147
1.5
 71
     0
 72
     0
 73
     0
 74
     0
 75
     0
 76
     0
 77
     1
 78
     8
170
     0
171
     2
172
     1
173
     0
174
     0
175
     0
176
   256
177
   256
178
     2
  0
DIMSTYLE
  2
AM_ISO$SF
 70
     0
  3

  4
"
  5

  6

  7

 40
1.0
 41
2.5
 42
1.0
 43
10.0
 44
1.0
 45
0.0
 46
0.0
 47
0.1
 48
0.1
140
3.5
141
0.0
142
0.0
143
0.0393701
144
1.0
145
0.0
146
0.71
147
1.5
 71
     0
 72
     0
 73
     0
 74
     0
 75
     1
 76
     1
 77
     1
 78
     8
170
     0
171
     2
172
     1
173
     0
174
     0
175
     0
176
   256
177
   256
178
     2
  0
DIMSTYLE
  2
AM_ISO$SH
 70
     0
  3

  4
"
  5

  6
GENAXEH
  7

 40
1.0
 41
2.5
 42
1.0
 43
10.0
 44
1.0
 45
0.0
 46
0.0
 47
0.1
 48
0.1
140
3.5
141
0.0
142
0.0
143
0.0393701
144
2.0
145
0.0
146
0.71
147
1.5
 71
     0
 72
     0
 73
     0
 74
     0
 75
     1
 76
     1
 77
     1
 78
     8
170
     0
171
     2
172
     1
173
     1
174
     0
175
     0
176
   256
177
   256
178
     2
  0
ENDTAB
  0
ENDSEC
  0
SECTION
  2
BLOCKS
  0
BLOCK
  8
0
  2
$MODEL_SPACE
 70
     0
 10
0.0
 20
0.0
 30
0.0
  3
$MODEL_SPACE
  1

  0
ENDBLK
  5
1C
  8
0
  0
BLOCK
 67
     1
  8
0
  2
$PAPER_SPACE
 70
     0
 10
0.0
 20
0.0
 30
0.0
  3
$PAPER_SPACE
  1

  0
ENDBLK
  5
19
 67
     1
  8
0
  0
BLOCK
  8
0
  2
_OPEN
 70
     0
 10
0.0
 20
0.0
 30
0.0
  3
_OPEN
  1

  0
LINE
  5
595
  8
0
  6
BYBLOCK
 62
     0
 10
-1.0
 20
0.1666666666666666
 30
0.0
 11
0.0
 21
0.0
 31
0.0
  0
LINE
  5
596
  8
0
  6
BYBLOCK
 62
     0
 10
-1.0
 20
-0.1666666666666666
 30
0.0
 11
0.0
 21
0.0
 31
0.0
  0
LINE
  5
597
  8
0
  6
BYBLOCK
 62
     0
 10
0.0
 20
0.0
 30
0.0
 11
-1.0
 21
0.0
 31
0.0
  0
ENDBLK
  5
599
  8
0
  0
BLOCK
  8
0
  2
A$C42780033
 70
     0
 10
0.0
 20
0.0
 30
0.0
  3
A$C42780033
  1

  0
LINE
  5
1B3D
  8
240
 10
0.8000000000000112
 20
15.0
 30
0.0
 11
16.696746829999991
 21
15.0
 31
0.0
1001
GRPNAME
1000
PASTMD0K
  0
LINE
  5
1B3E
  8
240
 10
0.8000000000000112
 20
-15.0
 30
0.0
 11
16.696746829999991
 21
-15.0
 31
0.0
1001
GRPNAME
1000
PASTMD0K
  0
LINE
  5
1B3F
  8
245
 10
-21.103368899083929
 20
0.0
 30
0.0
 11
38.437072207654403
 21
0.0
 31
0.0
1001
GRPNAME
1000
PASTMD0J
  0
LINE
  5
1B40
  8
241
 10
0.0
 20
9.0
 30
0.0
 11
0.0
 21
0.0
 31
0.0
1001
GRPNAME
1000
PASTMD0J
  0
LINE
  5
1B41
  8
241
 10
-17.603127834118482
 20
-8.6732435641430925
 30
0.0
 11
-17.603127834118482
 21
8.6732435641430357
 31
0.0
1001
GRPNAME
1000
PASTMD0K
  0
LINE
  5
1B42
  8
240
 10
-20.0
 20
-8.6339745962155217
 30
0.0
 11
-20.0
 21
8.6339745962155217
 31
0.0
1001
GRPNAME
1000
PASTMD0J
  0
LINE
  5
1B43
  8
241
 10
-15.749999999999879
 20
-9.0
 30
0.0
 11
-15.749999999999879
 21
9.0
 31
0.0
1001
GRPNAME
1000
PASTMD0K
  0
LINE
  5
1B44
  8
241
 10
0.3000000000000114
 20
13.80000000000001
 30
0.0
 11
0.3000000000000114
 21
-13.80000000000001
 31
0.0
  0
TEXT
  5
1B45
  8
247
 10
8.2499999999896545
 20
-13.38218437351798
 30
0.0
 40
2.0
  1
EWB32-42CK3
 50
90.0
 41
0.65
  7
YOKO
 11
8.2499999999896545
 21
-13.38218437351798
 31
0.0
 73
     1
  0
LINE
  5
1B46
  8
245
 10
-7.9999999999998863
 20
4.0476123897902312
 30
0.0
 11
-7.9999999999998863
 21
-3.9881561361767108
 31
0.0
1001
GRPNAME
1000
PASTMD0O
  0
CIRCLE
  5
1B47
  8
241
 10
-7.9999999999998863
 20
0.0
 30
0.0
 40
2.25
1001
GRPNAME
1000
PASTMD0O
  0
CIRCLE
  5
1B48
  8
241
 10
-7.9999999999998863
 20
0.0
 30
0.0
 40
2.9904999999999959
1001
GRPNAME
1000
PASTMD0O
  0
LINE
  5
1B49
  8
240
 10
-15.75
 20
-9.0
 30
0.0
 11
0.0
 21
-9.0
 31
0.0
1001
GRPNAME
1000
PASTMD0J
  0
LINE
  5
1B4A
  8
240
 10
-17.603127834118482
 20
-8.6732435641430925
 30
0.0
 11
-19.413175911166601
 21
-8.9924038765061027
 31
0.0
1001
GRPNAME
1000
PASTMD0J
  0
ARC
  5
1B4B
  8
240
 10
-19.5
 20
-8.5
 30
0.0
 40
0.5000000000000707
 50
209.99999965119599
 51
279.99999965118059
1001
GRPNAME
1000
PASTMD0J
  0
LINE
  5
1B4C
  8
240
 10
-20.0
 20
-8.6339745962155217
 30
0.0
 11
-19.933012701892149
 21
-8.7500000000000568
 31
0.0
1001
GRPNAME
1000
PASTMD0J
  0
LINE
  5
1B4D
  8
240
 10
-17.603127834118482
 20
-8.6732435641430925
 30
0.0
 11
-15.75
 21
-9.0
 31
0.0
1001
GRPNAME
1000
PASTMD0J
  0
INSERT
  5
1B4E
  8
247
  6
CONTINUOUS
  2
*X6
 10
0.0
 20
0.0
 30
0.0
1001
ACAD
1000
HATCH
1002
{
1070
    19
1000
ANSI31
1040
0.06
1040
1.5707963267948959
1000
ASC_BOUNDS
1070
     1
1070
     2
1070
    10
1005
1B6C
1005
1B52
1005
1B51
1005
1B50
1005
1B4F
1005
1B75
1005
1B76
1005
1B94
1005
1B93
1005
1B92
1000
ASC_SEEDPOINT
1011
14.20221868999306
1021
0.0
1031
0.0
1021
-85.986187405184921
1031
0.0
1000
R14_HATCH_DATA
1000
1B4E
1011
1.0
1021
0.0
1031
0.0
1021
0.0
1031
0.0
1011
0.0
1021
0.0
1031
0.0
1021
1.0
1031
0.0
1011
0.0
1021
0.0
1031
0.0
1021
0.0
1031
1.0
1040
0.0
1010
0.0
1020
0.0
1030
1.0
1000
ANSI31
1070
     0
1070
     1
1071
        1
1071
       33
1071
       10
1070
     1
1040
2.2059414530546051
1040
-12.332251324252351
1040
2.4484463358670601
1040
-12.40178562601016
1070
     1
1040
2.2059414530546051
1040
-12.833053936557061
1040
2.2059414530546051
1040
-12.332251324252351
1070
     1
1040
2.4484463358670601
1040
-12.833053936557061
1040
2.4484463358670601
1040
-12.40178562601016
1070
     2
1040
3.479082932546758
1040
-12.833053936557061
1040
1.0306365966796871
1040
3.1415926535897931
1040
6.2831853071795862
1070
     1
1070
     2
1040
3.479082932546758
1040
-12.833053936557061
1040
1.2731414794921869
1040
3.1415926535897931
1040
6.2831853071795862
1070
     1
1070
     1
1040
4.7522246919000963
1040
-12.833053936557061
1040
4.7522246919000963
1040
-7.9102359433929319
1070
     1
1040
4.5097198153287641
1040
-12.833053936557061
1040
4.5097198153287641
1040
-7.9102359433929319
1070
     2
1040
3.479082932546758
1040
-7.9102359433929319
1040
1.2731414794921869
1040
0.0
1040
3.3993916414318428
1070
     1
1070
     2
1040
3.479082932546758
1040
-7.9102359433929319
1040
1.0306365966796871
1040
0.0
1040
3.3881629353185918
1070
     1
1070
     1
1040
2.4796108866483451
1040
-8.1617953916351667
1040
2.248009934499918
1040
-8.2348270078460342
1071
       10
1005
1B92
1005
1B93
1005
1B94
1005
1B76
1005
1B75
1005
1B4F
1005
1B50
1005
1B51
1005
1B52
1005
1B6C
1070
     0
1070
     1
1040
1.5707963267948959
1040
0.06
1070
     0
1070
     1
1040
2.3561944901923439
1040
14.20221868999306
1040
-85.986187405184921
1040
-0.1347038418160373
1040
-0.1347038418160372
1070
     0
1071
        1
1040
14.20221868999306
1040
-85.986187405184921
1040
0.0
1002
}
  0
LINE
  5
1B4F
  8
247
 10
4.7522246919000963
 20
-12.833053936557061
 30
0.0
 11
4.7522246919000963
 21
-7.9102359433929319
 31
0.0
1001
ACAD
1000
ASC_BOUNDS
1002
{
1070
    19
1005
1B4E
1002
}
  0
LINE
  5
1B50
  8
247
 10
4.5097198153287641
 20
-12.833053936557061
 30
0.0
 11
4.5097198153287641
 21
-7.9102359433929319
 31
0.0
1001
ACAD
1000
ASC_BOUNDS
1002
{
1070
    19
1005
1B4E
1002
}
  0
ARC
  5
1B51
  8
247
 10
3.479082932546758
 20
-7.9102359433929319
 30
0.0
 40
1.2731414794921869
 50
0.0
 51
194.77079396609389
1001
ACAD
1000
ASC_BOUNDS
1002
{
1070
    19
1005
1B4E
1002
}
  0
ARC
  5
1B52
  8
247
 10
3.479082932546758
 20
-7.9102359433929319
 30
0.0
 40
1.0306365966796871
 50
0.0
 51
194.12743649641189
1001
ACAD
1000
ASC_BOUNDS
1002
{
1070
    19
1005
1B4E
1002
}
  0
LINE
  5
1B53
  8
241
 10
0.0
 20
0.0
 30
0.0
 11
0.0
 21
-9.0
 31
0.0
1001
GRPNAME
1000
PASTMD0J
  0
POLYLINE
  5
1B54
  8
247
 66
     1
 10
0.0
 20
0.0
 30
0.0
 70
     1
1001
HATCH_DISTANCE
1040
1.0
1001
HATCH_DISPLAY
1070
     0
1001
HATCH_TYPE
1070
     7
  0
VERTEX
  5
1B55
  8
247
 10
2.4796108866483451
 20
-8.1617953916351667
 30
0.0
  0
VERTEX
  5
1B56
  8
247
 10
2.248009934499918
 20
-8.2348270078460342
 30
0.0
  0
VERTEX
  5
1B57
  8
247
 10
2.248009934499918
 20
-8.2348270078460342
 30
0.0
  0
VERTEX
  5
1B58
  8
247
 10
2.4796108866483451
 20
-8.1617953916351667
 30
0.0
  0
SEQEND
  5
1B59
  8
247
  0
POLYLINE
  5
1B5A
  8
247
 66
     1
 10
0.0
 20
0.0
 30
0.0
 70
     1
  0
VERTEX
  5
1B5B
  8
247
 10
2.4796108866483451
 20
-8.1617953916351667
 30
0.0
  0
VERTEX
  5
1B5C
  8
247
 10
2.248009934499918
 20
-8.2348270078460342
 30
0.0
  0
VERTEX
  5
1B5D
  8
247
 10
2.248009934499918
 20
-8.2348270078460342
 30
0.0
  0
VERTEX
  5
1B5E
  8
247
 10
2.4796108866483451
 20
-8.1617953916351667
 30
0.0
  0
SEQEND
  5
1B5F
  8
247
  0
POLYLINE
  5
1B60
  8
247
 66
     1
 10
0.0
 20
0.0
 30
0.0
 70
     1
1001
HATCH_DISTANCE
1040
1.0
1001
HATCH_DISPLAY
1070
     0
1001
HATCH_TYPE
1070
     7
  0
VERTEX
  5
1B61
  8
247
 10
2.4796108866483451
 20
-8.1617953916351667
 30
0.0
  0
VERTEX
  5
1B62
  8
247
 10
2.248009934499918
 20
-8.2348270078460342
 30
0.0
  0
VERTEX
  5
1B63
  8
247
 10
2.248009934499918
 20
-8.2348270078460342
 30
0.0
  0
VERTEX
  5
1B64
  8
247
 10
2.4796108866483451
 20
-8.1617953916351667
 30
0.0
  0
SEQEND
  5
1B65
  8
247
  0
POLYLINE
  5
1B66
  8
247
 66
     1
 10
0.0
 20
0.0
 30
0.0
 70
     1
  0
VERTEX
  5
1B67
  8
247
 10
2.4796108866483451
 20
-8.1617953916351667
 30
0.0
  0
VERTEX
  5
1B68
  8
247
 10
2.248009934499918
 20
-8.2348270078460342
 30
0.0
  0
VERTEX
  5
1B69
  8
247
 10
2.248009934499918
 20
-8.2348270078460342
 30
0.0
  0
VERTEX
  5
1B6A
  8
247
 10
2.4796108866483451
 20
-8.1617953916351667
 30
0.0
  0
SEQEND
  5
1B6B
  8
247
  0
LINE
  5
1B6C
  8
247
 10
2.4796108866483451
 20
-8.1617953916351667
 30
0.0
 11
2.248009934499918
 21
-8.2348270078460342
 31
0.0
1001
ACAD
1000
ASC_BOUNDS
1002
{
1070
    19
1005
1B4E
1002
}
  0
INSERT
  5
1B6D
  8
247
  6
CONTINUOUS
  2
*X7
 10
0.0
 20
0.0
 30
0.0
1001
ACAD
1000
HATCH
1002
{
1070
    19
1000
ANSI31
1040
0.06
1040
1.5707963267948959
1000
ASC_BOUNDS
1070
     1
1070
     2
1070
    15
1005
1BA1
1005
1B6F
1005
1BB6
1005
1BA8
1005
1BB5
1005
1BB0
1005
1BB4
1005
1BB2
1005
1BB3
1005
1BB1
1005
1BA7
1005
1B73
1005
1B71
1005
1B72
1005
1BA0
1000
ASC_SEEDPOINT
1011
14.20221868999306
1021
0.0
1031
0.0
1021
-85.986187405184921
1031
0.0
1000
R14_HATCH_DATA
1000
1B6D
1011
1.0
1021
0.0
1031
0.0
1021
0.0
1031
0.0
1011
0.0
1021
0.0
1031
0.0
1021
1.0
1031
0.0
1011
0.0
1021
0.0
1031
0.0
1021
0.0
1031
1.0
1040
0.0
1010
0.0
1020
0.0
1030
1.0
1000
ANSI31
1070
     0
1070
     1
1071
        1
1071
       33
1071
       15
1070
     1
1040
2.516076340749918
1040
-8.2774356504242501
1040
2.2844753886014351
1040
-8.3504672666351212
1070
     2
1040
3.479082932546758
1040
-7.9102359433929319
1040
1.030639457702635
1040
3.5058809760360892
1040
3.8840897327625181
1070
     1
1070
     2
1040
2.7273251200467712
1040
-8.8615970273772842
1040
0.2546300053596497
1040
1.600643575520647
1040
4.4331083460772751
1070
     1
1070
     1
1040
3.796899094656168
1040
-9.4331882139007934
1040
2.6571316386014701
1040
-9.1063632627288467
1070
     2
1040
3.867083420828008
1040
-9.1884219785492274
1040
0.2546298265457153
1040
4.433141065812503
1040
7.574733719402297
1070
     1
1070
     1
1040
3.9372677469999071
1040
-8.9436557431976667
1040
3.394204392507731
1040
-8.7879336972992501
1070
     1
1040
3.394204392507731
1040
-8.9897525449554792
1040
3.394204392507731
1040
-8.7879336972992501
1070
     1
1040
3.394204392507731
1040
-8.9897525449554792
1040
3.1516995096952201
1040
-8.9202182431976667
1070
     1
1040
3.1516995096952201
1040
-8.9202182431976667
1040
3.1516995096952201
1040
-8.2138431211273542
1070
     1
1040
4.3884673739224791
1040
-8.5684817930023751
1040
3.1516995096952201
1040
-8.2138431211273542
1070
     1
1040
4.246221890524053
1040
-8.7107364316742064
1040
4.3884673739224791
1040
-8.5684817930023751
1070
     2
1040
3.600335373953043
1040
-9.1623843808930001
1040
0.788140869140625
1040
4.433131948989895
1040
6.8934200153686511
1070
     1
1070
     2
1040
3.641772141531133
1040
-7.8738162656586042
1040
2.0624633789062501
1040
4.2796376880404088
1040
4.5866349702432281
1070
     1
1070
     2
1040
2.994073166921793
1040
-8.9885440488616801
1040
0.7881328582763673
1040
2.5035703051095641
1040
4.4331395182378071
1070
     1
1070
     2
1040
3.479082932546758
1040
-7.9102359433929319
1040
1.2731420516967771
1040
3.4946665664545451
1040
3.6402626981642419
1070
     1
1071
       15
1005
1BA0
1005
1B72
1005
1B71
1005
1B73
1005
1BA7
1005
1BB1
1005
1BB3
1005
1BB2
1005
1BB4
1005
1BB0
1005
1BB5
1005
1BA8
1005
1BB6
1005
1B6F
1005
1BA1
1070
     0
1070
     1
1040
1.5707963267948959
1040
0.06
1070
     0
1070
     1
1040
2.3561944901923439
1040
14.20221868999306
1040
-85.986187405184921
1040
-0.1347038418160373
1040
-0.1347038418160372
1070
     0
1071
        1
1040
14.20221868999306
1040
-85.986187405184921
1040
0.0
1002
}
  0
INSERT
  5
1B6E
  8
247
  6
CONTINUOUS
  2
*X8
 10
0.0
 20
0.0
 30
0.0
1001
ACAD
1000
HATCH
1002
{
1070
    19
1000
ANSI31
1040
0.06
1040
1.5707963267948959
1000
ASC_BOUNDS
1070
     1
1070
     1
1070
     1
1005
1B78
1000
ASC_SEEDPOINT
1011
3.240056085053538
1021
0.0
1031
0.0
1021
-10.36387081016874
1031
0.0
1000
R14_HATCH_DATA
1000
1B6E
1011
1.0
1021
0.0
1031
0.0
1021
0.0
1031
0.0
1011
0.0
1021
0.0
1031
0.0
1021
1.0
1031
0.0
1011
0.0
1021
0.0
1031
0.0
1021
0.0
1031
1.0
1040
0.0
1010
0.0
1020
0.0
1030
1.0
1000
ANSI31
1070
     0
1070
     1
1071
        1
1071
        7
1070
     0
1070
     1
1071
        6
1040
2.2059414530546051
1040
-9.7968814512054792
1040
2.2059414530546051
1040
-10.42756992776793
1040
2.472689499929571
1040
-10.504062237338241
1040
2.472689499929571
1040
-10.41575962503355
1040
4.3884673739224791
1040
-10.965103497103939
1040
4.3884673739224791
1040
-10.42270847757259
1071
        1
1005
1B78
1070
     0
1070
     1
1040
1.5707963267948959
1040
0.06
1070
     0
1070
     1
1040
2.3561944901923439
1040
14.20221868999306
1040
-85.986187405184921
1040
-0.1347038418160373
1040
-0.1347038418160372
1070
     0
1040
0.0134348504236232
1071
        1
1040
3.240056085053538
1040
-10.36387081016874
1040
0.0
1002
}
  0
ARC
  5
1B6F
  8
247
 10
2.994073166921793
 20
-8.9885440488616801
 30
0.0
 40
0.7881328582763673
 50
143.44401219705779
 51
254.00018438768541
1001
ACAD
1000
ASC_BOUNDS
1002
{
1070
    19
1005
1B6D
1002
}
  0
LINE
  5
1B70
  8
247
 10
2.862714116159621
 20
-11.33587717781398
 30
0.0
 11
2.4569056061068291
 21
-10.930068667761191
 31
0.0
  0
ARC
  5
1B71
  8
247
 10
2.7273251200467712
 20
-8.8615970273772842
 30
0.0
 40
0.2546300053596497
 50
91.710121382062766
 51
253.9983983544486
1001
ACAD
1000
ASC_BOUNDS
1002
{
1070
    19
1005
1B6D
1002
}
  0
ARC
  5
1B72
  8
247
 10
3.479082932546758
 20
-7.9102359433929319
 30
0.0
 40
1.030639457702635
 50
200.8721834020736
 51
222.5419489373881
1001
ACAD
1000
ASC_BOUNDS
1002
{
1070
    19
1005
1B6D
1002
}
  0
LINE
  5
1B73
  8
247
 10
3.796899094656168
 20
-9.4331882139007934
 30
0.0
 11
2.6571316386014701
 21
-9.1063632627288467
 31
0.0
1001
ACAD
1000
ASC_BOUNDS
1002
{
1070
    19
1005
1B6D
1002
}
  0
LINE
  5
1B74
  8
247
 10
4.3884673739224791
 20
-10.42270847757259
 30
0.0
 11
2.2059414530546051
 21
-9.7968814512054792
 31
0.0
  0
ARC
  5
1B75
  8
247
 10
3.479082932546758
 20
-12.833053936557061
 30
0.0
 40
1.2731414794921869
 50
180.0
 51
0.0
1001
ACAD
1000
ASC_BOUNDS
1002
{
1070
    19
1005
1B4E
1002
}
  0
ARC
  5
1B76
  8
247
 10
3.479082932546758
 20
-12.833053936557061
 30
0.0
 40
1.0306365966796871
 50
180.0
 51
0.0
1001
ACAD
1000
ASC_BOUNDS
1002
{
1070
    19
1005
1B4E
1002
}
  0
LINE
  5
1B77
  8
247
 10
4.3884673739224791
 20
-12.705804791049159
 30
0.0
 11
2.448446335867799
 21
-12.14951206644008
 31
0.0
  0
POLYLINE
  5
1B78
  8
247
 66
     1
 10
0.0
 20
0.0
 30
0.0
 70
     1
1001
ACAD
1000
ASC_BOUNDS
1002
{
1070
    19
1005
1B6E
1002
}
  0
VERTEX
  5
1B79
  8
247
 10
2.2059414530546051
 20
-10.42756992776793
 30
0.0
  0
VERTEX
  5
1B7A
  8
247
 10
2.472689499929571
 20
-10.504062237338241
 30
0.0
  0
VERTEX
  5
1B7B
  8
247
 10
2.472689499929571
 20
-10.41575962503355
 30
0.0
  0
VERTEX
  5
1B7C
  8
247
 10
4.3884673739224791
 20
-10.965103497103939
 30
0.0
  0
VERTEX
  5
1B7D
  8
247
 10
4.3884673739224791
 20
-10.42270847757259
 30
0.0
  0
VERTEX
  5
1B7E
  8
247
 10
2.2059414530546051
 20
-9.7968814512054792
 30
0.0
  0
SEQEND
  5
1B7F
  8
247
  0
LINE
  5
1B80
  8
247
 10
4.3884673739224791
 20
-10.965103497103939
 30
0.0
 11
2.472689499929571
 21
-10.41575962503355
 31
0.0
  0
POLYLINE
  5
1B81
  8
247
 66
     1
 10
0.0
 20
0.0
 30
0.0
 70
     1
1001
HATCH_DISTANCE
1040
1.0
1001
HATCH_DISPLAY
1070
     0
1001
HATCH_TYPE
1070
     7
  0
VERTEX
  5
1B82
  8
247
 10
2.2059414530546051
 20
-10.42756992776793
 30
0.0
  0
VERTEX
  5
1B83
  8
247
 10
2.472689499929571
 20
-10.504062237338241
 30
0.0
  0
VERTEX
  5
1B84
  8
247
 10
2.472689499929571
 20
-10.41575962503355
 30
0.0
  0
VERTEX
  5
1B85
  8
247
 10
4.3884673739224791
 20
-10.965103497103939
 30
0.0
  0
VERTEX
  5
1B86
  8
247
 10
4.3884673739224791
 20
-10.42270847757259
 30
0.0
  0
VERTEX
  5
1B87
  8
247
 10
2.2059414530546051
 20
-9.7968814512054792
 30
0.0
  0
SEQEND
  5
1B88
  8
247
  0
LINE
  5
1B89
  8
247
 10
3.5049234120997981
 20
-11.708678790122059
 30
0.0
 11
2.6371248460200141
 21
-10.84088022404233
 31
0.0
  0
ARC
  5
1B8A
  8
247
 10
2.7879513407498839
 20
-11.691858257846031
 30
0.0
 40
0.3637471675872803
 50
351.66260168792928
 51
156.3381550951899
  0
LINE
  5
1B8B
  8
247
 10
2.4547848003938371
 20
-11.545871757391581
 30
0.0
 11
3.1478542756141779
 21
-11.744601782603629
 31
0.0
  0
LINE
  5
1B8C
  8
247
 10
3.4145636359726259
 20
-12.426542064891059
 30
0.0
 11
2.565695847530435
 21
-11.57767427644893
 31
0.0
  0
LINE
  5
1B8D
  8
247
 10
3.036847454998961
 20
-12.318233567549489
 30
0.0
 11
2.2059414530546619
 21
-11.48732756560519
 31
0.0
  0
ARC
  5
1B8E
  8
247
 10
2.8121945048123962
 20
-11.421310772494561
 30
0.0
 40
0.606258201599121
 50
17.669577547398159
 51
180.2361598426715
  0
LINE
  5
1B8F
  8
240
 10
0.0
 20
-9.0
 30
0.0
 11
0.0
 21
-13.5
 31
0.0
1001
GRPNAME
1000
PASTMD0J
  0
LINE
  5
1B90
  8
240
 10
0.3000000000000114
 20
-14.5
 30
0.0
 11
0.3000000000000114
 21
-13.80000000000001
 31
0.0
1001
GRPNAME
1000
PASTMD0K
  0
LINE
  5
1B91
  8
240
 10
0.3000000000000114
 20
-14.5
 30
0.0
 11
0.8000000000000112
 21
-15.0
 31
0.0
1001
GRPNAME
1000
PASTMD0K
  0
LINE
  5
1B92
  8
247
 10
2.2059414530546051
 20
-12.332251324252351
 30
0.0
 11
2.4484463358670601
 21
-12.40178562601016
 31
0.0
1001
ACAD
1000
ASC_BOUNDS
1002
{
1070
    19
1005
1B4E
1002
}
  0
LINE
  5
1B93
  8
247
 10
2.2059414530546051
 20
-12.833053936557061
 30
0.0
 11
2.2059414530546051
 21
-12.332251324252351
 31
0.0
1001
ACAD
1000
ASC_BOUNDS
1002
{
1070
    19
1005
1B4E
1002
}
  0
LINE
  5
1B94
  8
247
 10
2.4484463358670601
 20
-12.833053936557061
 30
0.0
 11
2.4484463358670601
 21
-12.40178562601016
 31
0.0
1001
ACAD
1000
ASC_BOUNDS
1002
{
1070
    19
1005
1B4E
1002
}
  0
LINE
  5
1B95
  8
240
 10
0.3000000000000114
 20
-13.80000000000001
 30
0.0
 11
0.0
 21
-13.5
 31
0.0
1001
GRPNAME
1000
PASTMD0J
  0
LINE
  5
1B96
  8
247
 10
2.2059414530546051
 20
-10.42756992776793
 30
0.0
 11
2.2059414530546051
 21
-9.7968814512054792
 31
0.0
  0
LINE
  5
1B97
  8
247
 10
2.4824476185945619
 20
-11.49442604751305
 30
0.0
 11
2.23234563488711
 21
-11.24432406380555
 31
0.0
  0
LINE
  5
1B98
  8
247
 10
2.6243886733079762
 20
-11.366959418594369
 30
0.0
 11
2.3220030064735502
 21
-11.06457375175995
 31
0.0
  0
LINE
  5
1B99
  8
247
 10
2.2059414530546051
 20
-12.20611912210375
 30
0.0
 11
2.4484463358670601
 21
-12.275653423862019
 31
0.0
  0
LINE
  5
1B9A
  8
247
 10
2.4484463358670601
 20
-12.275653423862019
 30
0.0
 11
2.448446335867799
 21
-12.14951206644008
 31
0.0
  0
LINE
  5
1B9B
  8
247
 10
2.2059414530546051
 20
-12.20611912210375
 30
0.0
 11
2.2059414530546619
 21
-11.42380962035605
 31
0.0
  0
LINE
  5
1B9C
  8
247
 10
2.6591312740252979
 20
-12.20992507020793
 30
0.0
 11
2.2059414530546051
 21
-11.756735249237231
 31
0.0
  0
LINE
  5
1B9D
  8
247
 10
2.448446335867116
 20
-12.26864781568184
 30
0.0
 11
2.2059414530546051
 21
-12.026142932869391
 31
0.0
  0
LINE
  5
1B9E
  8
247
 10
2.472689499929571
 20
-10.504062237338241
 30
0.0
 11
2.2059414530546051
 21
-10.42756992776793
 31
0.0
  0
LINE
  5
1B9F
  8
247
 10
2.472689499929571
 20
-10.504062237338241
 30
0.0
 11
2.472689499929571
 21
-10.41575962503355
 31
0.0
  0
LINE
  5
1BA0
  8
247
 10
2.516076340749918
 20
-8.2774356504242501
 30
0.0
 11
2.2844753886014351
 21
-8.3504672666351212
 31
0.0
1001
ACAD
1000
ASC_BOUNDS
1002
{
1070
    19
1005
1B6D
1002
}
  0
ARC
  5
1BA1
  8
247
 10
3.479082932546758
 20
-7.9102359433929319
 30
0.0
 40
1.2731420516967771
 50
200.22964506332011
 51
208.57168892371661
1001
ACAD
1000
ASC_BOUNDS
1002
{
1070
    19
1005
1B6D
1002
}
  0
LINE
  5
1BA2
  8
247
 10
4.3884673739224791
 20
-12.592222751944799
 30
0.0
 11
3.6988414485755921
 21
-11.902596826597851
 31
0.0
  0
LINE
  5
1BA3
  8
247
 10
4.169995997919953
 20
-12.643159059574311
 30
0.0
 11
3.143932420781935
 21
-11.617095482436349
 31
0.0
  0
LINE
  5
1BA4
  8
247
 10
4.3884673739224791
 20
-12.705804791049159
 30
0.0
 11
4.3884673739224791
 21
-11.699457134799159
 31
0.0
  0
LINE
  5
1BA5
  8
247
 10
4.3884673739224791
 20
-12.32281506831276
 30
0.0
 11
4.0765520488251923
 21
-12.01089974321536
 31
0.0
  0
LINE
  5
1BA6
  8
247
 10
3.7922798169462899
 20
-12.534850562232741
 30
0.0
 11
2.9434084535383809
 21
-11.68597919882478
 31
0.0
  0
ARC
  5
1BA7
  8
247
 10
3.867083420828008
 20
-9.1884219785492274
 30
0.0
 40
0.2546298265457153
 50
254.00027305718399
 51
74.00027305718406
1001
ACAD
1000
ASC_BOUNDS
1002
{
1070
    19
1005
1B6D
1002
}
  0
ARC
  5
1BA8
  8
247
 10
3.600335373953043
 20
-9.1623843808930001
 30
0.0
 40
0.788140869140625
 50
253.9997507017259
 51
34.963873291630819
1001
ACAD
1000
ASC_BOUNDS
1002
{
1070
    19
1005
1B6D
1002
}
  0
ARC
  5
1BA9
  8
247
 10
3.7579617167264701
 20
-11.970004620150741
 30
0.0
 40
0.363757574558258
 50
351.66285421114878
 51
156.3381921591137
  0
LINE
  5
1BAA
  8
247
 10
4.3884673739224791
 20
-12.053407384680609
 30
0.0
 11
3.4986618220362962
 21
-11.16360183279442
 31
0.0
  0
LINE
  5
1BAB
  8
247
 10
3.4247850824076518
 20
-11.82401522535616
 30
0.0
 11
4.1178751147609773
 21
-12.02274851992825
 31
0.0
  0
ARC
  5
1BAC
  8
247
 10
3.782214036062383
 20
-11.699457134799159
 30
0.0
 40
0.6062530517578125
 50
0.0
 51
130.32984065416761
  0
LINE
  5
1BAD
  8
247
 10
4.3884673739225359
 20
-11.78399970104857
 30
0.0
 11
3.702884400035316
 21
-11.09841672716135
 31
0.0
  0
LINE
  5
1BAE
  8
247
 10
4.3430133279127281
 20
-11.46913797140672
 30
0.0
 11
4.012533199454877
 21
-11.13865784294881
 31
0.0
  0
LINE
  5
1BAF
  8
247
 10
4.3884673739224791
 20
-10.965103497103939
 30
0.0
 11
4.3884673739224791
 21
-10.42270847757259
 31
0.0
  0
LINE
  5
1BB0
  8
247
 10
4.3884673739224791
 20
-8.5684817930023751
 30
0.0
 11
3.1516995096952201
 21
-8.2138431211273542
 31
0.0
1001
ACAD
1000
ASC_BOUNDS
1002
{
1070
    19
1005
1B6D
1002
}
  0
LINE
  5
1BB1
  8
247
 10
3.9372677469999071
 20
-8.9436557431976667
 30
0.0
 11
3.394204392507731
 21
-8.7879336972992501
 31
0.0
1001
ACAD
1000
ASC_BOUNDS
1002
{
1070
    19
1005
1B6D
1002
}
  0
LINE
  5
1BB2
  8
247
 10
3.394204392507731
 20
-8.9897525449554792
 30
0.0
 11
3.1516995096952201
 21
-8.9202182431976667
 31
0.0
1001
ACAD
1000
ASC_BOUNDS
1002
{
1070
    19
1005
1B6D
1002
}
  0
LINE
  5
1BB3
  8
247
 10
3.394204392507731
 20
-8.9897525449554792
 30
0.0
 11
3.394204392507731
 21
-8.7879336972992501
 31
0.0
1001
ACAD
1000
ASC_BOUNDS
1002
{
1070
    19
1005
1B6D
1002
}
  0
LINE
  5
1BB4
  8
247
 10
3.1516995096952201
 20
-8.9202182431976667
 30
0.0
 11
3.1516995096952201
 21
-8.2138431211273542
 31
0.0
1001
ACAD
1000
ASC_BOUNDS
1002
{
1070
    19
1005
1B6D
1002
}
  0
LINE
  5
1BB5
  8
247
 10
4.246221890524053
 20
-8.7107364316742064
 30
0.0
 11
4.3884673739224791
 21
-8.5684817930023751
 31
0.0
1001
ACAD
1000
ASC_BOUNDS
1002
{
1070
    19
1005
1B6D
1002
}
  0
ARC
  5
1BB6
  8
247
 10
3.641772141531133
 20
-7.8738162656586042
 30
0.0
 40
2.0624633789062501
 50
245.2051773698407
 51
262.79482596204889
1001
ACAD
1000
ASC_BOUNDS
1002
{
1070
    19
1005
1B6D
1002
}
  0
LINE
  5
1BB7
  8
247
 10
3.6802888158770761
 20
-11.614636510267299
 30
0.0
 11
2.8851050751319458
 21
-10.81945276952211
 31
0.0
  0
LINE
  5
1BB8
  8
240
 10
-15.749999999999879
 20
9.0
 30
0.0
 11
0.0
 21
9.0
 31
0.0
1001
GRPNAME
1000
PASTMD0J
  0
LINE
  5
1BB9
  8
240
 10
-17.603127834118482
 20
8.6732435641430357
 30
0.0
 11
-19.413175911166601
 21
8.9924038765061027
 31
0.0
1001
GRPNAME
1000
PASTMD0J
  0
ARC
  5
1BBA
  8
240
 10
-19.5
 20
8.5
 30
0.0
 40
0.5000000000000476
 50
80.000000073697606
 51
150.0000000736878
1001
GRPNAME
1000
PASTMD0J
  0
LINE
  5
1BBB
  8
240
 10
-20.0
 20
8.6339745962155217
 30
0.0
 11
-19.933012701892149
 21
8.7500000000000568
 31
0.0
1001
GRPNAME
1000
PASTMD0J
  0
LINE
  5
1BBC
  8
240
 10
-17.603127834118482
 20
8.6732435641430357
 30
0.0
 11
-15.749999999999879
 21
9.0
 31
0.0
1001
GRPNAME
1000
PASTMD0J
  0
LINE
  5
1BBD
  8
240
 10
0.0
 20
13.5
 30
0.0
 11
0.0
 21
9.0
 31
0.0
1001
GRPNAME
1000
PASTMD0J
  0
LINE
  5
1BBE
  8
240
 10
0.8000000000000112
 20
15.0
 30
0.0
 11
0.3000000000000114
 21
14.5
 31
0.0
1001
GRPNAME
1000
PASTMD0K
  0
LINE
  5
1BBF
  8
240
 10
0.3000000000000114
 20
13.80000000000001
 30
0.0
 11
0.3000000000000114
 21
14.5
 31
0.0
1001
GRPNAME
1000
PASTMD0K
  0
LINE
  5
1BC0
  8
240
 10
0.3000000000000114
 20
13.80000000000001
 30
0.0
 11
0.0
 21
13.5
 31
0.0
1001
GRPNAME
1000
PASTMD0J
  0
CIRCLE
  5
1BC1
  8
242
 10
18.5
 20
0.0
 30
0.0
 40
3.5
1001
GRPNAME
1000
PASTMD0O
  0
CIRCLE
  5
1BC2
  8
241
 10
18.5
 20
0.0
 30
0.0
 40
3.75
1001
GRPNAME
1000
PASTMD0O
  0
LINE
  5
1BC3
  8
240
 10
37.0
 20
8.6233246977536169
 30
0.0
 11
37.0
 21
-12.09981971510023
 31
0.0
1001
GRPNAME
1000
PASTMD0J
  0
LINE
  5
1BC4
  8
245
 10
27.0
 20
-13.59985957109768
 30
0.0
 11
27.0
 21
20.30421271525034
 31
0.0
1001
GRPNAME
1000
PASTMD0J
  0
LINE
  5
1BC5
  8
245
 10
18.5
 20
-4.5144484112016681
 30
0.0
 11
18.5
 21
4.9095177218998156
 31
0.0
1001
GRPNAME
1000
PASTMD0J
  0
LINE
  5
1BC6
  8
241
 10
16.5
 20
-1.154700538379245
 30
0.0
 11
16.5
 21
1.154700538379245
 31
0.0
1001
GRPNAME
1000
PASTMD0O
  0
LINE
  5
1BC7
  8
241
 10
20.5
 20
1.154700538379245
 30
0.0
 11
20.5
 21
-1.154700538379245
 31
0.0
1001
GRPNAME
1000
PASTMD0O
  0
LINE
  5
1BC8
  8
241
 10
34.949999999999989
 20
-12.600000000000019
 30
0.0
 11
19.049999999999891
 21
-12.600000000000019
 31
0.0
1001
GRPNAME
1000
PASTMD0M
  0
LINE
  5
1BC9
  8
240
 10
36.499819715100209
 20
-12.600000000000019
 30
0.0
 11
18.399912823575601
 21
-12.600000000000019
 31
0.0
1001
GRPNAME
1000
PASTMD0J
  0
LINE
  5
1BCA
  8
240
 10
34.949999999999989
 20
-12.600000000000019
 30
0.0
 11
29.35192378864674
 21
-14.100000000000019
 31
0.0
1001
GRPNAME
1000
PASTMD0M
  0
LINE
  5
1BCB
  8
240
 10
24.64807621135321
 20
-14.100000000000019
 30
0.0
 11
19.049999999999951
 21
-12.600000000000019
 31
0.0
1001
GRPNAME
1000
PASTMD0M
  0
LINE
  5
1BCC
  8
241
 10
20.5
 20
-1.154700538379245
 30
0.0
 11
18.5
 21
-2.309401076758546
 31
0.0
1001
GRPNAME
1000
PASTMD0O
  0
LINE
  5
1BCD
  8
241
 10
16.800000000000011
 20
-15.0
 30
0.0
 11
16.800000000000011
 21
-3.3425289826716931
 31
0.0
1001
GRPNAME
1000
PASTMD0K
  0
LINE
  5
1BCE
  8
240
 10
18.399912823575601
 20
-12.600000000000019
 30
0.0
 11
17.014276282427431
 21
-15.0
 31
0.0
1001
GRPNAME
1000
PASTMD0J
  0
LINE
  5
1BCF
  8
240
 10
17.014276282427431
 20
-15.0
 30
0.0
 11
16.696746829999991
 21
-15.0
 31
0.0
1001
GRPNAME
1000
PASTMD0J
  0
LINE
  5
1BD0
  8
241
 10
18.5
 20
-2.309401076758546
 30
0.0
 11
16.5
 21
-1.154700538379245
 31
0.0
1001
GRPNAME
1000
PASTMD0O
  0
LINE
  5
1BD1
  8
240
 10
29.35192378864674
 20
-14.100000000000019
 30
0.0
 11
24.64807621135321
 21
-14.100000000000019
 31
0.0
1001
GRPNAME
1000
PASTMD0M
  0
LINE
  5
1BD2
  8
240
 10
36.499819715100209
 20
-12.600000000000019
 30
0.0
 11
37.0
 21
-12.09981971510023
 31
0.0
1001
GRPNAME
1000
PASTMD0J
  0
LINE
  5
1BD3
  8
241
 10
32.800000000000061
 20
14.04302257075897
 30
0.0
 11
21.199999999999982
 21
14.04302257075897
 31
0.0
1001
GRPNAME
1000
PASTMD0N
  0
LINE
  5
1BD4
  8
240
 10
18.800000000000011
 20
13.5
 30
0.0
 11
37.0
 21
8.6233246977536169
 31
0.0
1001
GRPNAME
1000
PASTMD0J
  0
LINE
  5
1BD5
  8
240
 10
31.259999999999931
 20
19.043022570758971
 30
0.0
 11
32.920000000000009
 21
20.703022570758939
 31
0.0
1001
GRPNAME
1000
PASTMD0K
  0
LINE
  5
1BD6
  8
240
 10
21.300000000000011
 20
14.04302257075897
 30
0.0
 11
21.300000000000011
 21
18.043022570758978
 31
0.0
1001
GRPNAME
1000
PASTMD0K
  0
LINE
  5
1BD7
  8
241
 10
18.5
 20
2.30940107675849
 30
0.0
 11
20.5
 21
1.154700538379245
 31
0.0
1001
GRPNAME
1000
PASTMD0O
  0
LINE
  5
1BD8
  8
241
 10
16.800000000000011
 20
3.3425289826716931
 30
0.0
 11
16.800000000000011
 21
15.0
 31
0.0
1001
GRPNAME
1000
PASTMD0K
  0
LINE
  5
1BD9
  8
241
 10
16.5
 20
1.154700538379245
 30
0.0
 11
18.5
 21
2.30940107675849
 31
0.0
1001
GRPNAME
1000
PASTMD0O
  0
LINE
  5
1BDA
  8
240
 10
18.29805310545418
 20
15.0
 30
0.0
 11
16.696746829999991
 21
15.0
 31
0.0
1001
GRPNAME
1000
PASTMD0J
  0
LINE
  5
1BDB
  8
240
 10
18.39807621135332
 20
15.0
 30
0.0
 11
16.696746829999991
 21
15.0
 31
0.0
1001
GRPNAME
1000
PASTMD0J
  0
LINE
  5
1BDC
  8
240
 10
18.39807621135332
 20
15.0
 30
0.0
 11
18.800000000000011
 21
13.5
 31
0.0
1001
GRPNAME
1000
PASTMD0J
  0
LINE
  5
1BDD
  8
241
 10
28.665720347286019
 20
15.44302257075895
 30
0.0
 11
25.33427965271397
 21
15.44302257075895
 31
0.0
1001
GRPNAME
1000
PASTMD0N
  0
LINE
  5
1BDE
  8
240
 10
21.199999999999982
 20
14.04302257075897
 30
0.0
 11
21.0
 21
13.84302257075899
 31
0.0
1001
GRPNAME
1000
PASTMD0N
  0
LINE
  5
1BDF
  8
240
 10
21.0
 20
12.9105117766515
 30
0.0
 11
21.0
 21
13.84302257075899
 31
0.0
1001
GRPNAME
1000
PASTMD0N
  0
LINE
  5
1BE0
  8
241
 10
25.10127013154186
 20
15.24576545045152
 30
0.0
 11
24.900000000000041
 21
14.04302257075897
 31
0.0
1001
GRPNAME
1000
PASTMD0N
  0
LINE
  5
1BE1
  8
241
 10
25.10127013154186
 20
15.24576545045152
 30
0.0
 11
25.33427965271397
 21
15.44302257075895
 31
0.0
1001
GRPNAME
1000
PASTMD0N
  0
LINE
  5
1BE2
  8
241
 10
28.665720347286019
 20
15.44302257075895
 30
0.0
 11
28.89872986845819
 21
15.24576545045152
 31
0.0
1001
GRPNAME
1000
PASTMD0N
  0
LINE
  5
1BE3
  8
241
 10
29.100000000000019
 20
14.04302257075897
 30
0.0
 11
28.89872986845819
 21
15.24576545045152
 31
0.0
1001
GRPNAME
1000
PASTMD0N
  0
LINE
  5
1BE4
  8
240
 10
22.300000000000011
 20
19.043022570758971
 30
0.0
 11
31.259999999999931
 21
19.043022570758971
 31
0.0
1001
GRPNAME
1000
PASTMD0K
  0
ARC
  5
1BE5
  8
240
 10
22.300000000000011
 20
18.043022570758978
 30
0.0
 40
1.0
 50
89.999999992281175
 51
179.99999999228109
1001
GRPNAME
1000
PASTMD0K
  0
CIRCLE
  5
1BE6
  8
246
 10
37.425373807342453
 20
17.14339632375782
 30
0.0
 40
2.379999999999999
1001
GRPNAME
1000
PASTMD0K
  0
LINE
  5
1BE7
  8
241
 10
39.295844579203788
 20
13.090873764707281
 30
0.0
 11
32.962421228809312
 21
17.203846979388061
 31
0.0
1001
GRPNAME
1000
PASTMD0K
  0
LINE
  5
1BE8
  8
241
 10
39.999725906958979
 20
20.7895328087514
 30
0.0
 11
39.604498293157747
 21
13.248140687047851
 31
0.0
1001
GRPNAME
1000
PASTMD0K
  0
LINE
  5
1BE9
  8
240
 10
32.800000000000061
 20
14.04302257075897
 30
0.0
 11
37.829663992427008
 21
14.04302257075897
 31
0.0
1001
GRPNAME
1000
PASTMD0K
  0
LINE
  5
1BEA
  8
240
 10
33.0
 20
9.6951214674780335
 30
0.0
 11
33.0
 21
13.84302257075899
 31
0.0
1001
GRPNAME
1000
PASTMD0N
  0
LINE
  5
1BEB
  8
240
 10
33.0
 20
13.84302257075899
 30
0.0
 11
32.800000000000061
 21
14.04302257075897
 31
0.0
1001
GRPNAME
1000
PASTMD0N
  0
ARC
  5
1BEC
  8
241
 10
39.404772386206851
 20
13.258607878296401
 30
0.0
 40
0.2
 50
237.00000000023519
 51
357.00000000023908
1001
GRPNAME
1000
PASTMD0K
  0
LINE
  5
1BED
  8
241
 10
32.980550935864407
 20
17.549782397814791
 30
0.0
 11
39.709201900060172
 21
20.978201304837679
 31
0.0
1001
GRPNAME
1000
PASTMD0K
  0
LINE
  5
1BEE
  8
240
 10
32.920000000000009
 20
20.703022570758939
 30
0.0
 11
39.169133225665689
 21
20.703022570758939
 31
0.0
1001
GRPNAME
1000
PASTMD0K
  0
ARC
  5
1BEF
  8
241
 10
33.071349035812318
 20
17.37158109297712
 30
0.0
 40
0.1999999999999693
 50
117.0000000105309
 51
237.00000001054161
1001
GRPNAME
1000
PASTMD0K
  0
ARC
  5
1BF0
  8
241
 10
39.800000000008083
 20
20.800000000000011
 30
0.0
 40
0.1999999999999907
 50
357.00000022650221
 51
117.0000002265018
1001
GRPNAME
1000
PASTMD0K
  0
ENDBLK
  5
1BF2
  8
0
  0
BLOCK
  8
0
  2
GENAXEH
 70
     0
 10
0.0
 20
0.0
 30
0.0
  3
GENAXEH
  1

  0
LINE
  5
1D31
  8
0
 10
-1.0
 20
0.0
 30
0.0
 11
1.0
 21
0.0
 31
0.0
  0
ENDBLK
  5
1D33
  8
0
  0
BLOCK
  8
0
  2
*X6
 70
     1
 10
0.0
 20
0.0
 30
0.0
  3
*X6
  1

  0
LINE
  5
1D82
  8
0
 62
     0
 10
4.6842791537633204
 20
-7.4998808591440911
 30
0.0
 11
3.8894380167956011
 21
-6.7050397221763731
 31
0.0
  0
LINE
  5
1D83
  8
0
 62
     0
 10
3.8727263366091691
 20
-6.9577357256220083
 30
0.0
 11
3.5543094869370071
 21
-6.6393188759498472
 31
0.0
  0
LINE
  5
1D84
  8
0
 62
     0
 10
4.7499999999898463
 20
-7.8350093890026846
 30
0.0
 11
4.4315831503176781
 21
-7.5165925393305173
 31
0.0
  0
LINE
  5
1D85
  8
0
 62
     0
 10
3.526262722784935
 20
-6.8806797954298551
 30
0.0
 11
3.295921592992328
 21
-6.650338665637249
 31
0.0
  0
LINE
  5
1D86
  8
0
 62
     0
 10
4.7522246919000892
 20
-8.1066417645450102
 30
0.0
 11
4.5086390805098304
 21
-7.8630561531547514
 31
0.0
  0
LINE
  5
1D87
  8
0
 62
     0
 10
3.275984198779923
 20
-6.8998089550569111
 30
0.0
 11
3.0780732838541871
 21
-6.7018980401311756
 31
0.0
  0
LINE
  5
1D88
  8
0
 62
     0
 10
4.7522246919000963
 20
-8.3760494481770849
 30
0.0
 11
4.5097198153287641
 21
-8.1335445716057535
 31
0.0
  0
LINE
  5
1D89
  8
0
 62
     0
 10
3.0707203540512888
 20
-6.9639527939603587
 30
0.0
 11
2.8889128564039548
 21
-6.7821452963130247
 31
0.0
  0
LINE
  5
1D8A
  8
0
 62
     0
 10
4.7522246919000892
 20
-8.6454571318091595
 30
0.0
 11
4.5097198153287641
 21
-8.4029522552378353
 31
0.0
  0
LINE
  5
1D8B
  8
0
 62
     0
 10
2.8970425769983299
 20
-7.0596827005394678
 30
0.0
 11
2.7231597197593231
 21
-6.885799843300461
 31
0.0
  0
LINE
  5
1D8C
  8
0
 62
     0
 10
4.7522246919000963
 20
-8.9148648154412342
 30
0.0
 11
4.5097198153287641
 21
-8.6723599388699029
 31
0.0
  0
LINE
  5
1D8D
  8
0
 62
     0
 10
2.7498655452627849
 20
-7.1819133524360046
 30
0.0
 11
2.5783886719967759
 21
-7.0104364791699956
 31
0.0
  0
LINE
  5
1D8E
  8
0
 62
     0
 10
4.7522246919000892
 20
-9.1842724990733071
 30
0.0
 11
4.509719815328757
 21
-8.9417676225019775
 31
0.0
  0
LINE
  5
1D8F
  8
0
 62
     0
 10
2.6278031848678292
 20
-7.329258675673116
 30
0.0
 11
2.4538874488726701
 21
-7.1553429396779569
 31
0.0
  0
LINE
  5
1D90
  8
0
 62
     0
 10
4.7522246919000963
 20
-9.4536801827053836
 30
0.0
 11
4.5097198153287641
 21
-9.2111753061340522
 31
0.0
  0
LINE
  5
1D91
  8
0
 62
     0
 10
2.5322609889057399
 20
-7.5031241633431094
 30
0.0
 11
2.3503781268582808
 21
-7.3212413012956503
 31
0.0
  0
LINE
  5
1D92
  8
0
 62
     0
 10
4.7522246919000892
 20
-9.7230878663374583
 30
0.0
 11
4.5097198153287641
 21
-9.480582989766134
 31
0.0
  0
LINE
  5
1D93
  8
0
 62
     0
 10
2.4683573861869439
 20
-7.7086282442563814
 30
0.0
 11
2.2702997300626389
 21
-7.510570588132075
 31
0.0
  0
LINE
  5
1D94
  8
0
 62
     0
 10
4.7522246919000963
 20
-9.9924955499695312
 30
0.0
 11
4.5097198153287641
 21
-9.7499906733982016
 31
0.0
  0
LINE
  5
1D95
  8
0
 62
     0
 10
2.4496145296249381
 20
-7.9592930713264556
 30
0.0
 11
2.218959373882917
 21
-7.7286379155844349
 31
0.0
  0
LINE
  5
1D96
  8
0
 62
     0
 10
4.7522246919000892
 20
-10.261903233601609
 30
0.0
 11
4.509719815328757
 21
-10.019398357030269
 31
0.0
  0
LINE
  5
1D97
  8
0
 62
     0
 10
2.4059400680027769
 20
-8.1850262933363638
 30
0.0
 11
2.2082799777820759
 21
-7.9873662031156618
 31
0.0
  0
LINE
  5
1D98
  8
0
 62
     0
 10
4.7522246919000963
 20
-10.531310917233681
 30
0.0
 11
4.5097198153287641
 21
-10.288806040662349
 31
0.0
  0
LINE
  5
1D99
  8
0
 62
     0
 10
4.7522246919000892
 20
-10.80071860086575
 30
0.0
 11
4.509719815328757
 21
-10.55821372429442
 31
0.0
  0
LINE
  5
1D9A
  8
0
 62
     0
 10
4.7522246919000963
 20
-11.07012628449783
 30
0.0
 11
4.5097198153287641
 21
-10.8276214079265
 31
0.0
  0
LINE
  5
1D9B
  8
0
 62
     0
 10
4.7522246919000892
 20
-11.339533968129899
 30
0.0
 11
4.509719815328757
 21
-11.09702909155857
 31
0.0
  0
LINE
  5
1D9C
  8
0
 62
     0
 10
4.7522246919000963
 20
-11.608941651761979
 30
0.0
 11
4.5097198153287641
 21
-11.36643677519065
 31
0.0
  0
LINE
  5
1D9D
  8
0
 62
     0
 10
4.7522246919000892
 20
-11.87834933539405
 30
0.0
 11
4.509719815328757
 21
-11.635844458822721
 31
0.0
  0
LINE
  5
1D9E
  8
0
 62
     0
 10
4.7522246919000963
 20
-12.14775701902613
 30
0.0
 11
4.5097198153287641
 21
-11.905252142454801
 31
0.0
  0
LINE
  5
1D9F
  8
0
 62
     0
 10
4.7522246919000892
 20
-12.4171647026582
 30
0.0
 11
4.509719815328757
 21
-12.17465982608687
 31
0.0
  0
LINE
  5
1DA0
  8
0
 62
     0
 10
4.7522246919000892
 20
-12.68657238629028
 30
0.0
 11
4.509719815328757
 21
-12.44406750971895
 31
0.0
  0
LINE
  5
1DA1
  8
0
 62
     0
 10
4.7467913641046229
 20
-12.950546742126891
 30
0.0
 11
4.509719815328757
 21
-12.713475193351019
 31
0.0
  0
LINE
  5
1DA2
  8
0
 62
     0
 10
4.704655010293294
 20
-13.17781807194763
 30
0.0
 11
4.5001333016111067
 21
-12.97329636326544
 31
0.0
  0
LINE
  5
1DA3
  8
0
 62
     0
 10
4.631536889363808
 20
-13.374107634650221
 30
0.0
 11
4.4463367846824724
 21
-13.18890752996888
 31
0.0
  0
LINE
  5
1DA4
  8
0
 62
     0
 10
4.5339371742048007
 20
-13.545915603123291
 30
0.0
 11
4.3585043515308817
 21
-13.37048278044937
 31
0.0
  0
LINE
  5
1DA5
  8
0
 62
     0
 10
4.4148905097695481
 20
-13.6962766223201
 30
0.0
 11
4.2432412694892099
 21
-13.524627382039769
 31
0.0
  0
LINE
  5
1DA6
  8
0
 62
     0
 10
4.2755233736504996
 20
-13.82631716983313
 30
0.0
 11
4.1027664708896623
 21
-13.65356026707229
 31
0.0
  0
LINE
  5
1DA7
  8
0
 62
     0
 10
4.1155088950827974
 20
-13.935710374897511
 30
0.0
 11
3.9364480948483158
 21
-13.75664957466303
 31
0.0
  0
LINE
  5
1DA8
  8
0
 62
     0
 10
2.4484463358670459
 20
-12.538055499313829
 30
0.0
 11
2.2573958725172432
 21
-12.347005035964029
 31
0.0
  0
LINE
  5
1DA9
  8
0
 62
     0
 10
3.932941245724904
 20
-14.022550409171689
 30
0.0
 11
3.740402169737421
 21
-13.83001133318421
 31
0.0
  0
LINE
  5
1DAA
  8
0
 62
     0
 10
2.448446335867053
 20
-12.807463182945909
 30
0.0
 11
2.205941453054606
 21
-12.56495830013346
 31
0.0
  0
LINE
  5
1DAB
  8
0
 62
     0
 10
3.7234973087386218
 20
-14.08251415581748
 30
0.0
 11
3.5043635829409041
 21
-13.86338043001976
 31
0.0
  0
LINE
  5
1DAC
  8
0
 62
     0
 10
2.4882349745858501
 20
-13.116659505296781
 30
0.0
 11
2.2059421298233128
 21
-12.83436666053424
 31
0.0
  0
LINE
  5
1DAD
  8
0
 62
     0
 10
3.477770208569587
 20
-14.10619473928052
 30
0.0
 11
3.1954773638070502
 21
-13.823901894517981
 31
0.0
  0
LINE
  5
1DAE
  8
0
 62
     0
 10
3.170366915027734
 20
-14.06819912937075
 30
0.0
 11
2.2439377397330769
 21
-13.141769954076089
 31
0.0
  0
ENDBLK
  5
1DB0
  8
0
  0
BLOCK
  8
0
  2
*X7
 70
     1
 10
0.0
 20
0.0
 30
0.0
  3
*X7
  1

  0
LINE
  5
1DB2
  8
0
 62
     0
 10
4.2624547351193831
 20
-8.6945025422926037
 30
0.0
 11
4.035110067749506
 21
-8.4671578749227265
 31
0.0
  0
LINE
  5
1DB3
  8
0
 62
     0
 10
4.3847898861379662
 20
-9.0862453769432534
 30
0.0
 11
3.657393551415232
 21
-8.3588490422205197
 31
0.0
  0
LINE
  5
1DB4
  8
0
 62
     0
 10
4.0009698644674989
 20
-8.9718330389048688
 30
0.0
 11
3.2796770350809581
 21
-8.2505402095183271
 31
0.0
  0
LINE
  5
1DB5
  8
0
 62
     0
 10
4.3683770627362639
 20
-9.3392402371736338
 30
0.0
 11
4.0836723604723772
 21
-9.0545355349097463
 31
0.0
  0
LINE
  5
1DB6
  8
0
 62
     0
 10
3.6093574293852408
 20
-8.8496282874546761
 30
0.0
 11
3.1516995096952201
 21
-8.3919703677646567
 31
0.0
  0
LINE
  5
1DB7
  8
0
 62
     0
 10
4.2947951752205
 20
-9.5350660332899366
 30
0.0
 11
4.0830458353223804
 21
-9.323316693391817
 31
0.0
  0
LINE
  5
1DB8
  8
0
 62
     0
 10
3.3942043925077239
 20
-8.9038829342092427
 30
0.0
 11
3.1516995096952121
 21
-8.6613780513967313
 31
0.0
  0
LINE
  5
1DB9
  8
0
 62
     0
 10
4.1832048513623903
 20
-9.6928833930639087
 30
0.0
 11
3.9263741302956841
 21
-9.4360526719972029
 31
0.0
  0
LINE
  5
1DBA
  8
0
 62
     0
 10
2.5278477583734471
 20
-8.3069339837070331
 30
0.0
 11
2.5025992179083039
 21
-8.2816854432418907
 31
0.0
  0
LINE
  5
1DBB
  8
0
 62
     0
 10
4.038448931997471
 20
-9.8175351573310579
 30
0.0
 11
3.5966936762392052
 21
-9.3757799015727912
 31
0.0
  0
LINE
  5
1DBC
  8
0
 62
     0
 10
2.595346301824569
 20
-8.6438402107902377
 30
0.0
 11
2.2977784517592781
 21
-8.3462723607249458
 31
0.0
  0
LINE
  5
1DBD
  8
0
 62
     0
 10
3.858536749785479
 20
-9.9070306587511467
 30
0.0
 11
3.218976791747834
 21
-9.2674707007135027
 31
0.0
  0
LINE
  5
1DBE
  8
0
 62
     0
 10
2.4806288566846169
 20
-8.7985304492823531
 30
0.0
 11
2.2990428530568532
 21
-8.6169444456545872
 31
0.0
  0
LINE
  5
1DBF
  8
0
 62
     0
 10
3.631987806149616
 20
-9.9498893987473522
 30
0.0
 11
2.8412599072564708
 21
-9.159161499854207
 31
0.0
  0
LINE
  5
1DC0
  8
0
 62
     0
 10
3.324406448771291
 20
-9.9117157250011072
 30
0.0
 11
2.225729864955539
 21
-8.8130391411853566
 31
0.0
  0
LINE
  5
1DC1
  8
0
 62
     0
 10
2.9655573480441708
 20
-9.8222743079060564
 30
0.0
 11
2.209807626377553
 21
-9.0665245862394386
 31
0.0
  0
ENDBLK
  5
1DC3
  8
0
  0
BLOCK
  8
0
  2
*X8
 70
     1
 10
0.0
 20
0.0
 30
0.0
  3
*X8
  1

  0
LINE
  5
1DC5
  8
0
 62
     0
 10
4.3884673739224729
 20
-10.43696128288814
 30
0.0
 11
4.368484628925251
 21
-10.41697853789092
 31
0.0
  0
LINE
  5
1DC6
  8
0
 62
     0
 10
4.38846737392248
 20
-10.706368966520211
 30
0.0
 11
3.990769160066697
 21
-10.30867075266443
 31
0.0
  0
LINE
  5
1DC7
  8
0
 62
     0
 10
4.3735033211932608
 20
-10.960812597423081
 30
0.0
 11
3.613053691208115
 21
-10.200362967437931
 31
0.0
  0
LINE
  5
1DC8
  8
0
 62
     0
 10
3.9957863742643691
 20
-10.852503334126251
 30
0.0
 11
3.2353382223495468
 21
-10.09205518221143
 31
0.0
  0
LINE
  5
1DC9
  8
0
 62
     0
 10
3.6180694273354632
 20
-10.74419407082943
 30
0.0
 11
2.8576227534909711
 21
-9.9837473969849384
 31
0.0
  0
LINE
  5
1DCA
  8
0
 62
     0
 10
3.2403524804065711
 20
-10.6358848075326
 30
0.0
 11
2.4799072846324099
 21
-9.8754396117584449
 31
0.0
  0
LINE
  5
1DCB
  8
0
 62
     0
 10
2.8626355334776639
 20
-10.527575544235781
 30
0.0
 11
2.205941453054606
 21
-9.8708814638127222
 31
0.0
  0
LINE
  5
1DCC
  8
0
 62
     0
 10
2.4849185865487722
 20
-10.41926628093896
 30
0.0
 11
2.2059414530545989
 21
-10.14028914744479
 31
0.0
  0
LINE
  5
1DCD
  8
0
 62
     0
 10
2.231000427367241
 20
-10.434755805389511
 30
0.0
 11
2.205941453054606
 21
-10.40969683107687
 31
0.0
  0
ENDBLK
  5
1DCF
  8
0
  0
BLOCK
  8
0
  2
*U9
 70
     1
 10
0.0
 20
0.0
 30
0.0
  3
*U9
  1

  0
TEXT
  5
1DD1
  8
250
 62
    40
 10
17.142857142861178
 20
36.0
 30
0.0
 40
3.0
  1
40
  0
ENDBLK
  5
1DD3
  8
0
  0
BLOCK
  8
0
  2
*U10
 70
     1
 10
0.0
 20
0.0
 30
0.0
  3
*U10
  1

  0
TEXT
  5
1DD5
  8
250
 62
    40
 10
53.146621796231038
 20
-13.0077418400962
 30
0.0
 40
3.0
  1
(
 50
90.0
  0
TEXT
  5
1DD6
  8
250
 62
    40
 10
53.146621796231038
 20
-11.0077418400962
 30
0.0
 40
3.0
  1
âË32ü`42
 50
90.0
  0
TEXT
  5
1DD7
  8
250
 62
    40
 10
53.146621796231038
 20
7.6208295884752282
 30
0.0
 40
3.0
  1
)
 50
90.0
  0
ENDBLK
  5
1DD9
  8
0
  0
ENDSEC
  0
SECTION
  2
ENTITIES
  0
TEXT
  5
1C2D
  8
241
 10
-21.0
 20
49.0
 30
0.0
 40
5.0
  1
EWB32-42CK3
  7
YOKO
 11
-21.0
 21
49.0
 31
0.0
 73
     1
  0
INSERT
  5
1C2E
  8
240
  2
A$C42780033
 10
0.0
 20
0.0
 30
0.0
  0
LINE
  5
1C30
  8
250
 10
-13.873567157471401
 20
-18.78489425430859
 30
0.0
 11
-27.873567157471399
 21
-18.78489425430859
 31
0.0
1001
ITEMNAME
1000
LNSP2
  0
LINE
  5
1C34
  8
250
 10
42.205362992674452
 20
33.028486813831812
 30
0.0
 11
64.633934421245897
 21
33.028486813831812
 31
0.0
1001
ITEMNAME
1000
LNSP2
  0
TEXT
  5
1D44
  8
250
 10
44.63393442124589
 20
34.028486813831812
 30
0.0
 40
3.0
  1
EBH3-1
  7
YOKO
1001
ITEMNAME
1000
LNSP3
1001
ACAD
1000
MTEXTBEGIN
1070
    73
1070
     1
1070
    44
1040
1.0
1070
    74
1070
     0
1000
MTEXTEND
  0
LINE
  5
1D45
  8
250
 10
40.300000000008069
 20
20.999999999999989
 30
0.0
 11
56.999995699484991
 21
20.999999999999989
 31
0.0
  0
LINE
  5
1D46
  8
250
 10
55.99999569948497
 20
18.769999999999989
 30
0.0
 11
55.99999569948497
 21
-21.0
 31
0.0
  0
TEXT
  5
1D4B
  8
250
 10
-25.302138586042819
 20
-17.78489425430859
 30
0.0
 40
3.0
  1
CK3
  7
YOKO
1001
ITEMNAME
1000
LNSP3
1001
ACAD
1000
MTEXTBEGIN
1070
    73
1070
     1
1070
    44
1040
1.0
1070
    74
1070
     0
1000
MTEXTEND
  0
LINE
  5
1D4C
  8
250
 10
0.0
 20
14.0
 30
0.0
 11
0.0000000000000014
 21
36.0
 31
0.0
  0
LINE
  5
1D4D
  8
250
 10
40.000000000008058
 20
21.300000000000011
 30
0.0
 11
40.000000000008058
 21
36.0
 31
0.0
  0
LINE
  5
1D4E
  8
250
 10
2.23
 20
35.0
 30
0.0
 11
37.770000000008068
 21
35.0
 31
0.0
  0
TEXT
  5
1D52
  8
250
 10
17.142857142861178
 20
36.0
 30
0.0
 40
3.0
  1
40
1001
ACAD
1000
MTEXTBEGIN
1070
    73
1070
     1
1070
    44
1040
1.0
1070
    74
1070
     0
1000
MTEXTEND
  0
LINE
  5
1D53
  8
250
 10
37.770000000008068
 20
35.37166666666667
 30
0.0
 11
40.000000000008058
 21
35.0
 31
0.0
  0
LINE
  5
1D54
  8
250
 10
37.770000000008068
 20
34.62833333333333
 30
0.0
 11
40.000000000008058
 21
35.0
 31
0.0
  0
LINE
  5
1D55
  8
250
 10
40.000000000008058
 20
35.0
 30
0.0
 11
37.770000000008068
 21
35.0
 31
0.0
  0
LINE
  5
1D56
  8
250
 10
2.23
 20
34.62833333333333
 30
0.0
 11
0.0000000000000013
 21
35.0
 31
0.0
  0
LINE
  5
1D57
  8
250
 10
2.23
 20
35.371666666666663
 30
0.0
 11
0.0000000000000013
 21
35.0
 31
0.0
  0
LINE
  5
1D58
  8
250
 10
0.0000000000000013
 20
35.0
 30
0.0
 11
2.23
 21
35.0
 31
0.0
  0
LINE
  5
1D59
  8
250
 10
-9.3392558257543108
 20
-10.93123665043929
 30
0.0
 11
-13.873567157471401
 21
-18.78489425430859
 31
0.0
1001
ACAD
1000
DSTYLE
1002
{
1070
     5
1000
OPEN
1070
    78
1070
     8
1070
   140
1040
3.0
1002
}
  0
LINE
  5
1D5A
  8
250
 10
-9.6611286008275261
 20
-10.745403317105961
 30
0.0
 11
-8.2242558257543124
 21
-9.0
 31
0.0
  0
LINE
  5
1D5B
  8
250
 10
-9.0173830506810955
 20
-11.11706998377263
 30
0.0
 11
-8.2242558257543124
 21
-9.0
 31
0.0
  0
LINE
  5
1D5C
  8
250
 10
-8.2242558257543124
 20
-9.0
 30
0.0
 11
-9.3392558257543108
 21
-10.93123665043929
 31
0.0
  0
LINE
  5
1D5D
  8
250
 10
55.6283290328183
 20
18.769999999999989
 30
0.0
 11
55.99999569948497
 21
20.999999999999989
 31
0.0
  0
LINE
  5
1D5E
  8
250
 10
56.371662366151646
 20
18.769999999999989
 30
0.0
 11
55.99999569948497
 21
20.999999999999989
 31
0.0
  0
LINE
  5
1D5F
  8
250
 10
55.99999569948497
 20
20.999999999999989
 30
0.0
 11
55.99999569948497
 21
18.769999999999989
 31
0.0
  0
TEXT
  5
1D60
  8
250
 10
53.146621796231038
 20
-13.0077418400962
 30
0.0
 40
3.0
  1
(
 50
90.0
  0
TEXT
  5
1D61
  8
250
 10
53.146621796231038
 20
-11.0077418400962
 30
0.0
 40
3.0
  1
âË32ü`42
 50
90.0
  0
TEXT
  5
1D62
  8
250
 10
53.146621796231038
 20
7.6208295884752282
 30
0.0
 40
3.0
  1
)
 50
90.0
  0
LINE
  5
1D63
  8
250
 10
36.20425289404924
 20
22.634259221198239
 30
0.0
 11
42.205362992674452
 21
33.028486813831812
 31
0.0
1001
ACAD
1000
DSTYLE
1002
{
1070
     5
1000
OPEN
1070
    78
1070
     8
1070
   140
1040
3.0
1002
}
  0
LINE
  5
1D64
  8
250
 10
36.526125669122457
 20
22.448425887864911
 30
0.0
 11
35.089252894049238
 21
20.703022570758939
 31
0.0
  0
LINE
  5
1D65
  8
250
 10
35.882380118976023
 20
22.82009255453157
 30
0.0
 11
35.089252894049238
 21
20.703022570758939
 31
0.0
  0
LINE
  5
1D66
  8
250
 10
35.089252894049238
 20
20.703022570758939
 30
0.0
 11
36.20425289404924
 21
22.634259221198239
 31
0.0
  0
VIEWPORT
  5
22
 67
     1
  8
0
 10
261.51769911504419
 20
148.5
 30
0.0
 40
523.0353982300885
 41
297.0
 68
     1
 69
     1
1001
ACAD
1000
MVIEW
1002
{
1070
    16
1010
0.0
1020
0.0
1030
0.0
1010
0.0
1020
0.0
1030
1.0
1040
0.0
1040
297.0
1040
261.51769911504419
1040
148.5
1040
50.0
1040
0.0
1040
0.0
1070
     0
1070
   100
1070
     1
1070
     1
1070
     0
1070
     0
1070
     0
1070
     0
1040
0.0
1040
0.0
1040
0.0
1040
1.0
1040
1.0
1040
10.0
1040
10.0
1070
     0
1002
{
1002
}
1002
}
1001
GENIUS_GENOBJ-N-SDF_13
1002
{
1000
OWNER
1000
GEN
1002
}
1001
GENIUS_GENODEF_13
1002
{
1000
HIER
1070
     0
1002
}
1002
{
1000
MANEDIT
1070
     0
1002
}
1002
{
1000
NOSEL
1070
     0
1002
}
1002
{
1000
BEHIND
1070
     0
1002
}
1002
{
1000
OTHER
1070
     0
1002
}
1002
{
1000
REACTOR
1002
}
1001
GENIUS_GENSCREG_15
1000
PF
1040
1.0
1000
DF
1040
1.0
1000
MIN
1011
0.0
1021
0.0
1031
0.0
1021
0.0
1031
0.0
1000
MAX
1011
523.0353982300885
1021
0.0
1031
0.0
1021
297.0
1031
0.0
1000
FLAGS
1070
     2
  0
ENDSEC
  0
EOF
