  0
SECTION
  2
HEADER
  9
$ACADVER
  1
AC1009
  9
$INSBASE
 10
0.0
 20
0.0
 30
0.0
  9
$EXTMIN
 10
-42.126253140709309
 20
-31.764754348417402
 30
-0.0000000349181948
  9
$EXTMAX
 10
78.013673566034527
 20
68.002217267173705
 30
0.0000000814935747
  9
$LIMMIN
 10
0.0
 20
0.0
  9
$LIMMAX
 10
297.0
 20
210.0
  9
$ORTHOMODE
 70
     1
  9
$REGENMODE
 70
     1
  9
$FILLMODE
 70
     1
  9
$QTEXTMODE
 70
     0
  9
$MIRRTEXT
 70
     1
  9
$DRAGMODE
 70
     2
  9
$LTSCALE
 40
10.0
  9
$OSMODE
 70
  3071
  9
$ATTMODE
 70
     1
  9
$TEXTSIZE
 40
3.0
  9
$TRACEWID
 40
1.0
  9
$TEXTSTYLE
  7
YOKO
  9
$CLAYER
  8
240
  9
$CELTYPE
  6
BYLAYER
  9
$CECOLOR
 62
   256
  9
$DIMSCALE
 40
1.0
  9
$DIMASZ
 40
2.2299999999999991
  9
$DIMEXO
 40
0.5
  9
$DIMDLI
 40
2.5
  9
$DIMRND
 40
0.0
  9
$DIMDLE
 40
0.0
  9
$DIMEXE
 40
1.0
  9
$DIMTP
 40
0.0
  9
$DIMTM
 40
0.0
  9
$DIMTXT
 40
3.0
  9
$DIMCEN
 40
0.0
  9
$DIMTSZ
 40
0.0
  9
$DIMTOL
 70
     0
  9
$DIMLIM
 70
     0
  9
$DIMTIH
 70
     0
  9
$DIMTOH
 70
     0
  9
$DIMSE1
 70
     0
  9
$DIMSE2
 70
     0
  9
$DIMTAD
 70
     3
  9
$DIMZIN
 70
     8
  9
$DIMBLK
  1
OPEN
  9
$DIMASO
 70
     1
  9
$DIMSHO
 70
     1
  9
$DIMPOST
  1

  9
$DIMAPOST
  1

  9
$DIMALT
 70
     0
  9
$DIMALTD
 70
     2
  9
$DIMALTF
 40
25.399999999999999
  9
$DIMLFAC
 40
1.0
  9
$DIMTOFL
 70
     1
  9
$DIMTVP
 40
0.0
  9
$DIMTIX
 70
     0
  9
$DIMSOXD
 70
     0
  9
$DIMSAH
 70
     0
  9
$DIMBLK1
  1

  9
$DIMBLK2
  1

  9
$DIMSTYLE
  2
BIGT
  9
$DIMCLRD
 70
   256
  9
$DIMCLRE
 70
   256
  9
$DIMCLRT
 70
    40
  9
$DIMTFAC
 40
1.0
  9
$DIMGAP
 40
1.0
  9
$LUNITS
 70
     2
  9
$LUPREC
 70
     2
  9
$SKETCHINC
 40
1.0
  9
$FILLETRAD
 40
0.0
  9
$AUNITS
 70
     0
  9
$AUPREC
 70
     3
  9
$MENU
  1
.
  9
$ELEVATION
 40
0.0
  9
$PELEVATION
 40
0.0
  9
$THICKNESS
 40
0.0
  9
$LIMCHECK
 70
     0
  9
$BLIPMODE
 70
     0
  9
$CHAMFERA
 40
10.0
  9
$CHAMFERB
 40
10.0
  9
$SKPOLY
 70
     0
  9
$TDCREATE
 40
2452227.4576188079
  9
$TDUPDATE
 40
2457367.7051181248
  9
$TDINDWG
 40
0.041342338
  9
$TDUSRTIMER
 40
0.0413421296
  9
$USRTIMER
 70
     1
  9
$ANGBASE
 50
0.0
  9
$ANGDIR
 70
     0
  9
$PDMODE
 70
    35
  9
$PDSIZE
 40
-5.0
  9
$PLINEWID
 40
0.0
  9
$COORDS
 70
     1
  9
$SPLFRAME
 70
     0
  9
$SPLINETYPE
 70
     6
  9
$SPLINESEGS
 70
     8
  9
$ATTDIA
 70
     1
  9
$ATTREQ
 70
     1
  9
$HANDLING
 70
     1
  9
$HANDSEED
  5
16AF
  9
$SURFTAB1
 70
     6
  9
$SURFTAB2
 70
     6
  9
$SURFTYPE
 70
     6
  9
$SURFU
 70
     6
  9
$SURFV
 70
     6
  9
$UCSNAME
  2

  9
$UCSORG
 10
0.0
 20
0.0
 30
0.0
  9
$UCSXDIR
 10
1.0
 20
0.0
 30
0.0
  9
$UCSYDIR
 10
0.0
 20
1.0
 30
0.0
  9
$PUCSNAME
  2

  9
$PUCSORG
 10
0.0
 20
0.0
 30
0.0
  9
$PUCSXDIR
 10
1.0
 20
0.0
 30
0.0
  9
$PUCSYDIR
 10
0.0
 20
1.0
 30
0.0
  9
$USERI1
 70
     1
  9
$USERI2
 70
     0
  9
$USERI3
 70
     0
  9
$USERI4
 70
     0
  9
$USERI5
 70
     0
  9
$USERR1
 40
0.0
  9
$USERR2
 40
0.0
  9
$USERR3
 40
0.0
  9
$USERR4
 40
0.0
  9
$USERR5
 40
0.0
  9
$WORLDVIEW
 70
     1
  9
$SHADEDGE
 70
     3
  9
$SHADEDIF
 70
    70
  9
$TILEMODE
 70
     1
  9
$MAXACTVP
 70
    16
  9
$PLIMCHECK
 70
     0
  9
$PEXTMIN
 10
1.0000000000000000E+020
 20
1.0000000000000000E+020
 30
1.0000000000000000E+020
  9
$PEXTMAX
 10
-1.0000000000000000E+020
 20
-1.0000000000000000E+020
 30
-1.0000000000000000E+020
  9
$PLIMMIN
 10
0.0
 20
0.0
  9
$PLIMMAX
 10
420.0
 20
297.0
  9
$UNITMODE
 70
     0
  9
$VISRETAIN
 70
     0
  9
$PLINEGEN
 70
     0
  9
$PSLTSCALE
 70
     1
  0
ENDSEC
  0
SECTION
  2
TABLES
  0
TABLE
  2
VPORT
 70
     1
  0
VPORT
  2
*ACTIVE
 70
     0
 10
0.0
 20
0.0
 11
1.0
 21
1.0
 12
17.542749504153232
 22
12.295225819619811
 13
0.0
 23
0.0
 14
7.0
 24
7.0
 15
7.0
 25
7.0
 16
0.0
 26
0.0
 36
1.0
 17
0.0
 27
0.0
 37
0.0
 40
160.50953737104129
 41
1.3814102564102559
 42
50.0
 43
0.0
 44
0.0
 50
0.0
 51
0.0
 71
     0
 72
  2000
 73
     1
 74
     0
 75
     0
 76
     1
 77
     0
 78
     0
  0
ENDTAB
  0
TABLE
  2
LTYPE
 70
    20
  0
LTYPE
  2
CONTINUOUS
 70
     0
  3
Solid line
 72
    65
 73
     0
 40
0.0
  0
LTYPE
  2
CENTER2
 70
     0
  3
___ _ ___ _ ___ _ ___ _ ___ _ ___ _ ___ _ ___ _
 72
    65
 73
     4
 40
1.125
 49
0.75
 49
-0.125
 49
0.125
 49
-0.125
  0
LTYPE
  2
HIDDEN2
 70
     0
  3
_ _ _ _ _ _ _ _ _ _ _ _ _ _ _ _ _ _ _ _ _ _ _ _
 72
    65
 73
     2
 40
0.1875
 49
0.125
 49
-0.0625
  0
LTYPE
  2
PHANTOM2
 70
     0
  3
___ _ _ ___ _ _ ___ _ _ ___ _ _ ___ _ _ ___ _ _
 72
    65
 73
     6
 40
1.25
 49
0.625
 49
-0.125
 49
0.125
 49
-0.125
 49
0.125
 49
-0.125
  0
LTYPE
  2
HIDDEN
 70
     0
  3
Hidden __ __ __ __ __ __ __ __ __ __ __ __ __ _
 72
    65
 73
     2
 40
9.5249999999999986
 49
6.3499999999999979
 49
-3.174999999999998
  0
LTYPE
  2
CENTER
 70
     0
  3
Center ____ _ ____ _ ____ _ ____ _ ____ _ ____
 72
    65
 73
     4
 40
50.799999999999997
 49
31.75
 49
-6.3499999999999979
 49
6.3499999999999979
 49
-6.3499999999999979
  0
LTYPE
  2
AMCONSTR
 70
     0
  3
_______________________
 72
    65
 73
     2
 40
9999.0
 49
9999.0
 49
0.0
  0
LTYPE
  2
AMZIGZAG2
 70
     0
  3
/\/-/\/-/\/-/\/-/\/-/\/
 72
    65
 73
     2
 40
0.4401
 49
0.0001
 49
-0.4400000000000001
  0
LTYPE
  2
ACANSTGB
 70
     0
  3
__ . . __ . .
 72
    65
 73
     6
 40
0.35433070866
 49
0.15748031496
 49
-0.03937007874
 49
0.03937007874
 49
-0.03937007874
 49
0.03937007874
 49
-0.03937007874
  0
LTYPE
  2
ACANSTGL
 70
     0
  3
_ _ _ _ _
 72
    65
 73
     2
 40
0.11811023622
 49
0.07874015748
 49
-0.03937007874
  0
ENDTAB
  0
TABLE
  2
LAYER
 70
    12
  0
LAYER
  2
0
 70
     0
 62
     7
  6
CONTINUOUS
  0
LAYER
  2
240
 70
     0
 62
     4
  6
CONTINUOUS
  0
LAYER
  2
241
 70
     0
 62
   211
  6
CONTINUOUS
  0
LAYER
  2
242
 70
     0
 62
     3
  6
CONTINUOUS
  0
LAYER
  2
243
 70
     0
 62
   211
  6
HIDDEN2
  0
LAYER
  2
245
 70
     0
 62
     2
  6
CENTER2
  0
LAYER
  2
247
 70
     0
 62
    60
  6
CONTINUOUS
  0
LAYER
  2
250
 70
     0
 62
     3
  6
CONTINUOUS
  0
LAYER
  2
DEFPOINTS
 70
     0
 62
     7
  6
CONTINUOUS
  0
ENDTAB
  0
TABLE
  2
STYLE
 70
     9
  0
STYLE
  2
STANDARD
 70
     0
 40
0.0
 41
1.0
 50
0.0
 71
     0
 42
3.0
  3
romans.shx
  4
BIGFONT.SHX
  0
STYLE
  2
YOKO
 70
     0
 40
0.0
 41
1.0
 50
0.0
 71
     0
 42
3.0
  3
romans.shx
  4
extfont.shx
  0
STYLE
  2

 70
     1
 40
0.0
 41
1.0
 50
0.0
 71
     0
 42
3.0
  3
genltshp.shx
  4

  0
STYLE
  2
ACANSGDT
 70
     0
 40
0.0
 41
1.0
 50
0.0
 71
     0
 42
3.0
  3
amgdt.shx
  4

  0
ENDTAB
  0
TABLE
  2
VIEW
 70
     0
  0
ENDTAB
  0
TABLE
  2
UCS
 70
     0
  0
ENDTAB
  0
TABLE
  2
APPID
 70
    27
  0
APPID
  2
ACAD
 70
     0
  0
APPID
  2
ACADANNOTATIVE
 70
     0
  0
APPID
  2
GLOBAL
 70
     0
  0
APPID
  2
DETAIL
 70
     0
  0
APPID
  2
GRPNAME
 70
     0
  0
APPID
  2
GPARA
 70
     0
  0
APPID
  2
HATCH_TYPE
 70
     0
  0
APPID
  2
HATCH_DISPLAY
 70
     0
  0
APPID
  2
HATCH_DISTANCE
 70
     0
  0
APPID
  2
ITEMNAME
 70
     0
  0
APPID
  2
MCAD_NO_VIS
 70
     0
  0
APPID
  2
ACAD_TEMP_GRAPHIC
 70
     0
  0
APPID
  2
AD_DRAW
 70
     0
  0
APPID
  2
ACATTRIBSERVICES
 70
     0
  0
APPID
  2
DESIGNERASSEMBLIES
 70
     0
  0
APPID
  2
ACADM_DIM_EDIT
 70
     0
  0
APPID
  2
AMDT_DM_ADJ
 70
     0
  0
APPID
  2
GENIUS_GENSCREG_15
 70
     0
  0
APPID
  2
GENIUS_GENODEF_13
 70
     0
  0
APPID
  2
GENIUS_GENOBJ-N-SDF_13
 70
     0
  0
APPID
  2
ACAD_DSTYLE_DIMJAG
 70
     0
  0
APPID
  2
ACAD_DSTYLE_DIMBREAK
 70
     0
  0
APPID
  2
ACAD_NAV_VCDISPLAY
 70
     0
  0
APPID
  2
ACAECLAYERSTANDARD
 70
     0
  0
APPID
  2
ACAD_EXEMPT_FROM_CAD_STANDARDS
 70
     0
  0
APPID
  2
GENIUS_GENOBJ-N-FIL_13
 70
     0
  0
APPID
  2
ACAD_MLEADERVER
 70
     0
  0
ENDTAB
  0
TABLE
  2
DIMSTYLE
 70
    17
  0
DIMSTYLE
  2
STANDARD
 70
     0
  3

  4

  5

  6

  7

 40
1.0
 41
2.0
 42
2.0
 43
3.75
 44
2.0
 45
0.0
 46
0.0
 47
0.0
 48
0.0
140
4.0
141
0.09
142
0.0
143
25.399999999999999
144
1.0
145
0.0
146
1.0
147
1.0
 71
     0
 72
     0
 73
     1
 74
     1
 75
     0
 76
     0
 77
     0
 78
     8
170
     0
171
     2
172
     0
173
     1
174
     0
175
     0
176
   256
177
   256
178
   256
  0
DIMSTYLE
  2
BIGT
 70
     0
  3

  4

  5

  6

  7

 40
1.0
 41
2.2299999999999991
 42
0.5
 43
2.5
 44
1.0
 45
0.0
 46
0.0
 47
0.0
 48
0.0
140
3.5
141
0.0
142
0.0
143
25.399999999999999
144
1.0
145
0.0
146
1.0
147
1.0
 71
     0
 72
     0
 73
     0
 74
     0
 75
     0
 76
     0
 77
     3
 78
     9
170
     0
171
     2
172
     1
173
     0
174
     0
175
     0
176
   256
177
   256
178
    40
  0
DIMSTYLE
  2
AM_ANSI
 70
     0
  3

  4
mm
  5

  6

  7

 40
1.0
 41
0.12
 42
0.05
 43
0.5
 44
0.1
 45
0.0
 46
0.0
 47
0.1
 48
0.1
140
0.12
141
0.0
142
0.0
143
25.399999999999999
144
1.0
145
0.0
146
0.71
147
0.06
 71
     0
 72
     0
 73
     1
 74
     1
 75
     0
 76
     0
 77
     0
 78
     7
170
     0
171
     2
172
     0
173
     0
174
     0
175
     0
176
   256
177
   256
178
     2
  0
DIMSTYLE
  2
AM_ANSI$3
 70
     0
  3

  4
mm
  5

  6

  7

 40
1.0
 41
0.12
 42
0.05
 43
0.5
 44
0.1
 45
0.0
 46
0.0
 47
0.1
 48
0.1
140
0.12
141
0.0
142
0.0
143
25.399999999999999
144
1.0
145
0.0
146
0.71
147
0.06
 71
     0
 72
     0
 73
     1
 74
     1
 75
     0
 76
     0
 77
     0
 78
     7
170
     0
171
     2
172
     0
173
     0
174
     0
175
     0
176
   256
177
   256
178
     2
  0
DIMSTYLE
  2
AM_ANSI$4
 70
     0
  3

  4
mm
  5

  6

  7

 40
1.0
 41
0.12
 42
0.05
 43
0.5
 44
0.1
 45
0.0
 46
0.0
 47
0.1
 48
0.1
140
0.12
141
0.0
142
0.0
143
25.399999999999999
144
1.0
145
0.0
146
0.71
147
0.06
 71
     0
 72
     0
 73
     1
 74
     1
 75
     0
 76
     0
 77
     0
 78
     7
170
     0
171
     2
172
     0
173
     0
174
     0
175
     0
176
   256
177
   256
178
     2
  0
DIMSTYLE
  2
AM_ANSI$7
 70
     0
  3

  4
mm
  5

  6

  7

 40
1.0
 41
0.12
 42
0.05
 43
0.5
 44
0.1
 45
0.0
 46
0.0
 47
0.1
 48
0.1
140
0.12
141
0.0
142
0.0
143
25.399999999999999
144
1.0
145
0.0
146
0.71
147
0.06
 71
     0
 72
     0
 73
     1
 74
     1
 75
     0
 76
     0
 77
     0
 78
     7
170
     0
171
     2
172
     0
173
     0
174
     0
175
     0
176
   256
177
   256
178
     2
  0
DIMSTYLE
  2
AM_ANSI$SF
 70
     0
  3

  4
mm
  5

  6

  7

 40
1.0
 41
0.12
 42
0.05
 43
0.5
 44
0.1
 45
0.0
 46
0.0
 47
0.1
 48
0.1
140
0.12
141
0.0
142
0.0
143
25.399999999999999
144
1.0
145
0.0
146
0.71
147
0.06
 71
     0
 72
     0
 73
     1
 74
     1
 75
     1
 76
     1
 77
     0
 78
     7
170
     0
171
     2
172
     0
173
     0
174
     0
175
     0
176
   256
177
   256
178
     2
  0
DIMSTYLE
  2
AM_ANSI$SH
 70
     0
  3

  4
mm
  5

  6
GENAXEH
  7

 40
1.0
 41
0.12
 42
0.05
 43
0.5
 44
0.1
 45
0.0
 46
0.0
 47
0.1
 48
0.1
140
0.12
141
0.0
142
0.0
143
25.399999999999999
144
1.0
145
0.0
146
0.71
147
0.06
 71
     0
 72
     0
 73
     1
 74
     1
 75
     1
 76
     1
 77
     0
 78
     7
170
     0
171
     2
172
     0
173
     1
174
     0
175
     0
176
   256
177
   256
178
     2
  0
ENDTAB
  0
ENDSEC
  0
SECTION
  2
BLOCKS
  0
BLOCK
  8
0
  2
$MODEL_SPACE
 70
     0
 10
0.0
 20
0.0
 30
0.0
  3
$MODEL_SPACE
  1

  0
ENDBLK
  5
1428
  8
0
  0
BLOCK
 67
     1
  8
0
  2
$PAPER_SPACE
 70
     0
 10
0.0
 20
0.0
 30
0.0
  3
$PAPER_SPACE
  1

  0
ENDBLK
  5
1424
 67
     1
  8
0
  0
BLOCK
  8
0
  2
_OPEN
 70
     0
 10
0.0
 20
0.0
 30
0.0
  3
_OPEN
  1

  0
LINE
  5
595
  8
0
  6
BYBLOCK
 62
     0
 10
-1.0
 20
0.1666666666666666
 30
0.0
 11
0.0
 21
0.0
 31
0.0
  0
LINE
  5
596
  8
0
  6
BYBLOCK
 62
     0
 10
-1.0
 20
-0.1666666666666666
 30
0.0
 11
0.0
 21
0.0
 31
0.0
  0
LINE
  5
597
  8
0
  6
BYBLOCK
 62
     0
 10
0.0
 20
0.0
 30
0.0
 11
-1.0
 21
0.0
 31
0.0
  0
ENDBLK
  5
599
  8
0
  0
BLOCK
  8
0
  2
GENAXEH
 70
     0
 10
0.0
 20
0.0
 30
0.0
  3
GENAXEH
  1

  0
LINE
  5
12FA
  8
0
 10
-1.0
 20
0.0
 30
0.0
 11
1.0
 21
0.0
 31
0.0
  0
ENDBLK
  5
12FC
  8
0
  0
BLOCK
  8
0
  2
_ACMFILLEDHALF
 70
     0
 10
0.0
 20
0.0
 30
0.0
  3
_ACMFILLEDHALF
  1

  0
TRACE
  5
14D8
  8
240
 62
     0
 10
-0.8
 20
0.0
 30
0.0
 11
-1.0
 21
0.166666666
 31
0.0
 12
0.0
 22
0.0
 32
0.0
 13
0.0
 23
0.0
 33
0.0
  0
LINE
  5
14D9
  8
240
 62
     0
 10
-1.0
 20
0.0
 30
0.0
 11
-0.8
 21
0.0
 31
0.0
  0
ENDBLK
  5
14D7
  8
0
  0
ENDSEC
  0
SECTION
  2
ENTITIES
  0
LINE
  5
11EA
  8
250
  6
CONTINUOUS
 10
-20.201750465205709
 20
-27.78489425430859
 30
0.0
 11
-34.20175046520572
 21
-27.78489425430859
 31
0.0
1001
ITEMNAME
1000
LNSP2
  0
TEXT
  5
11EC
  8
241
  6
CONTINUOUS
 10
-42.0
 20
63.0
 30
0.0
 40
5.0
  1
EWB2-50CK6
  7
YOKO
 11
-42.0
 21
63.0
 31
0.0
 73
     1
  0
LINE
  5
130B
  8
250
  6
CONTINUOUS
 10
62.500000000000099
 20
-8.0
 30
0.0
 11
78.0
 21
-8.0000000000000036
 31
0.0
  0
LINE
  5
130C
  8
250
  6
CONTINUOUS
 10
61.500000000000107
 20
8.0
 30
0.0
 11
78.0
 21
7.9999999999999929
 31
0.0
  0
LINE
  5
130D
  8
250
  6
CONTINUOUS
 10
77.0
 20
-5.770000000000004
 30
0.0
 11
77.0
 21
5.7699999999999951
 31
0.0
  0
TEXT
  5
1311
  8
250
  6
CONTINUOUS
 10
-31.63032189377715
 20
-26.78489425430859
 30
0.0
 40
3.0
  1
CK6
  7
YOKO
1001
ITEMNAME
1000
LNSP3
1001
ACAD
1000
MTEXTBEGIN
1070
    73
1070
     1
1070
    44
1040
1.0
1070
    74
1070
     0
1000
MTEXTEND
  0
LINE
  5
131A
  8
250
  6
CONTINUOUS
 10
0.0
 20
32.172104754745298
 30
0.0
 11
0.0000000000000012
 21
50.0
 31
0.0
  0
LINE
  5
131B
  8
250
  6
CONTINUOUS
 10
62.000000000000099
 20
26.936864800374959
 30
0.0
 11
62.000000000000099
 21
50.0
 31
0.0
  0
LINE
  5
131C
  8
250
  6
CONTINUOUS
 10
2.2299999999999991
 20
49.0
 30
0.0
 11
59.770000000000103
 21
49.0
 31
0.0
  0
TEXT
  5
1320
  8
250
  6
CONTINUOUS
 10
28.07142857142863
 20
50.0
 30
0.0
 40
3.0
  1
62
1001
ACAD
1000
MTEXTBEGIN
1070
    73
1070
     1
1070
    44
1040
1.0
1070
    74
1070
     0
1000
MTEXTEND
  0
LINE
  5
1321
  8
250
  6
CONTINUOUS
 10
59.770000000000103
 20
49.37166666666667
 30
0.0
 11
62.000000000000099
 21
49.0
 31
0.0
  0
LINE
  5
1322
  8
250
  6
CONTINUOUS
 10
59.770000000000103
 20
48.62833333333333
 30
0.0
 11
62.000000000000099
 21
49.0
 31
0.0
  0
LINE
  5
1323
  8
250
  6
CONTINUOUS
 10
62.000000000000099
 20
49.0
 30
0.0
 11
59.770000000000103
 21
49.0
 31
0.0
  0
LINE
  5
1324
  8
250
  6
CONTINUOUS
 10
2.2299999999999991
 20
48.62833333333333
 30
0.0
 11
0.0000000000000012
 21
49.0
 31
0.0
  0
LINE
  5
1325
  8
250
  6
CONTINUOUS
 10
2.2299999999999991
 20
49.371666666666663
 30
0.0
 11
0.0000000000000012
 21
49.0
 31
0.0
  0
LINE
  5
1326
  8
250
  6
CONTINUOUS
 10
0.0000000000000012
 20
49.0
 30
0.0
 11
2.2299999999999991
 21
49.0
 31
0.0
  0
LINE
  5
132F
  8
250
  6
CONTINUOUS
 10
-15.66743913348863
 20
-19.931236650439288
 30
0.0
 11
-20.201750465205709
 21
-27.78489425430859
 31
0.0
1001
ACAD
1000
DSTYLE
1002
{
1070
     5
1000
OPEN
1070
    78
1070
     8
1070
   140
1040
3.0
1002
}
  0
LINE
  5
1330
  8
250
  6
CONTINUOUS
 10
-15.98931190856184
 20
-19.745403317105961
 30
0.0
 11
-14.55243913348863
 21
-18.0
 31
0.0
  0
LINE
  5
1331
  8
250
  6
CONTINUOUS
 10
-15.345566358415409
 20
-20.11706998377263
 30
0.0
 11
-14.55243913348863
 21
-18.0
 31
0.0
  0
LINE
  5
1332
  8
250
  6
CONTINUOUS
 10
-14.55243913348863
 20
-18.0
 30
0.0
 11
-15.66743913348863
 21
-19.931236650439288
 31
0.0
  0
TEXT
  5
1333
  8
250
  6
CONTINUOUS
 10
76.0
 20
-4.0714285714285641
 30
0.0
 40
3.0
  1
\U+2205
 50
90.0
1001
ACAD
1000
MTEXTBEGIN
1070
    73
1070
     1
1070
    44
1040
1.0
1070
    74
1070
     0
1000
MTEXTEND
  0
TEXT
  5
1334
  8
250
  6
CONTINUOUS
 10
76.0
 20
-1.357142857142849
 30
0.0
 40
3.0
  1
16
 50
90.0
1001
ACAD
1000
MTEXTBEGIN
1070
    73
1070
     1
1070
    44
1040
1.0
1070
    74
1070
     0
1000
MTEXTEND
  0
LINE
  5
1335
  8
250
  6
CONTINUOUS
 10
76.62833333333333
 20
5.769999999999996
 30
0.0
 11
77.0
 21
7.9999999999999929
 31
0.0
  0
LINE
  5
1336
  8
250
  6
CONTINUOUS
 10
77.371666666666655
 20
5.769999999999996
 30
0.0
 11
77.0
 21
7.9999999999999929
 31
0.0
  0
LINE
  5
1337
  8
250
  6
CONTINUOUS
 10
77.0
 20
7.9999999999999929
 30
0.0
 11
77.0
 21
5.769999999999996
 31
0.0
  0
LINE
  5
1338
  8
250
  6
CONTINUOUS
 10
77.371666666666655
 20
-5.7700000000000031
 30
0.0
 11
77.0
 21
-8.0000000000000036
 31
0.0
  0
LINE
  5
1339
  8
250
  6
CONTINUOUS
 10
76.62833333333333
 20
-5.7700000000000031
 30
0.0
 11
77.0
 21
-8.0000000000000036
 31
0.0
  0
LINE
  5
133A
  8
250
  6
CONTINUOUS
 10
77.0
 20
-8.0000000000000036
 30
0.0
 11
77.0
 21
-5.7700000000000031
 31
0.0
  0
LINE
  5
151A
  8
240
  6
CONTINUOUS
 10
0.0
 20
31.75
 30
0.0
 11
19.900000000000141
 21
31.75
 31
0.0
1001
GRPNAME
1000
0000000N
  0
LINE
  5
151B
  8
240
  6
CONTINUOUS
 10
0.0
 20
-31.75
 30
0.0
 11
20.440043573294979
 21
-31.75
 31
0.0
1001
GRPNAME
1000
0000000N
  0
LINE
  5
151C
  8
245
  6
CENTER2
 10
67.925021886426066
 20
0.0
 30
0.0
 11
-42.10369868454864
 21
0.0
 31
0.0
1001
GRPNAME
1000
PASTMD01
  0
CIRCLE
  5
151D
  8
241
  6
CONTINUOUS
 10
-16.0
 20
0.0
 30
0.0
 40
4.5
  0
CIRCLE
  5
151E
  8
241
  6
CONTINUOUS
 10
-16.0
 20
0.0
 30
0.0
 40
5.9834999999999923
  0
LINE
  5
151F
  8
240
  6
CONTINUOUS
 10
-39.899999999999849
 20
-18.0
 30
0.0
 11
-39.899999999999849
 21
18.0
 31
0.0
1001
GRPNAME
1000
PASTMD0C
  0
LINE
  5
1520
  8
241
  6
CONTINUOUS
 10
0.0
 20
18.0
 30
0.0
 11
0.0
 21
-18.0
 31
0.0
1001
GRPNAME
1000
0000000K
  0
LINE
  5
1524
  8
245
  6
CENTER2
 10
-16.0
 20
9.1614147002290434
 30
0.0
 11
-16.0
 21
-9.8178655354472237
 31
0.0
1001
GRPNAME
1000
PASTMD0C
  0
LINE
  5
152A
  8
240
  6
CONTINUOUS
 10
-39.899999999999849
 20
-18.0
 30
0.0
 11
-1.9999999999999429
 21
-18.0
 31
0.0
1001
GRPNAME
1000
PASTMD0C
  0
LINE
  5
1549
  8
240
  6
CONTINUOUS
 10
0.0
 20
-31.75
 30
0.0
 11
0.0
 21
-18.0
 31
0.0
1001
GRPNAME
1000
0000000K
  0
LINE
  5
154D
  8
240
  6
CONTINUOUS
 10
-1.999999999999942
 20
-18.0
 30
0.0
 11
0.0
 21
-18.0
 31
0.0
  0
LINE
  5
1577
  8
240
  6
CONTINUOUS
 10
-39.899999999999849
 20
18.0
 30
0.0
 11
-1.9999999999999429
 21
18.0
 31
0.0
1001
GRPNAME
1000
PASTMD0C
  0
LINE
  5
1579
  8
240
  6
CONTINUOUS
 10
0.0
 20
31.75
 30
0.0
 11
0.0
 21
18.0
 31
0.0
1001
GRPNAME
1000
0000000K
  0
LINE
  5
157A
  8
240
  6
CONTINUOUS
 10
-1.999999999999942
 20
18.0
 30
0.0
 11
0.0
 21
18.0
 31
0.0
  0
LINE
  5
157E
  8
245
  6
CENTER2
 10
40.000000000000149
 20
-6.1805127508901023
 30
0.0
 11
40.000000000000149
 21
6.2641152143498831
 31
0.0
  0
LINE
  5
157F
  8
241
  6
CONTINUOUS
 10
42.500000000000149
 20
1.4433756729740701
 30
0.0
 11
42.500000000000149
 21
-1.4433756729740701
 31
0.0
  0
LINE
  5
1581
  8
241
  6
CONTINUOUS
 10
37.500000000000171
 20
1.4433756729740701
 30
0.0
 11
37.500000000000171
 21
-1.4433756729740701
 31
0.0
  0
CIRCLE
  5
1585
  8
242
  6
CONTINUOUS
 10
40.000000000000149
 20
0.0
 30
0.0
 40
4.25
  0
CIRCLE
  5
1586
  8
241
  6
CONTINUOUS
 10
40.000000000000149
 20
0.0
 30
0.0
 40
5.0
  0
LINE
  5
1588
  8
241
  6
CONTINUOUS
 10
20.440043573294979
 20
-31.75
 30
0.0
 11
20.440043573294979
 21
31.75
 31
0.0
  0
LINE
  5
158A
  8
240
  6
CONTINUOUS
 10
44.500000000000171
 20
-29.450000000000021
 30
0.0
 11
57.450000000000102
 21
-26.45000000000001
 31
0.0
1001
GRPNAME
1000
0000000F
  0
LINE
  5
158B
  8
241
  6
CONTINUOUS
 10
57.450000000000223
 20
-26.449999999999999
 30
0.0
 11
22.500000000000171
 21
-26.449999999999999
 31
0.0
1001
GRPNAME
1000
PASTMD01
  0
LINE
  5
158C
  8
243
  6
HIDDEN2
 10
62.000000000000099
 20
-8.0
 30
0.0
 11
31.16017212216866
 21
-8.0000000000000568
 31
0.0
1001
GRPNAME
1000
00000003
  0
LINE
  5
158D
  8
240
  6
CONTINUOUS
 10
35.500000000000171
 20
-29.450000000000021
 30
0.0
 11
22.550000000000122
 21
-26.45000000000007
 31
0.0
1001
GRPNAME
1000
0000000F
  0
LINE
  5
15AC
  8
240
  6
CONTINUOUS
 10
22.500000000000171
 20
-28.18205080756865
 30
0.0
 11
20.440043573294869
 21
-31.750000000000082
 31
0.0
1001
GRPNAME
1000
PASTMD01
  0
LINE
  5
15AD
  8
240
  6
CONTINUOUS
 10
22.500000000000171
 20
-26.449999999999999
 30
0.0
 11
22.500000000000171
 21
-28.18205080756865
 31
0.0
1001
GRPNAME
1000
PASTMD03
  0
LINE
  5
15C2
  8
240
  6
CONTINUOUS
 10
44.500000000000171
 20
-29.450000000000021
 30
0.0
 11
35.500000000000171
 21
-29.450000000000021
 31
0.0
1001
GRPNAME
1000
0000000F
  0
LINE
  5
15C3
  8
241
  6
CONTINUOUS
 10
40.000000000000149
 20
-2.886751345948082
 30
0.0
 11
37.500000000000171
 21
-1.4433756729740701
 31
0.0
  0
LINE
  5
15C4
  8
241
  6
CONTINUOUS
 10
40.000000000000149
 20
-2.886751345948082
 30
0.0
 11
42.500000000000149
 21
-1.4433756729740701
 31
0.0
  0
LINE
  5
15C5
  8
240
  6
CONTINUOUS
 10
62.000000000000099
 20
26.449999999999999
 30
0.0
 11
62.000000000000099
 21
-26.449999999999999
 31
0.0
1001
GRPNAME
1000
PASTMD01
  0
LINE
  5
15C6
  8
240
  6
CONTINUOUS
 10
62.000000000000099
 20
-26.449999999999999
 30
0.0
 11
57.450000000000223
 21
-26.449999999999999
 31
0.0
1001
GRPNAME
1000
PASTMD01
  0
LINE
  5
15C8
  8
240
  6
CONTINUOUS
 10
62.000000000000099
 20
26.449999999999999
 30
0.0
 11
23.50000000000011
 21
26.449999999999999
 31
0.0
1001
GRPNAME
1000
PASTMD01
  0
LINE
  5
15C9
  8
243
  6
HIDDEN2
 10
62.000000000000099
 20
8.0
 30
0.0
 11
31.16017212216866
 21
7.9999999999999423
 31
0.0
1001
GRPNAME
1000
00000003
  0
LINE
  5
15CA
  8
240
  6
CONTINUOUS
 10
20.440043573294869
 20
31.75000000000011
 30
0.0
 11
19.900000000000141
 21
31.75000000000011
 31
0.0
1001
GRPNAME
1000
PASTMD01
  0
LINE
  5
15CB
  8
240
  6
CONTINUOUS
 10
23.50000000000011
 20
26.449999999999999
 30
0.0
 11
20.440043573294869
 21
31.75000000000011
 31
0.0
1001
GRPNAME
1000
PASTMD01
  0
LINE
  5
15CD
  8
241
  6
CONTINUOUS
 10
37.500000000000171
 20
1.4433756729740701
 30
0.0
 11
40.000000000000149
 21
2.886751345948082
 31
0.0
  0
LINE
  5
15CE
  8
241
  6
CONTINUOUS
 10
42.500000000000149
 20
1.4433756729740701
 30
0.0
 11
40.000000000000149
 21
2.886751345948082
 31
0.0
  0
LINE
  5
1626
  8
247
  6
CONTINUOUS
 10
8.0
 20
-25.00000000007001
 30
0.0
 11
8.0
 21
-18.307692308029999
 31
0.0
  0
ARC
  5
1627
  8
247
  6
CONTINUOUS
 10
6.2500000000700018
 20
-25.00000000007001
 30
0.0
 40
1.7499999999299991
 50
180.0
 51
0.0
  0
ARC
  5
1628
  8
247
  6
CONTINUOUS
 10
6.2500000000700018
 20
-18.307692308029999
 30
0.0
 40
1.7499999999299991
 50
0.0
 51
180.0
  0
LINE
  5
1629
  8
247
  6
CONTINUOUS
 10
4.5000000001400009
 20
-24.13461538472
 30
0.0
 11
7.5000000000200009
 21
-24.99485154196201
 31
0.0
  0
LINE
  5
162A
  8
247
  6
CONTINUOUS
 10
5.92307692316
 20
-23.234983818335831
 30
0.0
 11
5.92307692316
 21
-24.542676125975831
 31
0.0
  0
ARC
  5
162B
  8
247
  6
CONTINUOUS
 10
5.0495986677029761
 20
-22.895143816089789
 30
0.0
 40
0.5538165441895349
 50
72.997889675291603
 51
172.92416621851231
  0
ARC
  5
162C
  8
247
  6
CONTINUOUS
 10
4.9360330444657761
 20
-23.316878323028781
 30
0.0
 40
0.9904354236226808
 50
4.7429368522013959
 51
73.849226273267703
1001
GENIUS_GENOBJ-N-FIL_13
1002
{
1000
OWNER
1000
GEN
1002
}
1001
GENIUS_GENODEF_13
1002
{
1000
HIER
1070
     0
1002
}
1002
{
1000
MANEDIT
1070
     0
1002
}
1002
{
1000
NOSEL
1070
     0
1002
}
1002
{
1000
BEHIND
1070
     0
1002
}
1002
{
1000
OTHER
1070
     0
1002
}
1002
{
1000
REACTOR
1002
}
  0
LINE
  5
162D
  8
247
  6
CONTINUOUS
 10
7.5000000000199982
 20
-23.68715923432201
 30
0.0
 11
7.5000000000199982
 21
-24.99485154196201
 31
0.0
  0
LINE
  5
162E
  8
247
  6
CONTINUOUS
 10
4.5000000001400009
 20
-24.13461538472
 30
0.0
 11
4.5000000001400009
 21
-22.82692307708
 31
0.0
  0
ARC
  5
162F
  8
247
  6
CONTINUOUS
 10
6.4820242326655553
 20
-23.31091963654697
 30
0.0
 40
0.5640818586791229
 50
65.990941652530523
 51
172.26344345906949
  0
ARC
  5
1630
  8
247
  6
CONTINUOUS
 10
6.4874290391865896
 20
-23.788262685347071
 30
0.0
 40
1.0176059446230981
 50
5.7019851642581392
 51
77.277338436820983
1001
GENIUS_GENOBJ-N-FIL_13
1002
{
1000
OWNER
1000
GEN
1002
}
1001
GENIUS_GENODEF_13
1002
{
1000
HIER
1070
     0
1002
}
1002
{
1000
MANEDIT
1070
     0
1002
}
1002
{
1000
NOSEL
1070
     0
1002
}
1002
{
1000
BEHIND
1070
     0
1002
}
1002
{
1000
OTHER
1070
     0
1002
}
1002
{
1000
REACTOR
1002
}
  0
LINE
  5
1631
  8
247
  6
CONTINUOUS
 10
7.5000000000200009
 20
-22.033313080542008
 30
0.0
 11
4.5000000001400009
 21
-21.173076923299998
 31
0.0
  0
LINE
  5
1632
  8
247
  6
CONTINUOUS
 10
4.5000000001400009
 20
-18.750000000319989
 30
0.0
 11
4.5000000001400009
 21
-19.31573661945659
 31
0.0
  0
LINE
  5
1633
  8
247
  6
CONTINUOUS
 10
7.5000000000199982
 20
-20.2115384618
 30
0.0
 11
7.5000000000199982
 21
-19.59615384644
 31
0.0
  0
ARC
  5
1634
  8
247
  6
CONTINUOUS
 10
6.5832851359733828
 20
-18.458791209122861
 30
0.0
 40
2.2526500823422122
 50
202.35948814152709
 51
254.9932485428466
  0
ARC
  5
1635
  8
247
  6
CONTINUOUS
 10
5.3083126551945163
 20
-19.124069479213219
 30
0.0
 40
0.8906723995727782
 50
94.994589319075175
 51
155.16632895730359
1001
GENIUS_GENOBJ-N-FIL_13
1002
{
1000
OWNER
1000
GEN
1002
}
1001
GENIUS_GENODEF_13
1002
{
1000
HIER
1070
     0
1002
}
1002
{
1000
MANEDIT
1070
     0
1002
}
1002
{
1000
NOSEL
1070
     0
1002
}
1002
{
1000
BEHIND
1070
     0
1002
}
1002
{
1000
OTHER
1070
     0
1002
}
1002
{
1000
REACTOR
1002
}
  0
ARC
  5
1636
  8
247
  6
CONTINUOUS
 10
6.1601458886677589
 20
-19.97645888621259
 30
0.0
 40
1.392781735586712
 50
15.84609655577945
 51
82.325137004170529
  0
ARC
  5
1637
  8
247
  6
CONTINUOUS
 10
6.4592434315272866
 20
-19.392212725840359
 30
0.0
 40
1.324563662670287
 50
249.71360167049801
 51
321.78874565640751
1001
GENIUS_GENOBJ-N-FIL_13
1002
{
1000
OWNER
1000
GEN
1002
}
1001
GENIUS_GENODEF_13
1002
{
1000
HIER
1070
     0
1002
}
1002
{
1000
MANEDIT
1070
     0
1002
}
1002
{
1000
NOSEL
1070
     0
1002
}
1002
{
1000
BEHIND
1070
     0
1002
}
1002
{
1000
OTHER
1070
     0
1002
}
1002
{
1000
REACTOR
1002
}
  0
LINE
  5
1638
  8
247
  6
CONTINUOUS
 10
6.3461538462200009
 20
-19.28846153876
 30
0.0
 11
6.3461538462200009
 21
-18.59615384648
 31
0.0
  0
LINE
  5
1639
  8
247
  6
CONTINUOUS
 10
4.5000000001400009
 20
-25.00000000007001
 30
0.0
 11
4.5000000001400009
 21
-24.326923077020009
 31
0.0
  0
VIEWPORT
  5
22
 67
     1
  8
0
 10
261.51769911504419
 20
148.5
 30
0.0
 40
523.0353982300885
 41
297.0
 68
     1
 69
     1
1001
ACAD
1000
MVIEW
1002
{
1070
    16
1010
0.0
1020
0.0
1030
0.0
1010
0.0
1020
0.0
1030
1.0
1040
0.0
1040
297.0
1040
261.51769911504419
1040
148.5
1040
50.0
1040
0.0
1040
0.0
1070
     0
1070
   100
1070
     1
1070
     1
1070
     0
1070
     0
1070
     0
1070
     0
1040
0.0
1040
0.0
1040
0.0
1040
1.0
1040
1.0
1040
10.0
1040
10.0
1070
     0
1002
{
1002
}
1002
}
1001
GENIUS_GENODEF_13
1002
{
1000
HIER
1070
     0
1002
}
1002
{
1000
MANEDIT
1070
     0
1002
}
1002
{
1000
NOSEL
1070
     0
1002
}
1002
{
1000
BEHIND
1070
     0
1002
}
1002
{
1000
OTHER
1070
     0
1002
}
1002
{
1000
REACTOR
1002
}
1001
GENIUS_GENOBJ-N-SDF_13
1002
{
1000
OWNER
1000
GEN
1002
}
1001
GENIUS_GENSCREG_15
1000
PF
1040
1.0
1000
DF
1040
1.0
1000
MIN
1011
0.0
1021
0.0
1031
0.0
1021
0.0
1031
0.0
1000
MAX
1011
523.0353982300885
1021
0.0
1031
0.0
1021
297.0
1031
0.0
1000
FLAGS
1070
     4
  0
ENDSEC
  0
EOF
