  0
SECTION
  2
HEADER
  9
$ACADVER
  1
AC1009
  9
$INSBASE
 10
0.0
 20
0.0
 30
0.0
  9
$EXTMIN
 10
-37.710252449685299
 20
-28.593714274512539
 30
-0.0000000349181948
  9
$EXTMAX
 10
64.005748271784228
 20
61.018179270826117
 30
0.0000000814935747
  9
$LIMMIN
 10
0.0
 20
0.0
  9
$LIMMAX
 10
297.0
 20
210.0
  9
$ORTHOMODE
 70
     1
  9
$REGENMODE
 70
     1
  9
$FILLMODE
 70
     1
  9
$QTEXTMODE
 70
     0
  9
$MIRRTEXT
 70
     1
  9
$DRAGMODE
 70
     2
  9
$LTSCALE
 40
10.0
  9
$OSMODE
 70
  3071
  9
$ATTMODE
 70
     1
  9
$TEXTSIZE
 40
3.0
  9
$TRACEWID
 40
1.0
  9
$TEXTSTYLE
  7
YOKO
  9
$CLAYER
  8
240
  9
$CELTYPE
  6
BYLAYER
  9
$CECOLOR
 62
   256
  9
$DIMSCALE
 40
1.0
  9
$DIMASZ
 40
2.2299999999999991
  9
$DIMEXO
 40
0.5
  9
$DIMDLI
 40
2.5
  9
$DIMRND
 40
0.0
  9
$DIMDLE
 40
0.0
  9
$DIMEXE
 40
1.0
  9
$DIMTP
 40
0.0
  9
$DIMTM
 40
0.0
  9
$DIMTXT
 40
3.0
  9
$DIMCEN
 40
0.0
  9
$DIMTSZ
 40
0.0
  9
$DIMTOL
 70
     0
  9
$DIMLIM
 70
     0
  9
$DIMTIH
 70
     0
  9
$DIMTOH
 70
     0
  9
$DIMSE1
 70
     0
  9
$DIMSE2
 70
     0
  9
$DIMTAD
 70
     3
  9
$DIMZIN
 70
     8
  9
$DIMBLK
  1
OPEN
  9
$DIMASO
 70
     1
  9
$DIMSHO
 70
     1
  9
$DIMPOST
  1

  9
$DIMAPOST
  1

  9
$DIMALT
 70
     0
  9
$DIMALTD
 70
     2
  9
$DIMALTF
 40
25.399999999999999
  9
$DIMLFAC
 40
1.0
  9
$DIMTOFL
 70
     1
  9
$DIMTVP
 40
0.0
  9
$DIMTIX
 70
     0
  9
$DIMSOXD
 70
     0
  9
$DIMSAH
 70
     0
  9
$DIMBLK1
  1

  9
$DIMBLK2
  1

  9
$DIMSTYLE
  2
BIGT
  9
$DIMCLRD
 70
   256
  9
$DIMCLRE
 70
   256
  9
$DIMCLRT
 70
    40
  9
$DIMTFAC
 40
1.0
  9
$DIMGAP
 40
1.0
  9
$LUNITS
 70
     2
  9
$LUPREC
 70
     2
  9
$SKETCHINC
 40
1.0
  9
$FILLETRAD
 40
0.0
  9
$AUNITS
 70
     0
  9
$AUPREC
 70
     3
  9
$MENU
  1
.
  9
$ELEVATION
 40
0.0
  9
$PELEVATION
 40
0.0
  9
$THICKNESS
 40
0.0
  9
$LIMCHECK
 70
     0
  9
$BLIPMODE
 70
     0
  9
$CHAMFERA
 40
10.0
  9
$CHAMFERB
 40
10.0
  9
$SKPOLY
 70
     0
  9
$TDCREATE
 40
2452418.3883637148
  9
$TDUPDATE
 40
2457367.7030539699
  9
$TDINDWG
 40
0.0290772685
  9
$TDUSRTIMER
 40
0.0290768634
  9
$USRTIMER
 70
     1
  9
$ANGBASE
 50
0.0
  9
$ANGDIR
 70
     0
  9
$PDMODE
 70
    35
  9
$PDSIZE
 40
-5.0
  9
$PLINEWID
 40
0.0
  9
$COORDS
 70
     1
  9
$SPLFRAME
 70
     0
  9
$SPLINETYPE
 70
     6
  9
$SPLINESEGS
 70
     8
  9
$ATTDIA
 70
     1
  9
$ATTREQ
 70
     1
  9
$HANDLING
 70
     1
  9
$HANDSEED
  5
17B1
  9
$SURFTAB1
 70
     6
  9
$SURFTAB2
 70
     6
  9
$SURFTYPE
 70
     6
  9
$SURFU
 70
     6
  9
$SURFV
 70
     6
  9
$UCSNAME
  2

  9
$UCSORG
 10
0.0
 20
0.0
 30
0.0
  9
$UCSXDIR
 10
1.0
 20
0.0
 30
0.0
  9
$UCSYDIR
 10
0.0
 20
1.0
 30
0.0
  9
$PUCSNAME
  2

  9
$PUCSORG
 10
0.0
 20
0.0
 30
0.0
  9
$PUCSXDIR
 10
1.0
 20
0.0
 30
0.0
  9
$PUCSYDIR
 10
0.0
 20
1.0
 30
0.0
  9
$USERI1
 70
     1
  9
$USERI2
 70
     0
  9
$USERI3
 70
     0
  9
$USERI4
 70
     0
  9
$USERI5
 70
     0
  9
$USERR1
 40
0.0
  9
$USERR2
 40
0.0
  9
$USERR3
 40
0.0
  9
$USERR4
 40
0.0
  9
$USERR5
 40
0.0
  9
$WORLDVIEW
 70
     1
  9
$SHADEDGE
 70
     3
  9
$SHADEDIF
 70
    70
  9
$TILEMODE
 70
     1
  9
$MAXACTVP
 70
    16
  9
$PLIMCHECK
 70
     0
  9
$PEXTMIN
 10
1.0000000000000000E+020
 20
1.0000000000000000E+020
 30
1.0000000000000000E+020
  9
$PEXTMAX
 10
-1.0000000000000000E+020
 20
-1.0000000000000000E+020
 30
-1.0000000000000000E+020
  9
$PLIMMIN
 10
0.0
 20
0.0
  9
$PLIMMAX
 10
420.0
 20
297.0
  9
$UNITMODE
 70
     0
  9
$VISRETAIN
 70
     0
  9
$PLINEGEN
 70
     0
  9
$PSLTSCALE
 70
     1
  0
ENDSEC
  0
SECTION
  2
TABLES
  0
TABLE
  2
VPORT
 70
     1
  0
VPORT
  2
*ACTIVE
 70
     0
 10
0.0
 20
0.0
 11
1.0
 21
1.0
 12
13.147747911049461
 22
16.212232498156791
 13
0.0
 23
0.0
 14
7.0
 24
7.0
 15
7.0
 25
7.0
 16
0.0
 26
0.0
 36
1.0
 17
0.0
 27
0.0
 37
0.0
 40
90.185715702512667
 41
1.3814102564102559
 42
50.0
 43
0.0
 44
0.0
 50
0.0
 51
0.0
 71
     0
 72
  2000
 73
     1
 74
     0
 75
     0
 76
     0
 77
     0
 78
     0
  0
ENDTAB
  0
TABLE
  2
LTYPE
 70
    19
  0
LTYPE
  2
CONTINUOUS
 70
     0
  3
Solid line
 72
    65
 73
     0
 40
0.0
  0
LTYPE
  2
CENTER2
 70
     0
  3
___ _ ___ _ ___ _ ___ _ ___ _ ___ _ ___ _ ___ _
 72
    65
 73
     4
 40
1.125
 49
0.75
 49
-0.125
 49
0.125
 49
-0.125
  0
LTYPE
  2
HIDDEN2
 70
     0
  3
_ _ _ _ _ _ _ _ _ _ _ _ _ _ _ _ _ _ _ _ _ _ _ _
 72
    65
 73
     2
 40
0.1875
 49
0.125
 49
-0.0625
  0
LTYPE
  2
HIDDEN
 70
     0
  3
Hidden __ __ __ __ __ __ __ __ __ __ __ __ __ _
 72
    65
 73
     2
 40
9.5249999999999986
 49
6.349999999999997
 49
-3.174999999999998
  0
LTYPE
  2
PHANTOM2
 70
     0
  3
Phantom (.5x) ___ _ _ ___ _ _ ___ _ _ ___ _ _
 72
    65
 73
     6
 40
31.75
 49
15.875
 49
-3.174999999999998
 49
3.174999999999998
 49
-3.174999999999998
 49
3.174999999999998
 49
-3.174999999999998
  0
LTYPE
  2
CENTER
 70
     0
  3
Center ____ _ ____ _ ____ _ ____ _ ____ _ ____
 72
    65
 73
     4
 40
50.799999999999997
 49
31.75
 49
-6.349999999999997
 49
6.349999999999997
 49
-6.349999999999997
  0
LTYPE
  2
AMCONSTR
 70
     0
  3
_______________________
 72
    65
 73
     2
 40
9999.0
 49
9999.0
 49
0.0
  0
LTYPE
  2
AMZIGZAG2
 70
     0
  3
/\/-/\/-/\/-/\/-/\/-/\/
 72
    65
 73
     2
 40
0.4401
 49
0.0001
 49
-0.4400000000000003
  0
LTYPE
  2
ACANSTGB
 70
     0
  3
__ . . __ . .
 72
    65
 73
     6
 40
0.35433070866
 49
0.15748031496
 49
-0.03937007874
 49
0.03937007874
 49
-0.03937007874
 49
0.03937007874
 49
-0.03937007874
  0
LTYPE
  2
ACANSTGL
 70
     0
  3
_ _ _ _ _
 72
    65
 73
     2
 40
0.11811023622
 49
0.07874015748
 49
-0.03937007874
  0
ENDTAB
  0
TABLE
  2
LAYER
 70
     9
  0
LAYER
  2
0
 70
     0
 62
     7
  6
CONTINUOUS
  0
LAYER
  2
240
 70
     0
 62
     4
  6
CONTINUOUS
  0
LAYER
  2
241
 70
     0
 62
   211
  6
CONTINUOUS
  0
LAYER
  2
245
 70
     0
 62
     2
  6
CENTER2
  0
LAYER
  2
250
 70
     0
 62
     3
  6
CONTINUOUS
  0
LAYER
  2
DEFPOINTS
 70
     0
 62
     7
  6
CONTINUOUS
  0
LAYER
  2
242
 70
     0
 62
     3
  6
CONTINUOUS
  0
LAYER
  2
243
 70
     0
 62
   211
  6
HIDDEN2
  0
LAYER
  2
247
 70
     0
 62
    60
  6
CONTINUOUS
  0
ENDTAB
  0
TABLE
  2
STYLE
 70
     8
  0
STYLE
  2
STANDARD
 70
     0
 40
0.0
 41
1.0
 50
0.0
 71
     0
 42
3.0
  3
romans.shx
  4
BIGFONT.SHX
  0
STYLE
  2
YOKO
 70
     0
 40
0.0
 41
1.0
 50
0.0
 71
     0
 42
3.0
  3
romans.shx
  4
extfont.shx
  0
STYLE
  2
ACANSGDT
 70
     0
 40
0.0
 41
1.0
 50
0.0
 71
     0
 42
3.0
  3
amgdt.shx
  4

  0
ENDTAB
  0
TABLE
  2
VIEW
 70
     0
  0
ENDTAB
  0
TABLE
  2
UCS
 70
     0
  0
ENDTAB
  0
TABLE
  2
APPID
 70
    28
  0
APPID
  2
ACAD
 70
     0
  0
APPID
  2
ACADANNOTATIVE
 70
     0
  0
APPID
  2
GLOBAL
 70
     0
  0
APPID
  2
DETAIL
 70
     0
  0
APPID
  2
GRPNAME
 70
     0
  0
APPID
  2
GPARA
 70
     0
  0
APPID
  2
ITEMNAME
 70
     0
  0
APPID
  2
HATCH_TYPE
 70
     0
  0
APPID
  2
HATCH_DISPLAY
 70
     0
  0
APPID
  2
HATCH_DISTANCE
 70
     0
  0
APPID
  2
MCAD_NO_VIS
 70
     0
  0
APPID
  2
ACAD_TEMP_GRAPHIC
 70
     0
  0
APPID
  2
AD_DRAW
 70
     0
  0
APPID
  2
ACATTRIBSERVICES
 70
     0
  0
APPID
  2
DESIGNERASSEMBLIES
 70
     0
  0
APPID
  2
ACADM_DIM_EDIT
 70
     0
  0
APPID
  2
AMDT_DM_ADJ
 70
     0
  0
APPID
  2
GENIUS_GENSCREG_15
 70
     0
  0
APPID
  2
GENIUS_GENOBJ-N-SDF_13
 70
     0
  0
APPID
  2
GENIUS_GENODEF_13
 70
     0
  0
APPID
  2
GENIUS_GENDIMSH_14
 70
     0
  0
APPID
  2
ACAD_DSTYLE_DIMBREAK
 70
     0
  0
APPID
  2
ACAD_DSTYLE_DIMJAG
 70
     0
  0
APPID
  2
ACAD_NAV_VCDISPLAY
 70
     0
  0
APPID
  2
ACAECLAYERSTANDARD
 70
     0
  0
APPID
  2
ACAD_MLEADERVER
 70
     0
  0
APPID
  2
ACAD_EXEMPT_FROM_CAD_STANDARDS
 70
     0
  0
APPID
  2
GENIUS_GENOBJ-N-FIL_13
 70
     0
  0
ENDTAB
  0
TABLE
  2
DIMSTYLE
 70
    18
  0
DIMSTYLE
  2
STANDARD
 70
     0
  3

  4

  5

  6

  7

 40
1.0
 41
0.18
 42
0.0625
 43
0.38
 44
0.18
 45
0.0
 46
0.0
 47
0.0
 48
0.0
140
0.18
141
0.09
142
0.0
143
25.399999999999999
144
1.0
145
0.0
146
1.0
147
0.09
 71
     0
 72
     0
 73
     1
 74
     1
 75
     0
 76
     0
 77
     0
 78
     0
170
     0
171
     2
172
     0
173
     0
174
     0
175
     0
176
     0
177
     0
178
     0
  0
DIMSTYLE
  2
BIGT
 70
     0
  3

  4

  5

  6

  7

 40
1.0
 41
2.2299999999999991
 42
0.5
 43
2.5
 44
1.0
 45
0.0
 46
0.0
 47
0.0
 48
0.0
140
3.5
141
0.0
142
0.0
143
25.399999999999999
144
1.0
145
0.0
146
1.0
147
1.0
 71
     0
 72
     0
 73
     0
 74
     0
 75
     0
 76
     0
 77
     3
 78
     9
170
     0
171
     2
172
     1
173
     0
174
     0
175
     0
176
   256
177
   256
178
    40
  0
DIMSTYLE
  2
AM_ANSI
 70
     0
  3

  4
mm
  5

  6

  7

 40
1.0
 41
0.1
 42
0.05
 43
0.5
 44
0.1
 45
0.0
 46
0.0
 47
0.1
 48
0.1
140
0.12
141
0.0
142
0.0
143
25.399999999999999
144
1.0
145
0.0
146
0.71
147
0.06
 71
     0
 72
     0
 73
     1
 74
     1
 75
     0
 76
     0
 77
     0
 78
     7
170
     0
171
     2
172
     0
173
     0
174
     0
175
     0
176
   256
177
   256
178
     2
  0
DIMSTYLE
  2
AM_ANSI$3
 70
     0
  3

  4
mm
  5

  6

  7

 40
1.0
 41
0.1
 42
0.05
 43
0.5
 44
0.1
 45
0.0
 46
0.0
 47
0.1
 48
0.1
140
0.12
141
0.0
142
0.0
143
25.399999999999999
144
1.0
145
0.0
146
0.71
147
0.06
 71
     0
 72
     0
 73
     1
 74
     1
 75
     0
 76
     0
 77
     0
 78
     7
170
     0
171
     2
172
     0
173
     0
174
     0
175
     0
176
   256
177
   256
178
     2
  0
DIMSTYLE
  2
AM_ANSI$4
 70
     0
  3

  4
mm
  5

  6

  7

 40
1.0
 41
0.1
 42
0.05
 43
0.5
 44
0.1
 45
0.0
 46
0.0
 47
0.1
 48
0.1
140
0.12
141
0.0
142
0.0
143
25.399999999999999
144
1.0
145
0.0
146
0.71
147
0.06
 71
     0
 72
     0
 73
     1
 74
     1
 75
     0
 76
     0
 77
     0
 78
     7
170
     0
171
     2
172
     0
173
     0
174
     0
175
     0
176
   256
177
   256
178
     2
  0
DIMSTYLE
  2
AM_ANSI$7
 70
     0
  3

  4
mm
  5

  6

  7

 40
1.0
 41
0.1
 42
0.05
 43
0.5
 44
0.1
 45
0.0
 46
0.0
 47
0.1
 48
0.1
140
0.24
141
0.0
142
0.0
143
25.399999999999999
144
1.0
145
0.0
146
0.71
147
0.06
 71
     0
 72
     0
 73
     1
 74
     1
 75
     0
 76
     0
 77
     0
 78
     7
170
     0
171
     2
172
     0
173
     0
174
     0
175
     0
176
   256
177
   256
178
     2
  0
DIMSTYLE
  2
AM_ANSI$SF
 70
     0
  3

  4
mm
  5

  6

  7

 40
1.0
 41
0.1
 42
0.05
 43
0.5
 44
0.1
 45
0.0
 46
0.0
 47
0.1
 48
0.1
140
0.12
141
0.0
142
0.0
143
25.399999999999999
144
1.0
145
0.0
146
0.71
147
0.06
 71
     0
 72
     0
 73
     1
 74
     1
 75
     1
 76
     1
 77
     0
 78
     7
170
     0
171
     2
172
     0
173
     0
174
     0
175
     0
176
   256
177
   256
178
     2
  0
DIMSTYLE
  2
AM_ANSI$SH
 70
     0
  3

  4
mm
  5

  6

  7

 40
1.0
 41
0.1
 42
0.05
 43
0.5
 44
0.1
 45
0.0
 46
0.0
 47
0.1
 48
0.1
140
0.12
141
0.0
142
0.0
143
25.399999999999999
144
1.0
145
0.0
146
0.71
147
0.06
 71
     0
 72
     0
 73
     1
 74
     1
 75
     1
 76
     1
 77
     0
 78
     7
170
     0
171
     2
172
     0
173
     1
174
     0
175
     0
176
   256
177
   256
178
     2
  0
ENDTAB
  0
ENDSEC
  0
SECTION
  2
BLOCKS
  0
BLOCK
  8
0
  2
$MODEL_SPACE
 70
     0
 10
0.0
 20
0.0
 30
0.0
  3
$MODEL_SPACE
  1

  0
ENDBLK
  5
164D
  8
0
  0
BLOCK
 67
     1
  8
0
  2
$PAPER_SPACE
 70
     0
 10
0.0
 20
0.0
 30
0.0
  3
$PAPER_SPACE
  1

  0
ENDBLK
  5
1649
 67
     1
  8
0
  0
BLOCK
  8
0
  2
_OPEN
 70
     0
 10
0.0
 20
0.0
 30
0.0
  3
_OPEN
  1

  0
LINE
  5
595
  8
0
  6
BYBLOCK
 62
     0
 10
-1.0
 20
0.1666666666666666
 30
0.0
 11
0.0
 21
0.0
 31
0.0
  0
LINE
  5
596
  8
0
  6
BYBLOCK
 62
     0
 10
-1.0
 20
-0.1666666666666666
 30
0.0
 11
0.0
 21
0.0
 31
0.0
  0
LINE
  5
597
  8
0
  6
BYBLOCK
 62
     0
 10
0.0
 20
0.0
 30
0.0
 11
-1.0
 21
0.0
 31
0.0
  0
ENDBLK
  5
599
  8
0
  0
BLOCK
  8
0
  2
_ACMFILLEDHALF
 70
     0
 10
0.0
 20
0.0
 30
0.0
  3
_ACMFILLEDHALF
  1

  0
TRACE
  5
12D2
  8
240
 62
     0
 10
-0.8
 20
0.0
 30
0.0
 11
-1.0
 21
0.166666666
 31
0.0
 12
0.0
 22
0.0
 32
0.0
 13
0.0
 23
0.0
 33
0.0
  0
LINE
  5
12D3
  8
240
 62
     0
 10
-1.0
 20
0.0
 30
0.0
 11
-0.8
 21
0.0
 31
0.0
  0
ENDBLK
  5
12D1
  8
0
  0
ENDSEC
  0
SECTION
  2
ENTITIES
  0
LINE
  5
73C
  8
250
  6
CONTINUOUS
 10
-26.781399339742361
 20
-28.579153447397442
 30
0.0
 11
-37.701286758912772
 21
-28.579153447397442
 31
0.0
1001
ITEMNAME
1000
LNSP2
  0
TEXT
  5
7FB
  8
241
  6
CONTINUOUS
 10
-28.0
 20
56.0
 30
0.0
 40
5.0
  1
EWB2-32CK5
  7
YOKO
 11
-28.0
 21
56.0
 31
0.0
 73
     1
  0
TEXT
  5
991
  8
250
  6
CONTINUOUS
 10
-36.515043803641227
 20
-27.579153447397442
 30
0.0
 40
3.0
  1
CK5
  7
YOKO
1001
ITEMNAME
1000
LNSP3
1001
ACAD
1000
MTEXTBEGIN
1070
    73
1070
     1
1070
    44
1040
1.0
1070
    74
1070
     0
1000
MTEXTEND
  0
LINE
  5
994
  8
250
  6
CONTINUOUS
 10
-19.479121172330551
 20
-15.931236650439271
 30
0.0
 11
-26.464154289997289
 21
-28.029668902789279
 31
0.0
1001
ACAD
1000
DSTYLE
1002
{
1070
     6
1000
OPEN
1070
    78
1070
     8
1070
   140
1040
3.0
1070
   173
1070
     1
1002
}
  0
LINE
  5
995
  8
250
  6
CONTINUOUS
 10
-26.464154289997289
 20
-28.029668902789279
 30
0.0
 11
-26.781399339742361
 21
-28.579153447397442
 31
0.0
1001
ACAD
1000
DSTYLE
1002
{
1070
     6
1000
OPEN
1070
    78
1070
     8
1070
   140
1040
3.0
1070
   173
1070
     1
1002
}
  0
LINE
  5
996
  8
250
  6
CONTINUOUS
 10
-19.800993947403761
 20
-15.745403317105939
 30
0.0
 11
-18.364121172330542
 21
-13.99999999999998
 31
0.0
  0
LINE
  5
997
  8
250
  6
CONTINUOUS
 10
-19.157248397257341
 20
-16.117069983772598
 30
0.0
 11
-18.364121172330542
 21
-13.99999999999998
 31
0.0
  0
LINE
  5
998
  8
250
  6
CONTINUOUS
 10
-18.364121172330542
 20
-13.99999999999998
 30
0.0
 11
-19.479121172330551
 21
-15.931236650439271
 31
0.0
  0
LINE
  5
F1E
  8
250
  6
CONTINUOUS
 10
49.499999999997613
 20
5.9999999999999982
 30
0.0
 11
64.0
 21
5.999999999999992
 31
0.0
  0
LINE
  5
F1F
  8
250
  6
CONTINUOUS
 10
49.500000000000007
 20
-6.0
 30
0.0
 11
64.0
 21
-6.0000000000000044
 31
0.0
  0
LINE
  5
F20
  8
250
  6
CONTINUOUS
 10
63.0
 20
3.769999999999992
 30
0.0
 11
63.0
 21
-3.770000000000004
 31
0.0
  0
LINE
  5
F24
  8
250
  6
CONTINUOUS
 10
0.0
 20
25.274249912592751
 30
0.0
 11
0.0000000000000012
 21
43.0
 31
0.0
  0
LINE
  5
F25
  8
250
  6
CONTINUOUS
 10
49.000000000000021
 20
20.849999999999941
 30
0.0
 11
49.000000000000021
 21
43.0
 31
0.0
  0
LINE
  5
F26
  8
250
  6
CONTINUOUS
 10
2.2299999999999991
 20
42.0
 30
0.0
 11
46.770000000000032
 21
42.0
 31
0.0
  0
TEXT
  5
F2A
  8
250
  6
CONTINUOUS
 10
21.71428571428573
 20
43.0
 30
0.0
 40
3.0
  1
49
  0
LINE
  5
F2B
  8
250
  6
CONTINUOUS
 10
46.770000000000032
 20
42.371666666666663
 30
0.0
 11
49.000000000000021
 21
42.0
 31
0.0
  0
LINE
  5
F2C
  8
250
  6
CONTINUOUS
 10
46.770000000000032
 20
41.62833333333333
 30
0.0
 11
49.000000000000021
 21
42.0
 31
0.0
  0
LINE
  5
F2D
  8
250
  6
CONTINUOUS
 10
49.000000000000021
 20
42.0
 30
0.0
 11
46.770000000000032
 21
42.0
 31
0.0
  0
LINE
  5
F2E
  8
250
  6
CONTINUOUS
 10
2.2299999999999991
 20
41.62833333333333
 30
0.0
 11
0.0000000000000011
 21
42.0
 31
0.0
  0
LINE
  5
F2F
  8
250
  6
CONTINUOUS
 10
2.2299999999999991
 20
42.371666666666663
 30
0.0
 11
0.0000000000000011
 21
42.0
 31
0.0
  0
LINE
  5
F30
  8
250
  6
CONTINUOUS
 10
0.0000000000000011
 20
42.0
 30
0.0
 11
2.2299999999999991
 21
42.0
 31
0.0
  0
TEXT
  5
F31
  8
250
  6
CONTINUOUS
 10
62.0
 20
-4.0714285714285641
 30
0.0
 40
3.0
  1
\U+220512
 50
90.0
  0
LINE
  5
F32
  8
250
  6
CONTINUOUS
 10
63.37166666666667
 20
-3.770000000000004
 30
0.0
 11
63.0
 21
-6.0000000000000044
 31
0.0
  0
LINE
  5
F33
  8
250
  6
CONTINUOUS
 10
62.62833333333333
 20
-3.770000000000004
 30
0.0
 11
63.0
 21
-6.0000000000000044
 31
0.0
  0
LINE
  5
F34
  8
250
  6
CONTINUOUS
 10
63.0
 20
-6.0000000000000044
 30
0.0
 11
63.0
 21
-3.770000000000004
 31
0.0
  0
LINE
  5
F35
  8
250
  6
CONTINUOUS
 10
62.62833333333333
 20
3.7699999999999911
 30
0.0
 11
63.0
 21
5.999999999999992
 31
0.0
  0
LINE
  5
F36
  8
250
  6
CONTINUOUS
 10
63.37166666666667
 20
3.7699999999999911
 30
0.0
 11
63.0
 21
5.999999999999992
 31
0.0
  0
LINE
  5
F37
  8
250
  6
CONTINUOUS
 10
63.0
 20
5.999999999999992
 30
0.0
 11
63.0
 21
3.7699999999999911
 31
0.0
  0
LINE
  5
1390
  8
240
  6
CONTINUOUS
 10
18.99999999999995
 20
-20.650000000000009
 30
0.0
 11
16.687063972272359
 21
-25.0
 31
0.0
  0
LINE
  5
1391
  8
240
  6
CONTINUOUS
 10
18.99999999999995
 20
20.650000000000009
 30
0.0
 11
16.687063972272359
 21
25.0
 31
0.0
  0
LINE
  5
1393
  8
241
  6
CONTINUOUS
 10
0.0
 20
-14.0
 30
0.0
 11
0.0
 21
14.0
 31
0.0
  0
LINE
  5
1394
  8
241
  6
CONTINUOUS
 10
15.99999999999997
 20
-25.0
 30
0.0
 11
15.99999999999997
 21
25.0
 31
0.0
  0
LINE
  5
1395
  8
240
  6
CONTINUOUS
 10
0.0
 20
-25.0
 30
0.0
 11
0.0
 21
-14.0
 31
0.0
  0
LINE
  5
1396
  8
240
  6
CONTINUOUS
 10
0.0
 20
-25.0
 30
0.0
 11
15.99999999999997
 21
-25.0
 31
0.0
  0
LINE
  5
139C
  8
240
  6
CONTINUOUS
 10
15.99999999999997
 20
-25.0
 30
0.0
 11
16.687063972272359
 21
-25.0
 31
0.0
  0
LINE
  5
139D
  8
240
  6
CONTINUOUS
 10
0.0
 20
14.0
 30
0.0
 11
0.0
 21
25.0
 31
0.0
  0
LINE
  5
13A4
  8
240
  6
CONTINUOUS
 10
0.0
 20
25.0
 30
0.0
 11
16.687063972272359
 21
25.0
 31
0.0
  0
LINE
  5
13A5
  8
240
  6
CONTINUOUS
 10
49.0
 20
-20.650000000000009
 30
0.0
 11
49.000000000000021
 21
20.650000000000009
 31
0.0
  0
LINE
  5
13A7
  8
240
  6
CONTINUOUS
 10
27.550000000000072
 20
-22.914170676043032
 30
0.0
 11
19.100000000000051
 21
-20.650000000000009
 31
0.0
  0
LINE
  5
13A8
  8
240
  6
CONTINUOUS
 10
35.549999999999962
 20
-22.914170676043138
 30
0.0
 11
44.0
 21
-20.650000000000119
 31
0.0
  0
LINE
  5
13A9
  8
240
  6
CONTINUOUS
 10
35.549999999999962
 20
-22.914170676043138
 30
0.0
 11
27.550000000000072
 21
-22.914170676043032
 31
0.0
  0
LINE
  5
13AA
  8
241
  6
CONTINUOUS
 10
19.100000000000051
 20
-20.650000000000009
 30
0.0
 11
44.000000000000412
 21
-20.650000000000009
 31
0.0
  0
LINE
  5
13AD
  8
240
  6
CONTINUOUS
 10
44.000000000000412
 20
-20.650000000000009
 30
0.0
 11
49.0
 21
-20.650000000000009
 31
0.0
  0
CIRCLE
  5
13AE
  8
241
  6
CONTINUOUS
 10
31.550000000000011
 20
0.0
 30
0.0
 40
4.25
1001
GRPNAME
1000
PASTMD0C
  0
CIRCLE
  5
13AF
  8
242
  6
CONTINUOUS
 10
31.550000000000011
 20
0.0
 30
0.0
 40
3.375
1001
GRPNAME
1000
PASTMD0C
  0
LINE
  5
13B0
  8
241
  6
CONTINUOUS
 10
31.550000000000011
 20
2.30940107675849
 30
0.0
 11
29.550000000000011
 21
1.154700538379245
 31
0.0
1001
GRPNAME
1000
PASTMD0C
  0
LINE
  5
13B1
  8
241
  6
CONTINUOUS
 10
29.550000000000011
 20
1.154700538379245
 30
0.0
 11
29.550000000000011
 21
-1.154700538379245
 31
0.0
1001
GRPNAME
1000
PASTMD0C
  0
LINE
  5
13B2
  8
241
  6
CONTINUOUS
 10
29.550000000000011
 20
-1.154700538379245
 30
0.0
 11
31.550000000000011
 21
-2.30940107675849
 31
0.0
1001
GRPNAME
1000
PASTMD0C
  0
LINE
  5
13B3
  8
241
  6
CONTINUOUS
 10
31.550000000000011
 20
-2.30940107675849
 30
0.0
 11
33.549999999999791
 21
-1.1547005383793021
 31
0.0
1001
GRPNAME
1000
PASTMD0C
  0
LINE
  5
13B4
  8
241
  6
CONTINUOUS
 10
33.549999999999791
 20
-1.1547005383793021
 30
0.0
 11
33.549999999999791
 21
1.1547005383793021
 31
0.0
1001
GRPNAME
1000
PASTMD0C
  0
LINE
  5
13B5
  8
241
  6
CONTINUOUS
 10
33.549999999999791
 20
1.1547005383793021
 30
0.0
 11
31.550000000000011
 21
2.30940107675849
 31
0.0
1001
GRPNAME
1000
PASTMD0C
  0
LINE
  5
13B6
  8
240
  6
CONTINUOUS
 10
18.99999999999995
 20
20.650000000000009
 30
0.0
 11
49.000000000000021
 21
20.650000000000009
 31
0.0
  0
LINE
  5
13B9
  8
243
  6
HIDDEN2
 10
19.50000000000006
 20
5.999999999988324
 30
0.0
 11
48.999999999997598
 21
5.9999999999999982
 31
0.0
  0
LINE
  5
13BA
  8
243
  6
HIDDEN2
 10
19.50000000000006
 20
-6.0000000000116751
 30
0.0
 11
49.000000000002402
 21
-6.0
 31
0.0
  0
LINE
  5
13BE
  8
240
  6
CONTINUOUS
 10
-30.0
 20
14.0
 30
0.0
 11
0.0000000000000142
 21
14.0
 31
0.0
  0
LINE
  5
13C2
  8
240
  6
CONTINUOUS
 10
-30.0
 20
-13.99999999999998
 30
0.0
 11
-0.0000000000000142
 21
-13.99999999999995
 31
0.0
  0
LINE
  5
13C5
  8
240
  6
CONTINUOUS
 10
-30.0
 20
-13.99999999999998
 30
0.0
 11
-30.0
 21
14.0
 31
0.0
  0
LINE
  5
13C6
  8
245
  6
CENTER2
 10
-12.99999999999995
 20
7.956057999999997
 30
0.0
 11
-12.99999999999995
 21
-7.9273049999999872
 31
0.0
  0
CIRCLE
  5
13C7
  8
241
  6
CONTINUOUS
 10
-12.99999999999995
 20
0.0000000000000142
 30
0.0
 40
4.0
  0
CIRCLE
  5
13C8
  8
241
  6
CONTINUOUS
 10
-12.99999999999995
 20
0.0000000000000142
 30
0.0
 40
5.0819999999999981
  0
LINE
  5
13CB
  8
245
  6
CENTER2
 10
52.587347215599102
 20
0.000000000015234
 30
0.0
 11
-32.946361516173823
 21
-0.0000000000130456
 31
0.0
1001
GRPNAME
1000
PASTMD06
  0
LINE
  5
13EA
  8
245
  6
CENTER2
 10
31.550000000000011
 20
5.0163523795789331
 30
0.0
 11
31.550000000000011
 21
-5.0112976120259134
 31
0.0
  0
LINE
  5
1538
  8
240
  6
CONTINUOUS
 10
19.100000000000051
 20
-20.650000000000009
 30
0.0
 11
18.99999999999995
 21
-20.650000000000009
 31
0.0
  0
LINE
  5
173B
  8
247
  6
CONTINUOUS
 10
7.0
 20
-20.250000000069999
 30
0.0
 11
7.0
 21
-13.557692308029999
 31
0.0
  0
ARC
  5
173C
  8
247
  6
CONTINUOUS
 10
5.2500000000700018
 20
-20.250000000069999
 30
0.0
 40
1.7499999999299991
 50
180.0
 51
0.0
  0
ARC
  5
173D
  8
247
  6
CONTINUOUS
 10
5.2500000000700018
 20
-13.557692308029999
 30
0.0
 40
1.7499999999299991
 50
0.0
 51
180.0
  0
LINE
  5
173E
  8
247
  6
CONTINUOUS
 10
3.5000000001400009
 20
-19.38461538472
 30
0.0
 11
6.5000000000200009
 21
-20.24485154196201
 31
0.0
  0
LINE
  5
173F
  8
247
  6
CONTINUOUS
 10
4.92307692316
 20
-18.48498381833582
 30
0.0
 11
4.92307692316
 21
-19.792676125975831
 31
0.0
  0
ARC
  5
1740
  8
247
  6
CONTINUOUS
 10
4.0495986677029761
 20
-18.145143816089782
 30
0.0
 40
0.5538165441895349
 50
72.99788967529156
 51
172.92416621851231
  0
ARC
  5
1741
  8
247
  6
CONTINUOUS
 10
3.9360330444657761
 20
-18.566878323028781
 30
0.0
 40
0.9904354236226808
 50
4.7429368522014013
 51
73.849226273267703
1001
GENIUS_GENOBJ-N-FIL_13
1002
{
1000
OWNER
1000
GEN
1002
}
1001
GENIUS_GENODEF_13
1002
{
1000
HIER
1070
     0
1002
}
1002
{
1000
MANEDIT
1070
     0
1002
}
1002
{
1000
NOSEL
1070
     0
1002
}
1002
{
1000
BEHIND
1070
     0
1002
}
1002
{
1000
OTHER
1070
     0
1002
}
1002
{
1000
REACTOR
1002
}
  0
LINE
  5
1742
  8
247
  6
CONTINUOUS
 10
6.5000000000199982
 20
-18.93715923432201
 30
0.0
 11
6.5000000000199982
 21
-20.24485154196201
 31
0.0
  0
LINE
  5
1743
  8
247
  6
CONTINUOUS
 10
3.5000000001400009
 20
-19.38461538472
 30
0.0
 11
3.5000000001400009
 21
-18.07692307708
 31
0.0
  0
ARC
  5
1744
  8
247
  6
CONTINUOUS
 10
5.4820242326655553
 20
-18.56091963654697
 30
0.0
 40
0.5640818586791229
 50
65.990941652530594
 51
172.26344345906949
  0
ARC
  5
1745
  8
247
  6
CONTINUOUS
 10
5.4874290391865896
 20
-19.038262685347071
 30
0.0
 40
1.0176059446230981
 50
5.7019851642581338
 51
77.277338436820955
1001
GENIUS_GENOBJ-N-FIL_13
1002
{
1000
OWNER
1000
GEN
1002
}
1001
GENIUS_GENODEF_13
1002
{
1000
HIER
1070
     0
1002
}
1002
{
1000
MANEDIT
1070
     0
1002
}
1002
{
1000
NOSEL
1070
     0
1002
}
1002
{
1000
BEHIND
1070
     0
1002
}
1002
{
1000
OTHER
1070
     0
1002
}
1002
{
1000
REACTOR
1002
}
  0
LINE
  5
1746
  8
247
  6
CONTINUOUS
 10
6.5000000000200009
 20
-17.283313080542008
 30
0.0
 11
3.5000000001400009
 21
-16.423076923299998
 31
0.0
  0
LINE
  5
1747
  8
247
  6
CONTINUOUS
 10
3.5000000001400009
 20
-14.000000000319989
 30
0.0
 11
3.5000000001400009
 21
-14.56573661945659
 31
0.0
  0
LINE
  5
1748
  8
247
  6
CONTINUOUS
 10
6.5000000000199982
 20
-15.4615384618
 30
0.0
 11
6.5000000000199982
 21
-14.84615384644
 31
0.0
  0
ARC
  5
1749
  8
247
  6
CONTINUOUS
 10
5.5832851359733828
 20
-13.708791209122859
 30
0.0
 40
2.2526500823422122
 50
202.3594881415269
 51
254.9932485428466
  0
ARC
  5
174A
  8
247
  6
CONTINUOUS
 10
4.3083126551945163
 20
-14.374069479213221
 30
0.0
 40
0.8906723995727782
 50
94.994589319075175
 51
155.16632895730359
1001
GENIUS_GENOBJ-N-FIL_13
1002
{
1000
OWNER
1000
GEN
1002
}
1001
GENIUS_GENODEF_13
1002
{
1000
HIER
1070
     0
1002
}
1002
{
1000
MANEDIT
1070
     0
1002
}
1002
{
1000
NOSEL
1070
     0
1002
}
1002
{
1000
BEHIND
1070
     0
1002
}
1002
{
1000
OTHER
1070
     0
1002
}
1002
{
1000
REACTOR
1002
}
  0
ARC
  5
174B
  8
247
  6
CONTINUOUS
 10
5.1601458886677589
 20
-15.22645888621259
 30
0.0
 40
1.392781735586712
 50
15.84609655577923
 51
82.325137004170529
  0
ARC
  5
174C
  8
247
  6
CONTINUOUS
 10
5.4592434315272866
 20
-14.64221272584037
 30
0.0
 40
1.324563662670287
 50
249.71360167049809
 51
321.78874565640768
1001
GENIUS_GENOBJ-N-FIL_13
1002
{
1000
OWNER
1000
GEN
1002
}
1001
GENIUS_GENODEF_13
1002
{
1000
HIER
1070
     0
1002
}
1002
{
1000
MANEDIT
1070
     0
1002
}
1002
{
1000
NOSEL
1070
     0
1002
}
1002
{
1000
BEHIND
1070
     0
1002
}
1002
{
1000
OTHER
1070
     0
1002
}
1002
{
1000
REACTOR
1002
}
  0
LINE
  5
174D
  8
247
  6
CONTINUOUS
 10
5.3461538462200009
 20
-14.53846153876
 30
0.0
 11
5.3461538462200009
 21
-13.84615384648
 31
0.0
  0
LINE
  5
174E
  8
247
  6
CONTINUOUS
 10
3.5000000001400009
 20
-20.250000000069999
 30
0.0
 11
3.5000000001400009
 21
-19.576923077019998
 31
0.0
  0
VIEWPORT
  5
22
 67
     1
  8
0
 10
261.51769911504419
 20
148.5
 30
0.0
 40
523.0353982300885
 41
297.0
 68
     1
 69
     1
1001
ACAD
1000
MVIEW
1002
{
1070
    16
1010
0.0
1020
0.0
1030
0.0
1010
0.0
1020
0.0
1030
1.0
1040
0.0
1040
297.0
1040
261.51769911504419
1040
148.5
1040
50.0
1040
0.0
1040
0.0
1070
     0
1070
   100
1070
     1
1070
     1
1070
     0
1070
     0
1070
     0
1070
     0
1040
0.0
1040
0.0
1040
0.0
1040
1.0
1040
1.0
1040
10.0
1040
10.0
1070
     0
1002
{
1002
}
1002
}
1001
GENIUS_GENOBJ-N-SDF_13
1002
{
1000
OWNER
1000
GEN
1002
}
1001
GENIUS_GENODEF_13
1002
{
1000
HIER
1070
     0
1002
}
1002
{
1000
MANEDIT
1070
     0
1002
}
1002
{
1000
NOSEL
1070
     0
1002
}
1002
{
1000
BEHIND
1070
     0
1002
}
1002
{
1000
OTHER
1070
     0
1002
}
1002
{
1000
REACTOR
1002
}
1001
GENIUS_GENSCREG_15
1000
PF
1040
1.0
1000
DF
1040
1.0
1000
MIN
1011
0.0
1021
0.0
1031
0.0
1021
0.0
1031
0.0
1000
MAX
1011
523.0353982300885
1021
0.0
1031
0.0
1021
297.0
1031
0.0
1000
FLAGS
1070
     4
  0
ENDSEC
  0
EOF
