  0
SECTION
  2
HEADER
  9
$ACADVER
  1
AC1009
  9
$INSBASE
 10
0.0
 20
0.0
 30
0.0
  9
$EXTMIN
 10
-14.5
 20
-2.395711369999999
 30
0.0
  9
$EXTMAX
 10
41.821108255677359
 20
59.500000000000007
 30
0.0
  9
$LIMMIN
 10
0.0
 20
0.0
  9
$LIMMAX
 10
420.0
 20
297.0
  9
$ORTHOMODE
 70
     1
  9
$REGENMODE
 70
     1
  9
$FILLMODE
 70
     1
  9
$QTEXTMODE
 70
     0
  9
$MIRRTEXT
 70
     1
  9
$DRAGMODE
 70
     2
  9
$LTSCALE
 40
10.0
  9
$OSMODE
 70
    63
  9
$ATTMODE
 70
     1
  9
$TEXTSIZE
 40
3.0
  9
$TRACEWID
 40
1.0
  9
$TEXTSTYLE
  7
YOKO
  9
$CLAYER
  8
245
  9
$CELTYPE
  6
BYLAYER
  9
$CECOLOR
 62
   256
  9
$DIMSCALE
 40
1.0
  9
$DIMASZ
 40
2.2299999999999991
  9
$DIMEXO
 40
0.5
  9
$DIMDLI
 40
2.5
  9
$DIMRND
 40
0.0
  9
$DIMDLE
 40
0.0
  9
$DIMEXE
 40
1.0
  9
$DIMTP
 40
0.0
  9
$DIMTM
 40
0.0
  9
$DIMTXT
 40
2.799999999999998
  9
$DIMCEN
 40
0.0
  9
$DIMTSZ
 40
0.0
  9
$DIMTOL
 70
     0
  9
$DIMLIM
 70
     0
  9
$DIMTIH
 70
     0
  9
$DIMTOH
 70
     0
  9
$DIMSE1
 70
     0
  9
$DIMSE2
 70
     0
  9
$DIMTAD
 70
     3
  9
$DIMZIN
 70
     8
  9
$DIMBLK
  1

  9
$DIMASO
 70
     1
  9
$DIMSHO
 70
     1
  9
$DIMPOST
  1

  9
$DIMAPOST
  1

  9
$DIMALT
 70
     0
  9
$DIMALTD
 70
     2
  9
$DIMALTF
 40
25.399999999999999
  9
$DIMLFAC
 40
1.0
  9
$DIMTOFL
 70
     1
  9
$DIMTVP
 40
0.0
  9
$DIMTIX
 70
     1
  9
$DIMSOXD
 70
     0
  9
$DIMSAH
 70
     1
  9
$DIMBLK1
  1
OPEN
  9
$DIMBLK2
  1
OPEN
  9
$DIMSTYLE
  2
BIGT
  9
$DIMCLRD
 70
   256
  9
$DIMCLRE
 70
   256
  9
$DIMCLRT
 70
    40
  9
$DIMTFAC
 40
1.0
  9
$DIMGAP
 40
1.0
  9
$LUNITS
 70
     2
  9
$LUPREC
 70
     3
  9
$SKETCHINC
 40
1.0
  9
$FILLETRAD
 40
0.0
  9
$AUNITS
 70
     0
  9
$AUPREC
 70
     3
  9
$MENU
  1
.
  9
$ELEVATION
 40
0.0
  9
$PELEVATION
 40
0.0
  9
$THICKNESS
 40
0.0
  9
$LIMCHECK
 70
     0
  9
$BLIPMODE
 70
     0
  9
$CHAMFERA
 40
10.0
  9
$CHAMFERB
 40
10.0
  9
$SKPOLY
 70
     0
  9
$TDCREATE
 40
2455286.4249406829
  9
$TDUPDATE
 40
2457157.5499607762
  9
$TDINDWG
 40
0.0054830208
  9
$TDUSRTIMER
 40
0.0054829861
  9
$USRTIMER
 70
     1
  9
$ANGBASE
 50
0.0
  9
$ANGDIR
 70
     0
  9
$PDMODE
 70
     1
  9
$PDSIZE
 40
-5.0
  9
$PLINEWID
 40
0.0
  9
$COORDS
 70
     1
  9
$SPLFRAME
 70
     0
  9
$SPLINETYPE
 70
     6
  9
$SPLINESEGS
 70
     8
  9
$ATTDIA
 70
     1
  9
$ATTREQ
 70
     1
  9
$HANDLING
 70
     1
  9
$HANDSEED
  5
D2C
  9
$SURFTAB1
 70
     6
  9
$SURFTAB2
 70
     6
  9
$SURFTYPE
 70
     6
  9
$SURFU
 70
     6
  9
$SURFV
 70
     6
  9
$UCSNAME
  2

  9
$UCSORG
 10
0.0
 20
0.0
 30
0.0
  9
$UCSXDIR
 10
1.0
 20
0.0
 30
0.0
  9
$UCSYDIR
 10
0.0
 20
1.0
 30
0.0
  9
$PUCSNAME
  2

  9
$PUCSORG
 10
0.0
 20
0.0
 30
0.0
  9
$PUCSXDIR
 10
1.0
 20
0.0
 30
0.0
  9
$PUCSYDIR
 10
0.0
 20
1.0
 30
0.0
  9
$USERI1
 70
     1
  9
$USERI2
 70
     0
  9
$USERI3
 70
     0
  9
$USERI4
 70
     0
  9
$USERI5
 70
     0
  9
$USERR1
 40
0.0
  9
$USERR2
 40
0.0
  9
$USERR3
 40
0.0
  9
$USERR4
 40
0.0
  9
$USERR5
 40
0.0
  9
$WORLDVIEW
 70
     1
  9
$SHADEDGE
 70
     3
  9
$SHADEDIF
 70
    70
  9
$TILEMODE
 70
     1
  9
$MAXACTVP
 70
    16
  9
$PLIMCHECK
 70
     0
  9
$PEXTMIN
 10
1.0000000000000000E+020
 20
1.0000000000000000E+020
 30
1.0000000000000000E+020
  9
$PEXTMAX
 10
-1.0000000000000000E+020
 20
-1.0000000000000000E+020
 30
-1.0000000000000000E+020
  9
$PLIMMIN
 10
0.0
 20
0.0
  9
$PLIMMAX
 10
420.0
 20
297.0
  9
$UNITMODE
 70
     0
  9
$VISRETAIN
 70
     0
  9
$PLINEGEN
 70
     0
  9
$PSLTSCALE
 70
     1
  0
ENDSEC
  0
SECTION
  2
TABLES
  0
TABLE
  2
VPORT
 70
     1
  0
VPORT
  2
*ACTIVE
 70
     0
 10
0.0
 20
0.0
 11
1.0
 21
1.0
 12
16.088212778734771
 22
23.646883836153691
 13
0.0
 23
0.0
 14
7.0
 24
7.0
 15
7.0
 25
7.0
 16
0.0
 26
0.0
 36
1.0
 17
0.0
 27
0.0
 37
0.0
 40
100.18843340557839
 41
1.433260393873085
 42
50.0
 43
0.0
 44
0.0
 50
0.0
 51
0.0
 71
     0
 72
  2000
 73
     1
 74
     0
 75
     0
 76
     1
 77
     0
 78
     0
  0
ENDTAB
  0
TABLE
  2
LTYPE
 70
    21
  0
LTYPE
  2
CONTINUOUS
 70
     0
  3
Solid line
 72
    65
 73
     0
 40
0.0
  0
LTYPE
  2
CENTER2
 70
     0
  3
___ _ ___ _ ___ _ ___ _ ___ _ ___ _ ___ _ ___ _
 72
    65
 73
     4
 40
1.125
 49
0.75
 49
-0.125
 49
0.125
 49
-0.125
  0
LTYPE
  2
PHANTOM2
 70
     0
  3
___ _ _ ___ _ _ ___ _ _ ___ _ _ ___ _ _ ___ _ _
 72
    65
 73
     6
 40
1.25
 49
0.625
 49
-0.125
 49
0.125
 49
-0.125
 49
0.125
 49
-0.125
  0
LTYPE
  2
HIDDEN2
 70
     0
  3
_ _ _ _ _ _ _ _ _ _ _ _ _ _ _ _ _ _ _ _ _ _ _ _
 72
    65
 73
     2
 40
0.1875
 49
0.125
 49
-0.0625
  0
LTYPE
  2
AMCONSTR
 70
     0
  3
_______________________
 72
    65
 73
     2
 40
9999.0
 49
9999.0
 49
0.0
  0
LTYPE
  2
HIDDEN
 70
     0
  3
Hidden __ __ __ __ __ __ __ __ __ __ __ __ __ _
 72
    65
 73
     2
 40
0.375
 49
0.25
 49
-0.125
  0
LTYPE
  2
CENTER
 70
     0
  3
Center ____ _ ____ _ ____ _ ____ _ ____ _ ____
 72
    65
 73
     4
 40
2.0
 49
1.25
 49
-0.25
 49
0.25
 49
-0.25
  0
LTYPE
  2
AMZIGZAG2
 70
     0
  3
/\/-/\/-/\/-/\/-/\/-/\/
 72
    65
 73
     2
 40
0.4401
 49
0.0001
 49
-0.4400000000000001
  0
LTYPE
  2
ACANSTGB
 70
     0
  3
__ . . __ . .
 72
    65
 73
     6
 40
0.35433070866
 49
0.15748031496
 49
-0.03937007874
 49
0.03937007874
 49
-0.03937007874
 49
0.03937007874
 49
-0.03937007874
  0
LTYPE
  2
ACANSTGL
 70
     0
  3
_ _ _ _ _
 72
    65
 73
     2
 40
0.11811023622
 49
0.07874015748
 49
-0.03937007874
  0
ENDTAB
  0
TABLE
  2
LAYER
 70
     8
  0
LAYER
  2
0
 70
     0
 62
     7
  6
CONTINUOUS
  0
LAYER
  2
245
 70
     0
 62
     2
  6
CENTER2
  0
LAYER
  2
240
 70
     0
 62
     4
  6
CONTINUOUS
  0
LAYER
  2
241
 70
     0
 62
   211
  6
CONTINUOUS
  0
LAYER
  2
250
 70
     0
 62
     3
  6
CONTINUOUS
  0
LAYER
  2
DEFPOINTS
 70
     0
 62
     7
  6
CONTINUOUS
  0
LAYER
  2
246
 70
     0
 62
     3
  6
PHANTOM2
  0
ENDTAB
  0
TABLE
  2
STYLE
 70
    10
  0
STYLE
  2
STANDARD
 70
     0
 40
0.0
 41
1.0
 50
0.0
 71
     0
 42
3.0
  3
romans.shx
  4
BIGFONT.SHX
  0
STYLE
  2
YOKO
 70
     0
 40
0.0
 41
1.0
 50
0.0
 71
     0
 42
3.0
  3
romans.shx
  4
extfont.shx
  0
STYLE
  2
ACJISTS
 70
     0
 40
1.0
 41
1.0
 50
0.0
 71
     0
 42
3.0
  3
amgdt.shx
  4
extfont.shx
  0
STYLE
  2

 70
     1
 40
0.0
 41
1.0
 50
0.0
 71
     0
 42
3.0
  3
genltshp.shx
  4

  0
STYLE
  2
ACANSGDT
 70
     0
 40
0.0
 41
1.0
 50
0.0
 71
     0
 42
3.0
  3
amgdt.shx
  4

  0
ENDTAB
  0
TABLE
  2
VIEW
 70
     0
  0
ENDTAB
  0
TABLE
  2
UCS
 70
     0
  0
ENDTAB
  0
TABLE
  2
APPID
 70
    41
  0
APPID
  2
ACAD
 70
     0
  0
APPID
  2
ACADANNOTATIVE
 70
     0
  0
APPID
  2
GLOBAL
 70
     0
  0
APPID
  2
DETAIL
 70
     0
  0
APPID
  2
GRPNAME
 70
     0
  0
APPID
  2
GPARA
 70
     0
  0
APPID
  2
DCO15
 70
     0
  0
APPID
  2
ITEMNAME
 70
     0
  0
APPID
  2
GRADE_0
 70
     0
  0
APPID
  2
CONTENTBLOCKICON
 70
     0
  0
APPID
  2
MCAD_NO_VIS
 70
     0
  0
APPID
  2
ACAD_TEMP_GRAPHIC
 70
     0
  0
APPID
  2
ACATTRIBSERVICES
 70
     0
  0
APPID
  2
GENIUS_GENSCREG_15
 70
     0
  0
APPID
  2
GENIUS_GENODEF_13
 70
     0
  0
APPID
  2
GENIUS_GENOBJ-N-SDF_13
 70
     0
  0
APPID
  2
GENIUS_GENREC_14
 70
     0
  0
APPID
  2
GENIUS_GENOBJ-N-REC_13
 70
     0
  0
APPID
  2
GENIUS_GENDIMSH_14
 70
     0
  0
APPID
  2
GENIUS_GENOBJ-N-DIM_13
 70
     0
  0
APPID
  2
GENIUS_GENDIM_13
 70
     0
  0
APPID
  2
GENIUS_GENDTOL_13
 70
     0
  0
APPID
  2
GENIUS_GENOLIS_13
 70
     0
  0
APPID
  2
GENIUS_GENOENT_13
 70
     0
  0
APPID
  2
GENIUS_GENOBJ-F-FEM_13
 70
     0
  0
APPID
  2
GENIUS_GENOREF_13
 70
     0
  0
APPID
  2
GENIUS_GEFFEM_13
 70
     0
  0
APPID
  2
GENIUS_GEFFEMP_13
 70
     0
  0
APPID
  2
AD_DRAW
 70
     0
  0
APPID
  2
DESIGNERASSEMBLIES
 70
     0
  0
APPID
  2
ACADM_DIM_EDIT
 70
     0
  0
APPID
  2
AMDT_DM_ADJ
 70
     0
  0
APPID
  2
GENIUS_GENOBJ-N-FIL_13
 70
     0
  0
APPID
  2
GENIUS_GENFIL_13
 70
     0
  0
APPID
  2
GENIUS_GENOBJ-N-CHA_13
 70
     0
  0
APPID
  2
ACAD_NAV_VCDISPLAY
 70
     0
  0
APPID
  2
ACAECLAYERSTANDARD
 70
     0
  0
APPID
  2
ACAD_MLEADERVER
 70
     0
  0
APPID
  2
ACAD_DSTYLE_DIMJAG
 70
     0
  0
APPID
  2
ACAD_DSTYLE_DIMBREAK
 70
     0
  0
APPID
  2
ACAD_DSTYLE_DIMINSPECT
 70
     0
  0
ENDTAB
  0
TABLE
  2
DIMSTYLE
 70
    31
  0
DIMSTYLE
  2
STANDARD
 70
     0
  3

  4

  5

  6

  7

 40
1.0
 41
0.18
 42
0.0625
 43
0.38
 44
0.18
 45
0.0
 46
0.0
 47
0.0
 48
0.0
140
0.18
141
0.09
142
0.0
143
25.399999999999999
144
1.0
145
0.0
146
1.0
147
0.09
 71
     0
 72
     0
 73
     1
 74
     1
 75
     0
 76
     0
 77
     0
 78
     0
170
     0
171
     2
172
     0
173
     0
174
     0
175
     0
176
     0
177
     0
178
     0
  0
DIMSTYLE
  2
BIGT
 70
     0
  3

  4

  5

  6

  7

 40
1.0
 41
2.2299999999999991
 42
0.5
 43
7.0
 44
1.0
 45
0.0
 46
0.0
 47
0.0
 48
0.01
140
2.799999999999998
141
0.0
142
0.0
143
25.399999999999999
144
1.0
145
0.0
146
1.0
147
1.0
 71
     0
 72
     0
 73
     0
 74
     0
 75
     0
 76
     0
 77
     3
 78
     9
170
     0
171
     2
172
     1
173
     0
174
     1
175
     0
176
   256
177
   256
178
    40
  0
DIMSTYLE
  2
AM_ANSI
 70
     0
  3

  4
mm
  5

  6

  7

 40
1.0
 41
0.12
 42
0.05
 43
0.5
 44
0.1
 45
0.0
 46
0.0
 47
0.1
 48
0.1
140
0.12
141
0.0
142
0.0
143
25.399999999999999
144
1.0
145
0.0
146
0.71
147
0.06
 71
     0
 72
     0
 73
     1
 74
     1
 75
     0
 76
     0
 77
     0
 78
     7
170
     0
171
     2
172
     0
173
     0
174
     0
175
     0
176
   256
177
   256
178
     2
  0
DIMSTYLE
  2
AM_ANSI$3
 70
     0
  3

  4
mm
  5

  6

  7

 40
1.0
 41
0.12
 42
0.05
 43
0.5
 44
0.1
 45
0.0
 46
0.0
 47
0.1
 48
0.1
140
0.12
141
0.0
142
0.0
143
25.399999999999999
144
1.0
145
0.0
146
0.71
147
0.06
 71
     0
 72
     0
 73
     1
 74
     1
 75
     0
 76
     0
 77
     0
 78
     7
170
     0
171
     2
172
     0
173
     0
174
     0
175
     0
176
   256
177
   256
178
     2
  0
DIMSTYLE
  2
AM_ANSI$4
 70
     0
  3

  4
mm
  5

  6

  7

 40
1.0
 41
0.12
 42
0.05
 43
0.5
 44
0.1
 45
0.0
 46
0.0
 47
0.1
 48
0.1
140
0.12
141
0.0
142
0.0
143
25.399999999999999
144
1.0
145
0.0
146
0.71
147
0.06
 71
     0
 72
     0
 73
     1
 74
     1
 75
     0
 76
     0
 77
     0
 78
     7
170
     0
171
     2
172
     0
173
     0
174
     0
175
     0
176
   256
177
   256
178
     2
  0
DIMSTYLE
  2
AM_ANSI$7
 70
     0
  3

  4
mm
  5

  6

  7

 40
1.0
 41
0.12
 42
0.05
 43
0.5
 44
0.1
 45
0.0
 46
0.0
 47
0.1
 48
0.1
140
0.12
141
0.0
142
0.0
143
25.399999999999999
144
1.0
145
0.0
146
0.71
147
0.06
 71
     0
 72
     0
 73
     1
 74
     1
 75
     0
 76
     0
 77
     0
 78
     7
170
     0
171
     2
172
     0
173
     0
174
     0
175
     0
176
   256
177
   256
178
     2
  0
DIMSTYLE
  2
AM_ANSI$SF
 70
     0
  3

  4
mm
  5

  6

  7

 40
1.0
 41
0.12
 42
0.05
 43
0.5
 44
0.1
 45
0.0
 46
0.0
 47
0.1
 48
0.1
140
0.12
141
0.0
142
0.0
143
25.399999999999999
144
1.0
145
0.0
146
0.71
147
0.06
 71
     0
 72
     0
 73
     1
 74
     1
 75
     1
 76
     1
 77
     0
 78
     7
170
     0
171
     2
172
     0
173
     0
174
     0
175
     0
176
   256
177
   256
178
     2
  0
DIMSTYLE
  2
AM_ANSI$SH
 70
     0
  3

  4
mm
  5

  6
GENAXEH
  7

 40
1.0
 41
0.12
 42
0.05
 43
0.5
 44
0.1
 45
0.0
 46
0.0
 47
0.1
 48
0.1
140
0.12
141
0.0
142
0.0
143
25.399999999999999
144
1.0
145
0.0
146
0.71
147
0.06
 71
     0
 72
     0
 73
     1
 74
     1
 75
     1
 76
     1
 77
     0
 78
     7
170
     0
171
     2
172
     0
173
     1
174
     0
175
     0
176
   256
177
   256
178
     2
  0
ENDTAB
  0
ENDSEC
  0
SECTION
  2
BLOCKS
  0
BLOCK
  8
0
  2
$MODEL_SPACE
 70
     0
 10
0.0
 20
0.0
 30
0.0
  3
$MODEL_SPACE
  1

  0
ENDBLK
  5
BA1
  8
0
  0
BLOCK
 67
     1
  8
0
  2
$PAPER_SPACE
 70
     0
 10
0.0
 20
0.0
 30
0.0
  3
$PAPER_SPACE
  1

  0
ENDBLK
  5
B9D
 67
     1
  8
0
  0
BLOCK
  8
0
  2
_OPEN
 70
     0
 10
0.0
 20
0.0
 30
0.0
  3
_OPEN
  1

  0
LINE
  5
9B8
  8
0
  6
BYBLOCK
 62
     0
 10
-1.0
 20
0.1666666666666666
 30
0.0
 11
0.0
 21
0.0
 31
0.0
  0
LINE
  5
9B9
  8
0
  6
BYBLOCK
 62
     0
 10
-1.0
 20
-0.1666666666666666
 30
0.0
 11
0.0
 21
0.0
 31
0.0
  0
LINE
  5
9BA
  8
0
  6
BYBLOCK
 62
     0
 10
0.0
 20
0.0
 30
0.0
 11
-1.0
 21
0.0
 31
0.0
  0
ENDBLK
  5
9BB
  8
0
  0
BLOCK
  8
0
  2
矢印なし
 70
     0
 10
0.0
 20
0.0
 30
0.0
  3
矢印なし
  1

  0
ENDBLK
  5
6E5
  8
0
  0
BLOCK
  8
0
  2
GENAXEH
 70
     0
 10
0.0
 20
0.0
 30
0.0
  3
GENAXEH
  1

  0
LINE
  5
9F3
  8
0
 10
-1.0
 20
0.0
 30
0.0
 11
1.0
 21
0.0
 31
0.0
  0
ENDBLK
  5
9F4
  8
0
  0
BLOCK
  8
0
  2
_ACMFILLEDHALF
 70
     0
 10
0.0
 20
0.0
 30
0.0
  3
_ACMFILLEDHALF
  1

  0
TRACE
  5
C65
  8
245
 62
     0
 10
-0.8
 20
0.0
 30
0.0
 11
-1.0
 21
0.166666666
 31
0.0
 12
0.0
 22
0.0
 32
0.0
 13
0.0
 23
0.0
 33
0.0
  0
LINE
  5
C66
  8
245
 62
     0
 10
-1.0
 20
0.0
 30
0.0
 11
-0.8
 21
0.0
 31
0.0
  0
ENDBLK
  5
C64
  8
0
  0
ENDSEC
  0
SECTION
  2
ENTITIES
  0
INSERT
  5
6E6
  8
245
  2
矢印なし
 10
175.62382697000001
 20
90.551235719999994
 30
0.0
  0
TEXT
  5
847
  8
241
 10
-14.5
 20
54.5
 30
0.0
 40
5.0
  1
ENH6-2
  7
YOKO
 11
-14.5
 21
54.5
 31
0.0
 73
     1
  0
LINE
  5
A61
  8
240
  6
CONTINUOUS
 10
-14.5
 20
0.0
 30
0.0
 11
-3.6322518299999991
 21
0.0
 31
0.0
  0
ARC
  5
A62
  8
240
  6
CONTINUOUS
 10
-11.5
 20
9.5
 30
0.0
 40
3.0
 50
90.0
 51
180.0
  0
LINE
  5
A63
  8
240
  6
CONTINUOUS
 10
-14.5
 20
0.0
 30
0.0
 11
-14.5
 21
9.5
 31
0.0
  0
LINE
  5
A64
  8
241
  6
CONTINUOUS
 10
14.5
 20
7.3499999999999988
 30
0.0
 11
14.5
 21
9.5
 31
0.0
  0
LINE
  5
A65
  8
240
  6
CONTINUOUS
 10
14.5
 20
7.3499999999999988
 30
0.0
 11
22.980386289999998
 21
12.2461533
 31
0.0
  0
LINE
  5
A66
  8
245
  6
CENTER2
 10
0.0
 20
-2.395711369999999
 30
0.0
 11
0.0
 21
14.673909030000001
 31
0.0
  0
LINE
  5
A67
  8
240
  6
CONTINUOUS
 10
3.6322518299999991
 20
0.0
 30
0.0
 11
14.5
 21
0.0
 31
0.0
  0
LINE
  5
A68
  8
240
  6
CONTINUOUS
 10
3.6322518299999991
 20
0.0
 30
0.0
 11
3.6322518299999991
 21
2.0999999999999992
 31
0.0
  0
LINE
  5
A69
  8
240
  6
CONTINUOUS
 10
-3.6322518299999991
 20
0.0
 30
0.0
 11
-3.6322518299999991
 21
2.0999999999999992
 31
0.0
  0
LINE
  5
A6A
  8
240
  6
CONTINUOUS
 10
-3.6322518299999991
 20
2.0999999999999992
 30
0.0
 11
3.6322518299999991
 21
2.0999999999999992
 31
0.0
  0
LINE
  5
A6B
  8
240
  6
CONTINUOUS
 10
14.5
 20
0.0
 30
0.0
 11
14.5
 21
7.3499999999999988
 31
0.0
  0
LINE
  5
A6C
  8
241
  6
CONTINUOUS
 10
15.35326324
 20
21.092245510000001
 30
0.0
 11
22.924403330000001
 21
24.949934070000001
 31
0.0
1001
GRPNAME
1000
PASTMD01
  0
LINE
  5
A6D
  8
240
  6
CONTINUOUS
 10
10.51050869
 20
22.76102951
 30
0.0
 11
22.924403330000001
 21
24.949934070000001
 31
0.0
1001
GRPNAME
1000
PASTMD01
  0
LINE
  5
A6F
  8
241
  6
CONTINUOUS
 10
15.31700382
 20
20.400374679999999
 30
0.0
 11
23.37904502
 21
15.164823910000001
 31
0.0
1001
GRPNAME
1000
PASTMD01
  0
LINE
  5
A70
  8
240
  6
CONTINUOUS
 10
0.28661477
 20
12.79289322
 30
0.0
 11
9.9770500900000005
 21
22.483328539999999
 31
0.0
  0
LINE
  5
A71
  8
241
  6
CONTINUOUS
 10
11.5
 20
12.5
 30
0.0
 11
-0.42049202
 21
12.5
 31
0.0
  0
LINE
  5
A72
  8
240
  6
CONTINUOUS
 10
-11.5
 20
12.5
 30
0.0
 11
-0.42049202
 21
12.5
 31
0.0
  0
ARC
  5
A73
  8
240
  6
CONTINUOUS
 10
-0.42049202
 20
13.5
 30
0.0
 40
1.0
 50
270.0
 51
314.99999999999989
  0
ARC
  5
A75
  8
241
  6
CONTINUOUS
 10
11.5
 20
9.5
 30
0.0
 40
3.0
 50
0.0
 51
90.0
  0
ARC
  5
A77
  8
240
  6
CONTINUOUS
 10
10.684156870000001
 20
21.776221759999999
 30
0.0
 40
1.0000000000000011
 50
100.0
 51
134.9999999999998
  0
ARC
  5
A79
  8
241
  6
PHANTOM2
 10
15.53485944
 20
20.735842909999999
 30
0.0
 40
0.3999999999999995
 50
117.00000006
 51
237.00000005999991
1001
GRPNAME
1000
PASTMD01
  0
LINE
  5
A7A
  8
240
  6
PHANTOM2
 10
24.49945181
 20
25.079065620000002
 30
0.0
 11
23.996352439999999
 21
15.479357759999999
 31
0.0
1001
GRPNAME
1000
PASTMD01
  0
LINE
  5
A7B
  8
240
  6
CONTINUOUS
 10
23.479015820000001
 20
13.05984275
 30
0.0
 11
23.585959089999999
 21
15.10044181
 31
0.0
1001
GRPNAME
1000
PASTMD01
  0
ARC
  5
A7C
  8
240
  6
CONTINUOUS
 10
22.480386289999998
 20
13.11217871
 30
0.0
 40
0.999999999999996
 50
300.0
 51
357.0
  0
ARC
  5
A7D
  8
241
  6
PHANTOM2
 10
23.59690063
 20
15.500292140000001
 30
0.0
 40
0.399999999999995
 50
236.99999998000001
 51
268.43252613999999
1001
GRPNAME
1000
PASTMD01
  0
ARC
  5
A7E
  8
240
  6
PHANTOM2
 10
23.59690063
 20
15.500292140000001
 30
0.0
 40
0.399999999999995
 50
268.43252613999999
 51
356.99999997999993
1001
GRPNAME
1000
PASTMD01
  0
ARC
  5
A7F
  8
240
  6
PHANTOM2
 10
24.100000000000001
 20
25.100000000000001
 30
0.0
 40
0.3999999999999822
 50
356.99999991999982
 51
116.99999991999999
1001
GRPNAME
1000
PASTMD01
  0
LINE
  5
A80
  8
240
  6
PHANTOM2
 10
22.924403330000001
 20
24.949934070000001
 30
0.0
 11
23.9184038
 21
25.456402610000001
 31
0.0
1001
GRPNAME
1000
PASTMD01
  0
LINE
  5
A82
  8
250
 10
0.0
 20
15.173909030000001
 30
0.0
 11
0.0
 21
34.5
 31
0.0
  0
LINE
  5
A83
  8
250
 10
24.5
 20
25.600000000000001
 30
0.0
 11
24.5
 21
34.5
 31
0.0
  0
LINE
  5
A84
  8
250
 10
2.2299999999999991
 20
33.5
 30
0.0
 11
22.27
 21
33.5
 31
0.0
  0
TEXT
  5
A8E
  8
250
 10
7.5833333333333321
 20
34.5
 30
0.0
 40
2.799999999999998
  1
24.5
1001
ACAD
1000
MTEXTBEGIN
1070
    73
1070
     1
1070
    44
1040
1.0
1070
    74
1070
     0
1000
MTEXTEND
  0
LINE
  5
A8F
  8
250
 10
22.27
 20
33.87166666666667
 30
0.0
 11
24.5
 21
33.5
 31
0.0
  0
LINE
  5
A90
  8
250
 10
22.27
 20
33.12833333333333
 30
0.0
 11
24.5
 21
33.5
 31
0.0
  0
LINE
  5
A91
  8
250
 10
24.5
 20
33.5
 30
0.0
 11
22.27
 21
33.5
 31
0.0
  0
LINE
  5
A92
  8
250
 10
2.2299999999999991
 20
33.12833333333333
 30
0.0
 11
0.0
 21
33.5
 31
0.0
  0
LINE
  5
A93
  8
250
 10
2.2299999999999991
 20
33.87166666666667
 30
0.0
 11
0.0
 21
33.5
 31
0.0
  0
LINE
  5
A94
  8
250
 10
0.0
 20
33.5
 30
0.0
 11
2.2299999999999991
 21
33.5
 31
0.0
  0
CIRCLE
  5
AA0
  8
246
 10
21.077253354610409
 20
20.445378346000201
 30
0.0
 40
3.174999997281799
  0
LINE
  5
CBC
  8
250
 10
41.821108255677359
 20
32.715606943501548
 30
0.0
 11
29.002037495619451
 21
32.715606943501548
 31
0.0
  0
LINE
  5
CBD
  8
250
 10
29.002037495619451
 20
32.715606943501548
 30
0.0
 11
24.751200752613538
 21
26.993291084343291
 31
0.0
  0
LINE
  5
CBE
  8
250
 10
24.751200752613538
 20
26.993291084343291
 30
0.0
 11
23.421403564999999
 21
25.203168340000001
 31
0.0
  0
LINE
  5
CBF
  8
250
 10
24.51552662338425
 20
27.168362204596189
 30
0.0
 11
23.421403564999999
 21
25.203168340000001
 31
0.0
  0
LINE
  5
CC0
  8
250
 10
23.421403564999999
 20
25.203168340000001
 30
0.0
 11
24.98687488184283
 21
26.818219964090378
 31
0.0
  0
TEXT
  5
CC1
  8
250
 10
29.154441589010698
 20
34.115606943501547
 30
0.0
 40
2.799999999999998
  1
TC11
  7
ACJISTS
  0
LINE
  5
CC2
  8
250
 10
15.0
 20
-0.0000000000000001
 30
0.0
 11
36.0
 21
-0.0000000000000061
 31
0.0
  0
LINE
  5
CC3
  8
250
 10
24.600000000000001
 20
25.499999999999979
 30
0.0
 11
36.000000000000007
 21
25.499999999999979
 31
0.0
  0
LINE
  5
CC4
  8
250
 10
35.0
 20
2.2299999999999929
 30
0.0
 11
35.000000000000007
 21
23.269999999999978
 31
0.0
  0
TEXT
  5
CCA
  8
250
 10
34.0
 20
8.0833333333333304
 30
0.0
 40
2.799999999999998
  1
25.5
 50
90.0
  0
LINE
  5
CCB
  8
250
 10
34.628333333333337
 20
23.269999999999978
 30
0.0
 11
35.000000000000007
 21
25.499999999999979
 31
0.0
  0
LINE
  5
CCC
  8
250
 10
35.371666666666677
 20
23.269999999999978
 30
0.0
 11
35.000000000000007
 21
25.499999999999979
 31
0.0
  0
LINE
  5
CCD
  8
250
 10
35.000000000000007
 20
25.499999999999979
 30
0.0
 11
35.000000000000007
 21
23.269999999999978
 31
0.0
  0
LINE
  5
CCE
  8
250
 10
35.37166666666667
 20
2.2299999999999929
 30
0.0
 11
35.0
 21
-0.0000000000000058
 31
0.0
  0
LINE
  5
CCF
  8
250
 10
34.628333333333337
 20
2.2299999999999929
 30
0.0
 11
35.0
 21
-0.0000000000000058
 31
0.0
  0
LINE
  5
CD0
  8
250
 10
35.0
 20
-0.0000000000000058
 30
0.0
 11
35.0
 21
2.2299999999999929
 31
0.0
  0
VIEWPORT
  5
22
 67
     1
  8
0
 10
261.51769911999997
 20
148.5
 30
0.0
 40
523.03539823000006
 41
297.0
 68
     1
 69
     1
1001
ACAD
1000
MVIEW
1002
{
1070
    16
1010
0.0
1020
0.0
1030
0.0
1010
0.0
1020
0.0
1030
1.0
1040
0.0
1040
297.0
1040
261.51769911999997
1040
148.5
1040
50.0
1040
0.0
1040
0.0
1070
     0
1070
   100
1070
     1
1070
     1
1070
     0
1070
     0
1070
     0
1070
     0
1040
0.0
1040
0.0
1040
0.0
1040
1.0
1040
1.0
1040
10.0
1040
10.0
1070
     0
1002
{
1002
}
1002
}
1001
GENIUS_GENOBJ-N-SDF_13
1002
{
1000
OWNER
1000
GEN
1002
}
1001
GENIUS_GENODEF_13
1002
{
1000
HIER
1070
     0
1002
}
1002
{
1000
MANEDIT
1070
     0
1002
}
1002
{
1000
NOSEL
1070
     0
1002
}
1002
{
1000
BEHIND
1070
     0
1002
}
1002
{
1000
OTHER
1070
     0
1002
}
1002
{
1000
REACTOR
1002
}
1001
GENIUS_GENSCREG_15
1000
PF
1040
1.0
1000
DF
1040
1.0
1000
MIN
1011
0.0000000049999471
1021
0.0
1031
0.0
1021
0.0
1031
0.0
1000
MAX
1011
523.035398235
1021
0.0
1031
0.0
1021
297.0
1031
0.0
1000
FLAGS
1070
     4
  0
ENDSEC
  0
EOF
