  0
SECTION
  2
HEADER
  9
$ACADVER
  1
AC1009
  9
$INSBASE
 10
0.0
 20
0.0
 30
0.0
  9
$EXTMIN
 10
-14.499999999993459
 20
-1.9036829085591691
 30
0.0
  9
$EXTMAX
 10
40.875977964395133
 20
38.000000000000007
 30
0.0
  9
$LIMMIN
 10
0.0
 20
0.0
  9
$LIMMAX
 10
297.0
 20
210.0
  9
$ORTHOMODE
 70
     1
  9
$REGENMODE
 70
     1
  9
$FILLMODE
 70
     1
  9
$QTEXTMODE
 70
     0
  9
$MIRRTEXT
 70
     1
  9
$DRAGMODE
 70
     2
  9
$LTSCALE
 40
10.0
  9
$OSMODE
 70
    63
  9
$ATTMODE
 70
     1
  9
$TEXTSIZE
 40
3.0
  9
$TRACEWID
 40
1.0
  9
$TEXTSTYLE
  7
YOKO
  9
$CLAYER
  8
241
  9
$CELTYPE
  6
BYLAYER
  9
$CECOLOR
 62
   256
  9
$DIMSCALE
 40
1.0
  9
$DIMASZ
 40
2.2299999999999991
  9
$DIMEXO
 40
0.5
  9
$DIMDLI
 40
7.0
  9
$DIMRND
 40
0.0
  9
$DIMDLE
 40
0.0
  9
$DIMEXE
 40
1.0
  9
$DIMTP
 40
0.0
  9
$DIMTM
 40
0.01
  9
$DIMTXT
 40
2.7999999999999989
  9
$DIMCEN
 40
0.0
  9
$DIMTSZ
 40
0.0
  9
$DIMTOL
 70
     0
  9
$DIMLIM
 70
     0
  9
$DIMTIH
 70
     0
  9
$DIMTOH
 70
     0
  9
$DIMSE1
 70
     0
  9
$DIMSE2
 70
     0
  9
$DIMTAD
 70
     3
  9
$DIMZIN
 70
     9
  9
$DIMBLK
  1
OPEN
  9
$DIMASO
 70
     1
  9
$DIMSHO
 70
     1
  9
$DIMPOST
  1

  9
$DIMAPOST
  1

  9
$DIMALT
 70
     0
  9
$DIMALTD
 70
     2
  9
$DIMALTF
 40
25.399999999999999
  9
$DIMLFAC
 40
1.0
  9
$DIMTOFL
 70
     1
  9
$DIMTVP
 40
0.0
  9
$DIMTIX
 70
     1
  9
$DIMSOXD
 70
     0
  9
$DIMSAH
 70
     0
  9
$DIMBLK1
  1

  9
$DIMBLK2
  1

  9
$DIMSTYLE
  2
BIGT
  9
$DIMCLRD
 70
   256
  9
$DIMCLRE
 70
   256
  9
$DIMCLRT
 70
    40
  9
$DIMTFAC
 40
1.0
  9
$DIMGAP
 40
1.0
  9
$LUNITS
 70
     2
  9
$LUPREC
 70
     6
  9
$SKETCHINC
 40
1.0
  9
$FILLETRAD
 40
0.0
  9
$AUNITS
 70
     0
  9
$AUPREC
 70
     6
  9
$MENU
  1
.
  9
$ELEVATION
 40
0.0
  9
$PELEVATION
 40
0.0
  9
$THICKNESS
 40
0.0
  9
$LIMCHECK
 70
     0
  9
$BLIPMODE
 70
     0
  9
$CHAMFERA
 40
0.2
  9
$CHAMFERB
 40
0.2
  9
$SKPOLY
 70
     0
  9
$TDCREATE
 40
2457143.7706732182
  9
$TDUPDATE
 40
2457144.4372750688
  9
$TDINDWG
 40
0.0028378704
  9
$TDUSRTIMER
 40
0.0028378125
  9
$USRTIMER
 70
     1
  9
$ANGBASE
 50
0.0
  9
$ANGDIR
 70
     0
  9
$PDMODE
 70
     1
  9
$PDSIZE
 40
0.0
  9
$PLINEWID
 40
0.0
  9
$COORDS
 70
     1
  9
$SPLFRAME
 70
     0
  9
$SPLINETYPE
 70
     6
  9
$SPLINESEGS
 70
     4
  9
$ATTDIA
 70
     1
  9
$ATTREQ
 70
     1
  9
$HANDLING
 70
     1
  9
$HANDSEED
  5
4772
  9
$SURFTAB1
 70
     6
  9
$SURFTAB2
 70
     6
  9
$SURFTYPE
 70
     6
  9
$SURFU
 70
     6
  9
$SURFV
 70
     6
  9
$UCSNAME
  2

  9
$UCSORG
 10
0.0
 20
0.0
 30
0.0
  9
$UCSXDIR
 10
1.0
 20
0.0
 30
0.0
  9
$UCSYDIR
 10
0.0
 20
1.0
 30
0.0
  9
$PUCSNAME
  2

  9
$PUCSORG
 10
0.0
 20
0.0
 30
0.0
  9
$PUCSXDIR
 10
1.0
 20
0.0
 30
0.0
  9
$PUCSYDIR
 10
0.0
 20
1.0
 30
0.0
  9
$USERI1
 70
     1
  9
$USERI2
 70
     0
  9
$USERI3
 70
     0
  9
$USERI4
 70
     0
  9
$USERI5
 70
     0
  9
$USERR1
 40
0.0
  9
$USERR2
 40
0.0
  9
$USERR3
 40
0.0
  9
$USERR4
 40
0.0
  9
$USERR5
 40
0.0
  9
$WORLDVIEW
 70
     1
  9
$SHADEDGE
 70
     3
  9
$SHADEDIF
 70
    70
  9
$TILEMODE
 70
     1
  9
$MAXACTVP
 70
    16
  9
$PLIMCHECK
 70
     0
  9
$PEXTMIN
 10
1.0000000000000000E+020
 20
1.0000000000000000E+020
 30
1.0000000000000000E+020
  9
$PEXTMAX
 10
-1.0000000000000000E+020
 20
-1.0000000000000000E+020
 30
-1.0000000000000000E+020
  9
$PLIMMIN
 10
0.0
 20
0.0
  9
$PLIMMAX
 10
420.0
 20
297.0
  9
$UNITMODE
 70
     0
  9
$VISRETAIN
 70
     1
  9
$PLINEGEN
 70
     0
  9
$PSLTSCALE
 70
     1
  0
ENDSEC
  0
SECTION
  2
TABLES
  0
TABLE
  2
VPORT
 70
     1
  0
VPORT
  2
*ACTIVE
 70
     0
 10
0.0
 20
0.0
 11
1.0
 21
1.0
 12
13.17922220883764
 22
18.04762220771104
 13
0.0
 23
0.0
 14
7.0
 24
7.0
 15
7.0
 25
7.0
 16
0.0
 26
0.0
 36
1.0
 17
0.0
 27
0.0
 37
0.0
 40
41.571755282808837
 41
1.3393461104847799
 42
50.0
 43
0.0
 44
0.0
 50
0.0
 51
0.0
 71
     0
 72
  2000
 73
     1
 74
     0
 75
     0
 76
     1
 77
     0
 78
     0
  0
ENDTAB
  0
TABLE
  2
LTYPE
 70
    13
  0
LTYPE
  2
CONTINUOUS
 70
     0
  3
Solid line
 72
    65
 73
     0
 40
0.0
  0
LTYPE
  2
CENTER2
 70
     0
  3
___ _ ___ _ ___ _ ___ _ ___ _ ___ _ ___ _ ___ _
 72
    65
 73
     4
 40
1.125
 49
0.75
 49
-0.125
 49
0.125
 49
-0.125
  0
LTYPE
  2
HIDDEN2
 70
     0
  3
_ _ _ _ _ _ _ _ _ _ _ _ _ _ _ _ _ _ _ _ _ _ _ _
 72
    65
 73
     2
 40
0.1875
 49
0.125
 49
-0.0625
  0
LTYPE
  2
PHANTOM2
 70
     0
  3
___ _ _ ___ _ _ ___ _ _ ___ _ _ ___ _ _ ___ _ _
 72
    65
 73
     6
 40
1.25
 49
0.625
 49
-0.125
 49
0.125
 49
-0.125
 49
0.125
 49
-0.125
  0
LTYPE
  2
AM_ISO02W050
 70
     0
  3
__ __ __ __ __ __ __ __ __ __ __ __ __ __ __
 72
    65
 73
     2
 40
7.5
 49
6.0
 49
-1.5
  0
LTYPE
  2
AMCONSTR
 70
     0
  3
_______________________
 72
    65
 73
     2
 40
9999.0
 49
9999.0
 49
0.0
  0
LTYPE
  2
ACISOWELD
 70
     0
  3
_ _ _ _ _
 72
    65
 73
     2
 40
2.0
 49
2.0
 49
-1.0
  0
LTYPE
  2
ACISOTGB
 70
     0
  3
__ . . __ . .
 72
    65
 73
     6
 40
9.0
 49
4.0
 49
-1.0
 49
1.0
 49
-1.0
 49
1.0
 49
-1.0
  0
LTYPE
  2
ACISOTGL
 70
     0
  3
_ _ _ _ _
 72
    65
 73
     2
 40
3.0
 49
2.0
 49
-1.0
  0
LTYPE
  2
ACJISTGB
 70
     0
  3
__ . . __ . .
 72
    65
 73
     6
 40
9.0
 49
4.0
 49
-1.0
 49
1.0
 49
-1.0
 49
1.0
 49
-1.0
  0
LTYPE
  2
ACJISTGL
 70
     0
  3
_ _ _ _ _
 72
    65
 73
     2
 40
3.0
 49
2.0
 49
-1.0
  0
ENDTAB
  0
TABLE
  2
LAYER
 70
     7
  0
LAYER
  2
0
 70
     0
 62
     7
  6
CONTINUOUS
  0
LAYER
  2
DEFPOINTS
 70
     0
 62
     7
  6
CONTINUOUS
  0
LAYER
  2
245
 70
     0
 62
     2
  6
CENTER2
  0
LAYER
  2
240
 70
     0
 62
     4
  6
CONTINUOUS
  0
LAYER
  2
241
 70
     0
 62
   211
  6
CONTINUOUS
  0
LAYER
  2
246
 70
     0
 62
     3
  6
PHANTOM2
  0
LAYER
  2
250
 70
     0
 62
     3
  6
CONTINUOUS
  0
ENDTAB
  0
TABLE
  2
STYLE
 70
     6
  0
STYLE
  2
STANDARD
 70
     0
 40
0.0
 41
1.0
 50
0.0
 71
     0
 42
3.0
  3
romans.shx
  4
extfont.shx
  0
STYLE
  2
ACISOTS
 70
     0
 40
1.0
 41
1.0
 50
0.0
 71
     0
 42
3.0
  3
amgdt.shx
  4
extfont.shx
  0
STYLE
  2
ACISOGDT
 70
     0
 40
0.0
 41
1.0
 50
0.0
 71
     0
 42
3.0
  3
amgdt.shx
  4
extfont.shx
  0
STYLE
  2
ACJISTS
 70
     0
 40
1.0
 41
1.0
 50
0.0
 71
     0
 42
3.0
  3
amgdt.shx
  4
extfont.shx
  0
STYLE
  2
ACJISGDT
 70
     0
 40
0.0
 41
1.0
 50
0.0
 71
     0
 42
3.0
  3
amgdt.shx
  4
extfont.shx
  0
STYLE
  2
YOKO
 70
     0
 40
0.0
 41
1.0
 50
0.0
 71
     0
 42
3.0
  3
romans.shx
  4
extfont.shx
  0
ENDTAB
  0
TABLE
  2
VIEW
 70
     0
  0
ENDTAB
  0
TABLE
  2
UCS
 70
     0
  0
ENDTAB
  0
TABLE
  2
APPID
 70
    35
  0
APPID
  2
ACAD
 70
     0
  0
APPID
  2
GLOBAL
 70
     0
  0
APPID
  2
DETAIL
 70
     0
  0
APPID
  2
GRPNAME
 70
     0
  0
APPID
  2
GPARA
 70
     0
  0
APPID
  2
MCAD_NO_VIS
 70
     0
  0
APPID
  2
ACAD_TEMP_GRAPHIC
 70
     0
  0
APPID
  2
ACATTRIBSERVICES
 70
     0
  0
APPID
  2
GENIUS_GENSCREG_15
 70
     0
  0
APPID
  2
GENIUS_GENODEF_13
 70
     0
  0
APPID
  2
GENIUS_GENOBJ-N-SDF_13
 70
     0
  0
APPID
  2
GENIUS_GENREC_14
 70
     0
  0
APPID
  2
GENIUS_GENOBJ-N-REC_13
 70
     0
  0
APPID
  2
GENIUS_GENDIMSH_14
 70
     0
  0
APPID
  2
GENIUS_GENOBJ-N-DIM_13
 70
     0
  0
APPID
  2
GENIUS_GENDIM_13
 70
     0
  0
APPID
  2
GENIUS_GENDTOL_13
 70
     0
  0
APPID
  2
GENIUS_GENOLIS_13
 70
     0
  0
APPID
  2
GENIUS_GENOENT_13
 70
     0
  0
APPID
  2
GENIUS_GENOBJ-F-FEM_13
 70
     0
  0
APPID
  2
GENIUS_GENOREF_13
 70
     0
  0
APPID
  2
GENIUS_GEFFEM_13
 70
     0
  0
APPID
  2
GENIUS_GEFFEMP_13
 70
     0
  0
APPID
  2
AD_DRAW
 70
     0
  0
APPID
  2
DESIGNERASSEMBLIES
 70
     0
  0
APPID
  2
ACADM_DIM_EDIT
 70
     0
  0
APPID
  2
AMDT_DM_ADJ
 70
     0
  0
APPID
  2
ITEMNAME
 70
     0
  0
APPID
  2
GENIUS_GENOBJ-N-FIL_13
 70
     0
  0
APPID
  2
GENIUS_GENFIL_13
 70
     0
  0
APPID
  2
GENIUS_GENOBJ-N-CHA_13
 70
     0
  0
APPID
  2
ACAD_NAV_VCDISPLAY
 70
     0
  0
APPID
  2
ACAD_DSTYLE_DIMINSPECT
 70
     0
  0
APPID
  2
ACAD_EXEMPT_FROM_CAD_STANDARDS
 70
     0
  0
APPID
  2
ACAD_MLEADERVER
 70
     0
  0
ENDTAB
  0
TABLE
  2
DIMSTYLE
 70
    23
  0
DIMSTYLE
  2
BIGT
 70
     0
  3

  4

  5
OPEN
  6

  7

 40
1.0
 41
2.2299999999999991
 42
0.5
 43
7.0
 44
1.0
 45
0.0
 46
0.0
 47
0.0
 48
0.01
140
2.7999999999999989
141
0.0
142
0.0
143
25.399999999999999
144
1.0
145
0.0
146
1.0
147
1.0
 71
     0
 72
     0
 73
     0
 74
     0
 75
     0
 76
     0
 77
     3
 78
     9
170
     0
171
     2
172
     1
173
     0
174
     1
175
     0
176
   256
177
   256
178
    40
  0
DIMSTYLE
  2
AM_ISO
 70
     0
  3

  4
"
  5

  6

  7

 40
1.0
 41
2.5
 42
1.0
 43
10.0
 44
1.0
 45
0.0
 46
0.0
 47
0.1
 48
0.1
140
3.5
141
0.0
142
0.0
143
0.0393701
144
1.0
145
0.0
146
0.71
147
1.5
 71
     0
 72
     0
 73
     0
 74
     0
 75
     0
 76
     0
 77
     1
 78
     8
170
     0
171
     2
172
     1
173
     0
174
     0
175
     0
176
   256
177
   256
178
     2
  0
DIMSTYLE
  2
AM_ISO$3
 70
     0
  3

  4
"
  5

  6

  7

 40
1.0
 41
2.5
 42
1.0
 43
10.0
 44
1.0
 45
0.0
 46
0.0
 47
0.1
 48
0.1
140
3.5
141
0.0
142
0.0
143
0.0393701
144
1.0
145
0.0
146
0.71
147
1.5
 71
     0
 72
     0
 73
     0
 74
     1
 75
     0
 76
     0
 77
     1
 78
     8
170
     0
171
     2
172
     0
173
     0
174
     0
175
     0
176
   256
177
   256
178
     2
  0
DIMSTYLE
  2
AM_ISO$4
 70
     0
  3

  4
"
  5

  6

  7

 40
1.0
 41
2.5
 42
1.0
 43
10.0
 44
1.0
 45
0.0
 46
0.0
 47
0.1
 48
0.1
140
3.5
141
0.0
142
0.0
143
0.0393701
144
1.0
145
0.0
146
0.71
147
1.5
 71
     0
 72
     0
 73
     0
 74
     1
 75
     0
 76
     0
 77
     1
 78
     8
170
     0
171
     2
172
     0
173
     0
174
     0
175
     0
176
   256
177
   256
178
     2
  0
DIMSTYLE
  2
AM_ISO$6
 70
     0
  3

  4
"
  5

  6

  7

 40
1.0
 41
2.5
 42
1.0
 43
10.0
 44
1.0
 45
0.0
 46
0.0
 47
0.1
 48
0.1
140
3.5
141
0.0
142
0.0
143
0.0393701
144
1.0
145
0.0
146
0.71
147
1.5
 71
     0
 72
     0
 73
     0
 74
     0
 75
     0
 76
     0
 77
     0
 78
     8
170
     0
171
     2
172
     1
173
     0
174
     0
175
     0
176
   256
177
   256
178
     2
  0
DIMSTYLE
  2
AM_ISO$7
 70
     0
  3

  4
"
  5

  6

  7

 40
1.0
 41
2.5
 42
1.0
 43
10.0
 44
1.0
 45
0.0
 46
0.0
 47
0.1
 48
0.1
140
5.0
141
0.0
142
0.0
143
0.0393701
144
1.0
145
0.0
146
0.71
147
1.5
 71
     0
 72
     0
 73
     0
 74
     0
 75
     0
 76
     0
 77
     1
 78
     8
170
     0
171
     2
172
     1
173
     0
174
     0
175
     0
176
   256
177
   256
178
     2
  0
DIMSTYLE
  2
AM_ISO$SF
 70
     0
  3

  4
"
  5

  6

  7

 40
1.0
 41
2.5
 42
1.0
 43
10.0
 44
1.0
 45
0.0
 46
0.0
 47
0.1
 48
0.1
140
3.5
141
0.0
142
0.0
143
0.0393701
144
1.0
145
0.0
146
0.71
147
1.5
 71
     0
 72
     0
 73
     0
 74
     0
 75
     1
 76
     1
 77
     1
 78
     8
170
     0
171
     2
172
     1
173
     0
174
     0
175
     0
176
   256
177
   256
178
     2
  0
DIMSTYLE
  2
AM_ISO$SH
 70
     0
  3

  4
"
  5

  6
GENAXEH
  7

 40
1.0
 41
2.5
 42
1.0
 43
10.0
 44
1.0
 45
0.0
 46
0.0
 47
0.1
 48
0.1
140
3.5
141
0.0
142
0.0
143
0.0393701
144
2.0
145
0.0
146
0.71
147
1.5
 71
     0
 72
     0
 73
     0
 74
     0
 75
     1
 76
     1
 77
     1
 78
     8
170
     0
171
     2
172
     1
173
     1
174
     0
175
     0
176
   256
177
   256
178
     2
  0
DIMSTYLE
  2
BIGT$2
 70
     0
  3

  4

  5
OPEN
  6

  7

 40
1.0
 41
2.2299999999999991
 42
0.5
 43
7.0
 44
1.0
 45
0.0
 46
0.0
 47
0.0
 48
0.01
140
2.7999999999999989
141
0.0
142
0.0
143
25.399999999999999
144
1.0
145
0.0
146
1.0
147
1.0
 71
     0
 72
     0
 73
     0
 74
     0
 75
     0
 76
     0
 77
     3
 78
     9
170
     0
171
     2
172
     1
173
     0
174
     0
175
     0
176
   256
177
   256
178
    40
  0
DIMSTYLE
  2
BIGT$3
 70
     0
  3

  4

  5
OPEN
  6

  7

 40
1.0
 41
2.2299999999999991
 42
0.5
 43
2.5
 44
1.0
 45
0.0
 46
0.0
 47
0.0
 48
0.01
140
2.7999999999999989
141
0.0
142
0.0
143
25.399999999999999
144
1.0
145
0.0
146
1.0
147
1.0
 71
     0
 72
     0
 73
     0
 74
     0
 75
     0
 76
     0
 77
     3
 78
     9
170
     0
171
     2
172
     1
173
     0
174
     0
175
     0
176
   256
177
   256
178
    40
  0
DIMSTYLE
  2
BIGT$7
 70
     0
  3

  4

  5
OPEN
  6

  7

 40
0.0
 41
2.2299999999999991
 42
0.5
 43
7.0
 44
1.0
 45
0.0
 46
0.0
 47
0.0
 48
0.01
140
2.7999999999999989
141
0.0
142
0.0
143
25.399999999999999
144
1.0
145
0.0
146
1.0
147
1.0
 71
     0
 72
     0
 73
     0
 74
     0
 75
     0
 76
     0
 77
     3
 78
     9
170
     0
171
     2
172
     0
173
     0
174
     0
175
     0
176
   256
177
   256
178
    40
  0
DIMSTYLE
  2
BIGT$6
 70
     0
  3

  4

  5
OPEN
  6

  7

 40
1.0
 41
2.2299999999999991
 42
0.5
 43
2.5
 44
1.0
 45
0.0
 46
0.0
 47
0.0
 48
0.01
140
2.7999999999999989
141
0.0
142
0.0
143
25.399999999999999
144
1.0
145
0.0
146
1.0
147
1.0
 71
     0
 72
     0
 73
     0
 74
     0
 75
     0
 76
     0
 77
     3
 78
     9
170
     0
171
     2
172
     1
173
     0
174
     0
175
     0
176
   256
177
   256
178
    40
  0
DIMSTYLE
  2
BIGT$0
 70
     0
  3

  4

  5
OPEN
  6

  7

 40
1.0
 41
2.2299999999999991
 42
0.5
 43
7.0
 44
1.0
 45
0.0
 46
0.0
 47
0.0
 48
0.01
140
2.7999999999999989
141
0.0
142
0.0
143
25.399999999999999
144
1.0
145
0.0
146
1.0
147
1.0
 71
     0
 72
     0
 73
     0
 74
     0
 75
     0
 76
     0
 77
     3
 78
     9
170
     0
171
     2
172
     1
173
     0
174
     1
175
     0
176
   256
177
   256
178
    40
  0
DIMSTYLE
  2
BIGT$4
 70
     0
  3

  4

  5
OPEN
  6

  7

 40
1.0
 41
2.2299999999999991
 42
0.5
 43
2.5
 44
1.0
 45
0.0
 46
0.0
 47
0.0
 48
0.01
140
2.7999999999999989
141
0.0
142
0.0
143
25.399999999999999
144
1.0
145
0.0
146
1.0
147
1.0
 71
     0
 72
     0
 73
     0
 74
     0
 75
     0
 76
     0
 77
     3
 78
     9
170
     0
171
     2
172
     1
173
     0
174
     0
175
     0
176
   256
177
   256
178
    40
  0
DIMSTYLE
  2
BIGT$SH
 70
     0
  3

  4

  5
OPEN
  6

  7

 40
1.0
 41
2.2299999999999991
 42
0.5
 43
7.0
 44
1.0
 45
0.0
 46
0.0
 47
0.0
 48
0.0
140
2.7999999999999989
141
0.0
142
0.0
143
25.399999999999999
144
1.0
145
0.0
146
1.0
147
1.0
 71
     0
 72
     0
 73
     0
 74
     0
 75
     0
 76
     0
 77
     3
 78
     9
170
     0
171
     2
172
     1
173
     0
174
     0
175
     0
176
   256
177
   256
178
    40
  0
DIMSTYLE
  2
BIGT$SF
 70
     0
  3

  4

  5
OPEN
  6

  7

 40
1.0
 41
2.2299999999999991
 42
0.5
 43
7.0
 44
1.0
 45
0.0
 46
0.0
 47
0.0
 48
0.0
140
2.7999999999999989
141
0.0
142
0.0
143
25.399999999999999
144
1.0
145
0.0
146
1.0
147
1.0
 71
     0
 72
     0
 73
     0
 74
     0
 75
     0
 76
     0
 77
     3
 78
     9
170
     0
171
     2
172
     1
173
     0
174
     0
175
     0
176
   256
177
   256
178
    40
  0
DIMSTYLE
  2
TECHNICAL_OSAKA
 70
     0
  3

  4
"
  5
OPEN30
  6

  7

 40
1.0
 41
2.5
 42
1.0
 43
10.0
 44
1.0
 45
0.0
 46
0.0
 47
0.1
 48
0.1
140
2.7999999999999989
141
0.0
142
0.0
143
0.0393701
144
1.0
145
0.0
146
0.71
147
1.5
 71
     0
 72
     0
 73
     0
 74
     0
 75
     0
 76
     0
 77
     3
 78
     8
170
     0
171
     2
172
     1
173
     0
174
     0
175
     0
176
   256
177
   256
178
    40
  0
DIMSTYLE
  2
TECHNICAL_OSAKA$3
 70
     0
  3

  4
"
  5
OPEN30
  6

  7

 40
1.0
 41
2.5
 42
1.0
 43
10.0
 44
1.0
 45
0.0
 46
0.0
 47
0.1
 48
0.1
140
2.7999999999999989
141
0.0
142
0.0
143
0.0393701
144
1.0
145
0.0
146
0.71
147
1.5
 71
     0
 72
     0
 73
     0
 74
     1
 75
     0
 76
     0
 77
     3
 78
     8
170
     0
171
     2
172
     0
173
     0
174
     0
175
     0
176
   256
177
   256
178
    40
  0
DIMSTYLE
  2
TECHNICAL_OSAKA$4
 70
     0
  3

  4
"
  5
OPEN30
  6

  7

 40
1.0
 41
2.5
 42
1.0
 43
10.0
 44
1.0
 45
0.0
 46
0.0
 47
0.1
 48
0.1
140
2.7999999999999989
141
0.0
142
0.0
143
0.0393701
144
1.0
145
0.0
146
0.71
147
1.5
 71
     0
 72
     0
 73
     0
 74
     1
 75
     0
 76
     0
 77
     3
 78
     8
170
     0
171
     2
172
     0
173
     0
174
     0
175
     0
176
   256
177
   256
178
    40
  0
DIMSTYLE
  2
TECHNICAL_OSAKA$6
 70
     0
  3

  4
"
  5
OPEN30
  6

  7

 40
1.0
 41
2.5
 42
1.0
 43
10.0
 44
1.0
 45
0.0
 46
0.0
 47
0.1
 48
0.1
140
2.7999999999999989
141
0.0
142
0.0
143
0.0393701
144
1.0
145
0.0
146
0.71
147
1.5
 71
     0
 72
     0
 73
     0
 74
     0
 75
     0
 76
     0
 77
     0
 78
     8
170
     0
171
     2
172
     1
173
     0
174
     0
175
     0
176
   256
177
   256
178
    40
  0
DIMSTYLE
  2
TECHNICAL_OSAKA$7
 70
     0
  3

  4
"
  5
OPEN30
  6

  7

 40
1.0
 41
2.5
 42
1.0
 43
10.0
 44
1.0
 45
0.0
 46
0.0
 47
0.1
 48
0.1
140
2.7999999999999989
141
0.0
142
0.0
143
0.0393701
144
1.0
145
0.0
146
0.71
147
1.5
 71
     0
 72
     0
 73
     0
 74
     0
 75
     0
 76
     0
 77
     3
 78
     8
170
     0
171
     2
172
     1
173
     0
174
     0
175
     0
176
   256
177
   256
178
    40
  0
DIMSTYLE
  2
TECHNICAL_OSAKA$SF
 70
     0
  3

  4
"
  5
OPEN30
  6
OPEN30
  7
OPEN30
 40
1.0
 41
2.5
 42
1.0
 43
10.0
 44
1.0
 45
0.0
 46
0.0
 47
0.1
 48
0.1
140
3.5
141
0.0
142
0.0
143
0.0393701
144
1.0
145
0.0
146
0.71
147
1.5
 71
     0
 72
     0
 73
     0
 74
     0
 75
     1
 76
     1
 77
     3
 78
     8
170
     0
171
     2
172
     1
173
     0
174
     0
175
     0
176
   256
177
   256
178
    40
  0
DIMSTYLE
  2
TECHNICAL_OSAKA$SH
 70
     0
  3

  4
"
  5
OPEN30
  6
GENAXEH
  7
OPEN30
 40
1.0
 41
2.5
 42
1.0
 43
10.0
 44
1.0
 45
0.0
 46
0.0
 47
0.1
 48
0.1
140
3.5
141
0.0
142
0.0
143
0.0393701
144
2.0
145
0.0
146
0.71
147
1.5
 71
     0
 72
     0
 73
     0
 74
     0
 75
     1
 76
     1
 77
     3
 78
     8
170
     0
171
     2
172
     1
173
     1
174
     0
175
     0
176
   256
177
   256
178
    40
  0
ENDTAB
  0
ENDSEC
  0
SECTION
  2
BLOCKS
  0
BLOCK
  8
0
  2
$MODEL_SPACE
 70
     0
 10
0.0
 20
0.0
 30
0.0
  3
$MODEL_SPACE
  1

  0
ENDBLK
  5
1C
  8
0
  0
BLOCK
 67
     1
  8
0
  2
$PAPER_SPACE
 70
     0
 10
0.0
 20
0.0
 30
0.0
  3
$PAPER_SPACE
  1

  0
ENDBLK
  5
19
 67
     1
  8
0
  0
BLOCK
  8
0
  2
_OPEN
 70
     0
 10
0.0
 20
0.0
 30
0.0
  3
_OPEN
  1

  0
LINE
  5
449B
  8
0
  6
BYBLOCK
 62
     0
 10
-1.0
 20
0.1666666666666666
 30
0.0
 11
0.0
 21
0.0
 31
0.0
  0
LINE
  5
449C
  8
0
  6
BYBLOCK
 62
     0
 10
-1.0
 20
-0.1666666666666666
 30
0.0
 11
0.0
 21
0.0
 31
0.0
  0
LINE
  5
449D
  8
0
  6
BYBLOCK
 62
     0
 10
0.0
 20
0.0
 30
0.0
 11
-1.0
 21
0.0
 31
0.0
  0
ENDBLK
  5
449E
  8
0
  0
BLOCK
  8
0
  2
GENAXEH
 70
     0
 10
0.0
 20
0.0
 30
0.0
  3
GENAXEH
  1

  0
LINE
  5
44D6
  8
0
 10
-1.0
 20
0.0
 30
0.0
 11
1.0
 21
0.0
 31
0.0
  0
ENDBLK
  5
44D7
  8
0
  0
BLOCK
  8
0
  2
_OPEN30
 70
     0
 10
0.0
 20
0.0
 30
0.0
  3
_OPEN30
  1

  0
LINE
  5
4512
  8
0
  6
BYBLOCK
 62
     0
 10
-1.0
 20
0.26794919
 30
0.0
 11
0.0
 21
0.0
 31
0.0
  0
LINE
  5
4513
  8
0
  6
BYBLOCK
 62
     0
 10
0.0
 20
0.0
 30
0.0
 11
-1.0
 21
-0.26794919
 31
0.0
  0
LINE
  5
4514
  8
0
  6
BYBLOCK
 62
     0
 10
0.0
 20
0.0
 30
0.0
 11
-1.0
 21
0.0
 31
0.0
  0
ENDBLK
  5
4515
  8
0
  0
BLOCK
  8
0
  2
*U6
 70
     1
 10
0.0
 20
0.0
 30
0.0
  3
*U6
  1

  0
TEXT
  5
4589
  8
250
 10
29.009311297728459
 20
20.96828187947991
 30
0.0
 40
2.7999999999999989
  1
TC11
  7
ACJISTS
  0
ENDBLK
  5
458B
  8
0
  0
ENDSEC
  0
SECTION
  2
ENTITIES
  0
LINE
  5
41E9
  8
240
 10
-14.499999999993459
 20
0.0000000000000995
 30
0.0
 11
-4.3163286954582532
 21
0.0000000000000995
 31
0.0
1001
GRPNAME
1000
PASTMD2E
  0
POLYLINE
  8
240
  5
458C
  66
     1
 10
0.000000
 20
0.000000
 30
0.000000
  70
     8
  0
VERTEX
  8
240
  5
458D
 10
-5.51530
 20
9.19398
 30
0.000000
  70
    32
  0
VERTEX
  8
240
  5
458E
 10
-5.44593
 20
9.18452
 30
0.000000
  70
    32
  0
VERTEX
  8
240
  5
458F
 10
-5.37655
 20
9.17507
 30
0.000000
  70
    32
  0
VERTEX
  8
240
  5
4590
 10
-5.30718
 20
9.16563
 30
0.000000
  70
    32
  0
VERTEX
  8
240
  5
4591
 10
-5.23780
 20
9.15620
 30
0.000000
  70
    32
  0
VERTEX
  8
240
  5
4592
 10
-5.16843
 20
9.14678
 30
0.000000
  70
    32
  0
VERTEX
  8
240
  5
4593
 10
-5.09905
 20
9.13737
 30
0.000000
  70
    32
  0
VERTEX
  8
240
  5
4594
 10
-5.02968
 20
9.12798
 30
0.000000
  70
    32
  0
VERTEX
  8
240
  5
4595
 10
-4.96031
 20
9.11861
 30
0.000000
  70
    32
  0
VERTEX
  8
240
  5
4596
 10
-4.89093
 20
9.10927
 30
0.000000
  70
    32
  0
VERTEX
  8
240
  5
4597
 10
-4.82156
 20
9.09995
 30
0.000000
  70
    32
  0
VERTEX
  8
240
  5
4598
 10
-4.75218
 20
9.09066
 30
0.000000
  70
    32
  0
VERTEX
  8
240
  5
4599
 10
-4.68281
 20
9.08141
 30
0.000000
  70
    32
  0
VERTEX
  8
240
  5
459A
 10
-4.61343
 20
9.07219
 30
0.000000
  70
    32
  0
VERTEX
  8
240
  5
459B
 10
-4.54406
 20
9.06301
 30
0.000000
  70
    32
  0
VERTEX
  8
240
  5
459C
 10
-4.47468
 20
9.05387
 30
0.000000
  70
    32
  0
VERTEX
  8
240
  5
459D
 10
-4.40531
 20
9.04478
 30
0.000000
  70
    32
  0
VERTEX
  8
240
  5
459E
 10
-4.33593
 20
9.03573
 30
0.000000
  70
    32
  0
VERTEX
  8
240
  5
459F
 10
-4.26656
 20
9.02674
 30
0.000000
  70
    32
  0
VERTEX
  8
240
  5
45A0
 10
-4.19718
 20
9.01780
 30
0.000000
  70
    32
  0
VERTEX
  8
240
  5
45A1
 10
-4.12781
 20
9.00892
 30
0.000000
  70
    32
  0
VERTEX
  8
240
  5
45A2
 10
-4.05843
 20
9.00009
 30
0.000000
  70
    32
  0
VERTEX
  8
240
  5
45A3
 10
-3.98906
 20
8.99133
 30
0.000000
  70
    32
  0
VERTEX
  8
240
  5
45A4
 10
-3.91968
 20
8.98264
 30
0.000000
  70
    32
  0
VERTEX
  8
240
  5
45A5
 10
-3.85031
 20
8.97401
 30
0.000000
  70
    32
  0
VERTEX
  8
240
  5
45A6
 10
-3.78093
 20
8.96546
 30
0.000000
  70
    32
  0
VERTEX
  8
240
  5
45A7
 10
-3.71156
 20
8.95698
 30
0.000000
  70
    32
  0
VERTEX
  8
240
  5
45A8
 10
-3.64218
 20
8.94857
 30
0.000000
  70
    32
  0
VERTEX
  8
240
  5
45A9
 10
-3.57281
 20
8.94025
 30
0.000000
  70
    32
  0
VERTEX
  8
240
  5
45AA
 10
-3.50343
 20
8.93202
 30
0.000000
  70
    32
  0
VERTEX
  8
240
  5
45AB
 10
-3.43406
 20
8.92386
 30
0.000000
  70
    32
  0
VERTEX
  8
240
  5
45AC
 10
-3.36468
 20
8.91580
 30
0.000000
  70
    32
  0
VERTEX
  8
240
  5
45AD
 10
-3.29531
 20
8.90784
 30
0.000000
  70
    32
  0
VERTEX
  8
240
  5
45AE
 10
-3.22593
 20
8.89996
 30
0.000000
  70
    32
  0
VERTEX
  8
240
  5
45AF
 10
-3.15656
 20
8.89219
 30
0.000000
  70
    32
  0
VERTEX
  8
240
  5
45B0
 10
-3.08718
 20
8.88452
 30
0.000000
  70
    32
  0
VERTEX
  8
240
  5
45B1
 10
-3.01781
 20
8.87695
 30
0.000000
  70
    32
  0
VERTEX
  8
240
  5
45B2
 10
-2.94843
 20
8.86949
 30
0.000000
  70
    32
  0
VERTEX
  8
240
  5
45B3
 10
-2.87906
 20
8.86214
 30
0.000000
  70
    32
  0
VERTEX
  8
240
  5
45B4
 10
-2.80968
 20
8.85491
 30
0.000000
  70
    32
  0
VERTEX
  8
240
  5
45B5
 10
-2.74031
 20
8.84779
 30
0.000000
  70
    32
  0
VERTEX
  8
240
  5
45B6
 10
-2.67093
 20
8.84079
 30
0.000000
  70
    32
  0
VERTEX
  8
240
  5
45B7
 10
-2.60156
 20
8.83391
 30
0.000000
  70
    32
  0
VERTEX
  8
240
  5
45B8
 10
-2.53218
 20
8.82716
 30
0.000000
  70
    32
  0
VERTEX
  8
240
  5
45B9
 10
-2.46281
 20
8.82054
 30
0.000000
  70
    32
  0
VERTEX
  8
240
  5
45BA
 10
-2.39343
 20
8.81405
 30
0.000000
  70
    32
  0
VERTEX
  8
240
  5
45BB
 10
-2.32406
 20
8.80769
 30
0.000000
  70
    32
  0
VERTEX
  8
240
  5
45BC
 10
-2.25468
 20
8.80147
 30
0.000000
  70
    32
  0
VERTEX
  8
240
  5
45BD
 10
-2.18531
 20
8.79539
 30
0.000000
  70
    32
  0
VERTEX
  8
240
  5
45BE
 10
-2.11593
 20
8.78946
 30
0.000000
  70
    32
  0
VERTEX
  8
240
  5
45BF
 10
-2.04656
 20
8.78367
 30
0.000000
  70
    32
  0
VERTEX
  8
240
  5
45C0
 10
-1.97718
 20
8.77803
 30
0.000000
  70
    32
  0
VERTEX
  8
240
  5
45C1
 10
-1.90781
 20
8.77255
 30
0.000000
  70
    32
  0
VERTEX
  8
240
  5
45C2
 10
-1.83843
 20
8.76722
 30
0.000000
  70
    32
  0
VERTEX
  8
240
  5
45C3
 10
-1.76906
 20
8.76205
 30
0.000000
  70
    32
  0
VERTEX
  8
240
  5
45C4
 10
-1.69968
 20
8.75704
 30
0.000000
  70
    32
  0
VERTEX
  8
240
  5
45C5
 10
-1.63031
 20
8.75219
 30
0.000000
  70
    32
  0
VERTEX
  8
240
  5
45C6
 10
-1.56094
 20
8.74751
 30
0.000000
  70
    32
  0
VERTEX
  8
240
  5
45C7
 10
-1.49156
 20
8.74301
 30
0.000000
  70
    32
  0
VERTEX
  8
240
  5
45C8
 10
-1.42219
 20
8.73867
 30
0.000000
  70
    32
  0
VERTEX
  8
240
  5
45C9
 10
-1.35281
 20
8.73451
 30
0.000000
  70
    32
  0
VERTEX
  8
240
  5
45CA
 10
-1.28344
 20
8.73054
 30
0.000000
  70
    32
  0
VERTEX
  8
240
  5
45CB
 10
-1.21406
 20
8.72674
 30
0.000000
  70
    32
  0
VERTEX
  8
240
  5
45CC
 10
-1.14469
 20
8.72313
 30
0.000000
  70
    32
  0
VERTEX
  8
240
  5
45CD
 10
-1.07531
 20
8.71971
 30
0.000000
  70
    32
  0
VERTEX
  8
240
  5
45CE
 10
-1.00594
 20
8.71648
 30
0.000000
  70
    32
  0
VERTEX
  8
240
  5
45CF
 10
-0.936561
 20
8.71344
 30
0.000000
  70
    32
  0
VERTEX
  8
240
  5
45D0
 10
-0.867186
 20
8.71060
 30
0.000000
  70
    32
  0
VERTEX
  8
240
  5
45D1
 10
-0.797811
 20
8.70797
 30
0.000000
  70
    32
  0
VERTEX
  8
240
  5
45D2
 10
-0.728436
 20
8.70553
 30
0.000000
  70
    32
  0
VERTEX
  8
240
  5
45D3
 10
-0.659062
 20
8.70330
 30
0.000000
  70
    32
  0
VERTEX
  8
240
  5
45D4
 10
-0.589687
 20
8.70128
 30
0.000000
  70
    32
  0
VERTEX
  8
240
  5
45D5
 10
-0.520312
 20
8.69948
 30
0.000000
  70
    32
  0
VERTEX
  8
240
  5
45D6
 10
-0.450937
 20
8.69789
 30
0.000000
  70
    32
  0
VERTEX
  8
240
  5
45D7
 10
-0.381562
 20
8.69651
 30
0.000000
  70
    32
  0
VERTEX
  8
240
  5
45D8
 10
-0.312187
 20
8.69536
 30
0.000000
  70
    32
  0
VERTEX
  8
240
  5
45D9
 10
-0.242812
 20
8.69444
 30
0.000000
  70
    32
  0
VERTEX
  8
240
  5
45DA
 10
-0.173437
 20
8.69374
 30
0.000000
  70
    32
  0
VERTEX
  8
240
  5
45DB
 10
-0.104062
 20
8.69327
 30
0.000000
  70
    32
  0
VERTEX
  8
240
  5
45DC
 10
-0.0346874
 20
8.69303
 30
0.000000
  70
    32
  0
VERTEX
  8
240
  5
45DD
 10
0.0346874
 20
8.69303
 30
0.000000
  70
    32
  0
VERTEX
  8
240
  5
45DE
 10
0.104062
 20
8.69327
 30
0.000000
  70
    32
  0
VERTEX
  8
240
  5
45DF
 10
0.173437
 20
8.69374
 30
0.000000
  70
    32
  0
VERTEX
  8
240
  5
45E0
 10
0.242812
 20
8.69444
 30
0.000000
  70
    32
  0
VERTEX
  8
240
  5
45E1
 10
0.312187
 20
8.69536
 30
0.000000
  70
    32
  0
VERTEX
  8
240
  5
45E2
 10
0.381562
 20
8.69651
 30
0.000000
  70
    32
  0
VERTEX
  8
240
  5
45E3
 10
0.450937
 20
8.69789
 30
0.000000
  70
    32
  0
VERTEX
  8
240
  5
45E4
 10
0.520312
 20
8.69948
 30
0.000000
  70
    32
  0
VERTEX
  8
240
  5
45E5
 10
0.589687
 20
8.70128
 30
0.000000
  70
    32
  0
VERTEX
  8
240
  5
45E6
 10
0.659062
 20
8.70330
 30
0.000000
  70
    32
  0
VERTEX
  8
240
  5
45E7
 10
0.728436
 20
8.70553
 30
0.000000
  70
    32
  0
VERTEX
  8
240
  5
45E8
 10
0.797811
 20
8.70797
 30
0.000000
  70
    32
  0
VERTEX
  8
240
  5
45E9
 10
0.867186
 20
8.71060
 30
0.000000
  70
    32
  0
VERTEX
  8
240
  5
45EA
 10
0.936561
 20
8.71344
 30
0.000000
  70
    32
  0
VERTEX
  8
240
  5
45EB
 10
1.00594
 20
8.71648
 30
0.000000
  70
    32
  0
VERTEX
  8
240
  5
45EC
 10
1.07531
 20
8.71971
 30
0.000000
  70
    32
  0
VERTEX
  8
240
  5
45ED
 10
1.14469
 20
8.72313
 30
0.000000
  70
    32
  0
VERTEX
  8
240
  5
45EE
 10
1.21406
 20
8.72674
 30
0.000000
  70
    32
  0
VERTEX
  8
240
  5
45EF
 10
1.28344
 20
8.73054
 30
0.000000
  70
    32
  0
VERTEX
  8
240
  5
45F0
 10
1.35281
 20
8.73451
 30
0.000000
  70
    32
  0
VERTEX
  8
240
  5
45F1
 10
1.42219
 20
8.73867
 30
0.000000
  70
    32
  0
VERTEX
  8
240
  5
45F2
 10
1.49156
 20
8.74301
 30
0.000000
  70
    32
  0
VERTEX
  8
240
  5
45F3
 10
1.56094
 20
8.74751
 30
0.000000
  70
    32
  0
VERTEX
  8
240
  5
45F4
 10
1.63031
 20
8.75219
 30
0.000000
  70
    32
  0
VERTEX
  8
240
  5
45F5
 10
1.69968
 20
8.75704
 30
0.000000
  70
    32
  0
VERTEX
  8
240
  5
45F6
 10
1.76906
 20
8.76205
 30
0.000000
  70
    32
  0
VERTEX
  8
240
  5
45F7
 10
1.83843
 20
8.76722
 30
0.000000
  70
    32
  0
VERTEX
  8
240
  5
45F8
 10
1.90781
 20
8.77255
 30
0.000000
  70
    32
  0
VERTEX
  8
240
  5
45F9
 10
1.97718
 20
8.77803
 30
0.000000
  70
    32
  0
VERTEX
  8
240
  5
45FA
 10
2.04656
 20
8.78367
 30
0.000000
  70
    32
  0
VERTEX
  8
240
  5
45FB
 10
2.11593
 20
8.78946
 30
0.000000
  70
    32
  0
VERTEX
  8
240
  5
45FC
 10
2.18531
 20
8.79539
 30
0.000000
  70
    32
  0
VERTEX
  8
240
  5
45FD
 10
2.25468
 20
8.80147
 30
0.000000
  70
    32
  0
VERTEX
  8
240
  5
45FE
 10
2.32406
 20
8.80769
 30
0.000000
  70
    32
  0
VERTEX
  8
240
  5
45FF
 10
2.39343
 20
8.81405
 30
0.000000
  70
    32
  0
VERTEX
  8
240
  5
4600
 10
2.46281
 20
8.82054
 30
0.000000
  70
    32
  0
VERTEX
  8
240
  5
4601
 10
2.53218
 20
8.82716
 30
0.000000
  70
    32
  0
VERTEX
  8
240
  5
4602
 10
2.60156
 20
8.83391
 30
0.000000
  70
    32
  0
VERTEX
  8
240
  5
4603
 10
2.67093
 20
8.84079
 30
0.000000
  70
    32
  0
VERTEX
  8
240
  5
4604
 10
2.74031
 20
8.84779
 30
0.000000
  70
    32
  0
VERTEX
  8
240
  5
4605
 10
2.80968
 20
8.85491
 30
0.000000
  70
    32
  0
VERTEX
  8
240
  5
4606
 10
2.87906
 20
8.86214
 30
0.000000
  70
    32
  0
VERTEX
  8
240
  5
4607
 10
2.94843
 20
8.86949
 30
0.000000
  70
    32
  0
VERTEX
  8
240
  5
4608
 10
3.01781
 20
8.87695
 30
0.000000
  70
    32
  0
VERTEX
  8
240
  5
4609
 10
3.08718
 20
8.88452
 30
0.000000
  70
    32
  0
VERTEX
  8
240
  5
460A
 10
3.15656
 20
8.89219
 30
0.000000
  70
    32
  0
VERTEX
  8
240
  5
460B
 10
3.22593
 20
8.89996
 30
0.000000
  70
    32
  0
VERTEX
  8
240
  5
460C
 10
3.29531
 20
8.90784
 30
0.000000
  70
    32
  0
VERTEX
  8
240
  5
460D
 10
3.36468
 20
8.91580
 30
0.000000
  70
    32
  0
VERTEX
  8
240
  5
460E
 10
3.43406
 20
8.92386
 30
0.000000
  70
    32
  0
VERTEX
  8
240
  5
460F
 10
3.50343
 20
8.93202
 30
0.000000
  70
    32
  0
VERTEX
  8
240
  5
4610
 10
3.57281
 20
8.94025
 30
0.000000
  70
    32
  0
VERTEX
  8
240
  5
4611
 10
3.64218
 20
8.94857
 30
0.000000
  70
    32
  0
VERTEX
  8
240
  5
4612
 10
3.71156
 20
8.95698
 30
0.000000
  70
    32
  0
VERTEX
  8
240
  5
4613
 10
3.78093
 20
8.96546
 30
0.000000
  70
    32
  0
VERTEX
  8
240
  5
4614
 10
3.85031
 20
8.97401
 30
0.000000
  70
    32
  0
VERTEX
  8
240
  5
4615
 10
3.91968
 20
8.98264
 30
0.000000
  70
    32
  0
VERTEX
  8
240
  5
4616
 10
3.98906
 20
8.99133
 30
0.000000
  70
    32
  0
VERTEX
  8
240
  5
4617
 10
4.05843
 20
9.00009
 30
0.000000
  70
    32
  0
VERTEX
  8
240
  5
4618
 10
4.12781
 20
9.00892
 30
0.000000
  70
    32
  0
VERTEX
  8
240
  5
4619
 10
4.19718
 20
9.01780
 30
0.000000
  70
    32
  0
VERTEX
  8
240
  5
461A
 10
4.26656
 20
9.02674
 30
0.000000
  70
    32
  0
VERTEX
  8
240
  5
461B
 10
4.33593
 20
9.03573
 30
0.000000
  70
    32
  0
VERTEX
  8
240
  5
461C
 10
4.40531
 20
9.04478
 30
0.000000
  70
    32
  0
VERTEX
  8
240
  5
461D
 10
4.47468
 20
9.05387
 30
0.000000
  70
    32
  0
VERTEX
  8
240
  5
461E
 10
4.54406
 20
9.06301
 30
0.000000
  70
    32
  0
VERTEX
  8
240
  5
461F
 10
4.61343
 20
9.07219
 30
0.000000
  70
    32
  0
VERTEX
  8
240
  5
4620
 10
4.68281
 20
9.08141
 30
0.000000
  70
    32
  0
VERTEX
  8
240
  5
4621
 10
4.75218
 20
9.09066
 30
0.000000
  70
    32
  0
VERTEX
  8
240
  5
4622
 10
4.82156
 20
9.09995
 30
0.000000
  70
    32
  0
VERTEX
  8
240
  5
4623
 10
4.89093
 20
9.10927
 30
0.000000
  70
    32
  0
VERTEX
  8
240
  5
4624
 10
4.96031
 20
9.11861
 30
0.000000
  70
    32
  0
VERTEX
  8
240
  5
4625
 10
5.02968
 20
9.12798
 30
0.000000
  70
    32
  0
VERTEX
  8
240
  5
4626
 10
5.09905
 20
9.13737
 30
0.000000
  70
    32
  0
VERTEX
  8
240
  5
4627
 10
5.16843
 20
9.14678
 30
0.000000
  70
    32
  0
VERTEX
  8
240
  5
4628
 10
5.23780
 20
9.15620
 30
0.000000
  70
    32
  0
VERTEX
  8
240
  5
4629
 10
5.30718
 20
9.16563
 30
0.000000
  70
    32
  0
VERTEX
  8
240
  5
462A
 10
5.37655
 20
9.17507
 30
0.000000
  70
    32
  0
VERTEX
  8
240
  5
462B
 10
5.44593
 20
9.18452
 30
0.000000
  70
    32
  0
VERTEX
  8
240
  5
462C
 10
5.51530
 20
9.19398
 30
0.000000
  70
    32
  0
SEQEND
  8
240
  5
462D
  0
LINE
  5
41EB
  8
240
 10
-14.499999999993459
 20
0.0000000000000995
 30
0.0
 11
-14.499999999993459
 21
6.5000000000000986
 31
0.0
1001
GRPNAME
1000
PASTMD2E
  0
ARC
  5
41EC
  8
240
 10
-11.499999999993459
 20
6.5000000000000986
 30
0.0
 40
3.0
 50
89.999999989708229
 51
179.99999998971069
1001
GRPNAME
1000
PASTMD2E
  0
LINE
  5
41ED
  8
240
 10
-11.499999999993459
 20
9.5000000000000995
 30
0.0
 11
-6.999999999993463
 21
9.5000000000000995
 31
0.0
1001
GRPNAME
1000
PASTMD2E
  0
POLYLINE
  8
240
  5
462E
  66
     1
 10
0.000000
 20
0.000000
 30
0.000000
  70
     8
  0
VERTEX
  8
240
  5
462F
 10
-7.00000
 20
9.50000
 30
0.000000
  70
    32
  0
VERTEX
  8
240
  5
4630
 10
-6.99070
 20
9.49791
 30
0.000000
  70
    32
  0
VERTEX
  8
240
  5
4631
 10
-6.98139
 20
9.49582
 30
0.000000
  70
    32
  0
VERTEX
  8
240
  5
4632
 10
-6.97209
 20
9.49373
 30
0.000000
  70
    32
  0
VERTEX
  8
240
  5
4633
 10
-6.96278
 20
9.49165
 30
0.000000
  70
    32
  0
VERTEX
  8
240
  5
4634
 10
-6.95348
 20
9.48956
 30
0.000000
  70
    32
  0
VERTEX
  8
240
  5
4635
 10
-6.94418
 20
9.48747
 30
0.000000
  70
    32
  0
VERTEX
  8
240
  5
4636
 10
-6.93487
 20
9.48538
 30
0.000000
  70
    32
  0
VERTEX
  8
240
  5
4637
 10
-6.92557
 20
9.48329
 30
0.000000
  70
    32
  0
VERTEX
  8
240
  5
4638
 10
-6.91626
 20
9.48121
 30
0.000000
  70
    32
  0
VERTEX
  8
240
  5
4639
 10
-6.90696
 20
9.47912
 30
0.000000
  70
    32
  0
VERTEX
  8
240
  5
463A
 10
-6.89765
 20
9.47703
 30
0.000000
  70
    32
  0
VERTEX
  8
240
  5
463B
 10
-6.88835
 20
9.47495
 30
0.000000
  70
    32
  0
VERTEX
  8
240
  5
463C
 10
-6.87905
 20
9.47286
 30
0.000000
  70
    32
  0
VERTEX
  8
240
  5
463D
 10
-6.86974
 20
9.47078
 30
0.000000
  70
    32
  0
VERTEX
  8
240
  5
463E
 10
-6.86044
 20
9.46870
 30
0.000000
  70
    32
  0
VERTEX
  8
240
  5
463F
 10
-6.85113
 20
9.46661
 30
0.000000
  70
    32
  0
VERTEX
  8
240
  5
4640
 10
-6.84183
 20
9.46453
 30
0.000000
  70
    32
  0
VERTEX
  8
240
  5
4641
 10
-6.83252
 20
9.46245
 30
0.000000
  70
    32
  0
VERTEX
  8
240
  5
4642
 10
-6.82321
 20
9.46037
 30
0.000000
  70
    32
  0
VERTEX
  8
240
  5
4643
 10
-6.81391
 20
9.45829
 30
0.000000
  70
    32
  0
VERTEX
  8
240
  5
4644
 10
-6.80460
 20
9.45621
 30
0.000000
  70
    32
  0
VERTEX
  8
240
  5
4645
 10
-6.79530
 20
9.45414
 30
0.000000
  70
    32
  0
VERTEX
  8
240
  5
4646
 10
-6.78599
 20
9.45206
 30
0.000000
  70
    32
  0
VERTEX
  8
240
  5
4647
 10
-6.77668
 20
9.44999
 30
0.000000
  70
    32
  0
VERTEX
  8
240
  5
4648
 10
-6.76738
 20
9.44791
 30
0.000000
  70
    32
  0
VERTEX
  8
240
  5
4649
 10
-6.75807
 20
9.44584
 30
0.000000
  70
    32
  0
VERTEX
  8
240
  5
464A
 10
-6.74876
 20
9.44377
 30
0.000000
  70
    32
  0
VERTEX
  8
240
  5
464B
 10
-6.73945
 20
9.44170
 30
0.000000
  70
    32
  0
VERTEX
  8
240
  5
464C
 10
-6.73014
 20
9.43964
 30
0.000000
  70
    32
  0
VERTEX
  8
240
  5
464D
 10
-6.72084
 20
9.43757
 30
0.000000
  70
    32
  0
VERTEX
  8
240
  5
464E
 10
-6.71153
 20
9.43550
 30
0.000000
  70
    32
  0
VERTEX
  8
240
  5
464F
 10
-6.70222
 20
9.43344
 30
0.000000
  70
    32
  0
VERTEX
  8
240
  5
4650
 10
-6.69291
 20
9.43138
 30
0.000000
  70
    32
  0
VERTEX
  8
240
  5
4651
 10
-6.68360
 20
9.42932
 30
0.000000
  70
    32
  0
VERTEX
  8
240
  5
4652
 10
-6.67429
 20
9.42726
 30
0.000000
  70
    32
  0
VERTEX
  8
240
  5
4653
 10
-6.66498
 20
9.42521
 30
0.000000
  70
    32
  0
VERTEX
  8
240
  5
4654
 10
-6.65567
 20
9.42315
 30
0.000000
  70
    32
  0
VERTEX
  8
240
  5
4655
 10
-6.64635
 20
9.42110
 30
0.000000
  70
    32
  0
VERTEX
  8
240
  5
4656
 10
-6.63704
 20
9.41905
 30
0.000000
  70
    32
  0
VERTEX
  8
240
  5
4657
 10
-6.62773
 20
9.41700
 30
0.000000
  70
    32
  0
VERTEX
  8
240
  5
4658
 10
-6.61842
 20
9.41495
 30
0.000000
  70
    32
  0
VERTEX
  8
240
  5
4659
 10
-6.60910
 20
9.41291
 30
0.000000
  70
    32
  0
VERTEX
  8
240
  5
465A
 10
-6.59979
 20
9.41087
 30
0.000000
  70
    32
  0
VERTEX
  8
240
  5
465B
 10
-6.59048
 20
9.40883
 30
0.000000
  70
    32
  0
VERTEX
  8
240
  5
465C
 10
-6.58116
 20
9.40679
 30
0.000000
  70
    32
  0
VERTEX
  8
240
  5
465D
 10
-6.57185
 20
9.40476
 30
0.000000
  70
    32
  0
VERTEX
  8
240
  5
465E
 10
-6.56253
 20
9.40272
 30
0.000000
  70
    32
  0
VERTEX
  8
240
  5
465F
 10
-6.55322
 20
9.40069
 30
0.000000
  70
    32
  0
VERTEX
  8
240
  5
4660
 10
-6.54390
 20
9.39866
 30
0.000000
  70
    32
  0
VERTEX
  8
240
  5
4661
 10
-6.53458
 20
9.39664
 30
0.000000
  70
    32
  0
VERTEX
  8
240
  5
4662
 10
-6.52527
 20
9.39462
 30
0.000000
  70
    32
  0
VERTEX
  8
240
  5
4663
 10
-6.51595
 20
9.39260
 30
0.000000
  70
    32
  0
VERTEX
  8
240
  5
4664
 10
-6.50663
 20
9.39058
 30
0.000000
  70
    32
  0
VERTEX
  8
240
  5
4665
 10
-6.49731
 20
9.38856
 30
0.000000
  70
    32
  0
VERTEX
  8
240
  5
4666
 10
-6.48799
 20
9.38655
 30
0.000000
  70
    32
  0
VERTEX
  8
240
  5
4667
 10
-6.47867
 20
9.38454
 30
0.000000
  70
    32
  0
VERTEX
  8
240
  5
4668
 10
-6.46935
 20
9.38254
 30
0.000000
  70
    32
  0
VERTEX
  8
240
  5
4669
 10
-6.46003
 20
9.38053
 30
0.000000
  70
    32
  0
VERTEX
  8
240
  5
466A
 10
-6.45071
 20
9.37853
 30
0.000000
  70
    32
  0
VERTEX
  8
240
  5
466B
 10
-6.44138
 20
9.37654
 30
0.000000
  70
    32
  0
VERTEX
  8
240
  5
466C
 10
-6.43206
 20
9.37454
 30
0.000000
  70
    32
  0
VERTEX
  8
240
  5
466D
 10
-6.42273
 20
9.37255
 30
0.000000
  70
    32
  0
VERTEX
  8
240
  5
466E
 10
-6.41341
 20
9.37057
 30
0.000000
  70
    32
  0
VERTEX
  8
240
  5
466F
 10
-6.40408
 20
9.36858
 30
0.000000
  70
    32
  0
VERTEX
  8
240
  5
4670
 10
-6.39476
 20
9.36660
 30
0.000000
  70
    32
  0
VERTEX
  8
240
  5
4671
 10
-6.38543
 20
9.36462
 30
0.000000
  70
    32
  0
VERTEX
  8
240
  5
4672
 10
-6.37610
 20
9.36265
 30
0.000000
  70
    32
  0
VERTEX
  8
240
  5
4673
 10
-6.36678
 20
9.36068
 30
0.000000
  70
    32
  0
VERTEX
  8
240
  5
4674
 10
-6.35745
 20
9.35871
 30
0.000000
  70
    32
  0
VERTEX
  8
240
  5
4675
 10
-6.34812
 20
9.35675
 30
0.000000
  70
    32
  0
VERTEX
  8
240
  5
4676
 10
-6.33879
 20
9.35479
 30
0.000000
  70
    32
  0
VERTEX
  8
240
  5
4677
 10
-6.32946
 20
9.35283
 30
0.000000
  70
    32
  0
VERTEX
  8
240
  5
4678
 10
-6.32012
 20
9.35088
 30
0.000000
  70
    32
  0
VERTEX
  8
240
  5
4679
 10
-6.31079
 20
9.34893
 30
0.000000
  70
    32
  0
VERTEX
  8
240
  5
467A
 10
-6.30146
 20
9.34698
 30
0.000000
  70
    32
  0
VERTEX
  8
240
  5
467B
 10
-6.29212
 20
9.34504
 30
0.000000
  70
    32
  0
VERTEX
  8
240
  5
467C
 10
-6.28279
 20
9.34311
 30
0.000000
  70
    32
  0
VERTEX
  8
240
  5
467D
 10
-6.27345
 20
9.34117
 30
0.000000
  70
    32
  0
VERTEX
  8
240
  5
467E
 10
-6.26412
 20
9.33924
 30
0.000000
  70
    32
  0
VERTEX
  8
240
  5
467F
 10
-6.25478
 20
9.33732
 30
0.000000
  70
    32
  0
VERTEX
  8
240
  5
4680
 10
-6.24544
 20
9.33540
 30
0.000000
  70
    32
  0
VERTEX
  8
240
  5
4681
 10
-6.23610
 20
9.33348
 30
0.000000
  70
    32
  0
VERTEX
  8
240
  5
4682
 10
-6.22676
 20
9.33157
 30
0.000000
  70
    32
  0
VERTEX
  8
240
  5
4683
 10
-6.21742
 20
9.32966
 30
0.000000
  70
    32
  0
VERTEX
  8
240
  5
4684
 10
-6.20808
 20
9.32776
 30
0.000000
  70
    32
  0
VERTEX
  8
240
  5
4685
 10
-6.19873
 20
9.32585
 30
0.000000
  70
    32
  0
VERTEX
  8
240
  5
4686
 10
-6.18939
 20
9.32396
 30
0.000000
  70
    32
  0
VERTEX
  8
240
  5
4687
 10
-6.18005
 20
9.32206
 30
0.000000
  70
    32
  0
VERTEX
  8
240
  5
4688
 10
-6.17070
 20
9.32017
 30
0.000000
  70
    32
  0
VERTEX
  8
240
  5
4689
 10
-6.16136
 20
9.31829
 30
0.000000
  70
    32
  0
VERTEX
  8
240
  5
468A
 10
-6.15201
 20
9.31641
 30
0.000000
  70
    32
  0
VERTEX
  8
240
  5
468B
 10
-6.14266
 20
9.31453
 30
0.000000
  70
    32
  0
VERTEX
  8
240
  5
468C
 10
-6.13331
 20
9.31265
 30
0.000000
  70
    32
  0
VERTEX
  8
240
  5
468D
 10
-6.12397
 20
9.31078
 30
0.000000
  70
    32
  0
VERTEX
  8
240
  5
468E
 10
-6.11462
 20
9.30891
 30
0.000000
  70
    32
  0
VERTEX
  8
240
  5
468F
 10
-6.10527
 20
9.30704
 30
0.000000
  70
    32
  0
VERTEX
  8
240
  5
4690
 10
-6.09592
 20
9.30518
 30
0.000000
  70
    32
  0
VERTEX
  8
240
  5
4691
 10
-6.08657
 20
9.30332
 30
0.000000
  70
    32
  0
VERTEX
  8
240
  5
4692
 10
-6.07721
 20
9.30147
 30
0.000000
  70
    32
  0
VERTEX
  8
240
  5
4693
 10
-6.06786
 20
9.29962
 30
0.000000
  70
    32
  0
VERTEX
  8
240
  5
4694
 10
-6.05851
 20
9.29777
 30
0.000000
  70
    32
  0
VERTEX
  8
240
  5
4695
 10
-6.04915
 20
9.29592
 30
0.000000
  70
    32
  0
VERTEX
  8
240
  5
4696
 10
-6.03980
 20
9.29408
 30
0.000000
  70
    32
  0
VERTEX
  8
240
  5
4697
 10
-6.03044
 20
9.29224
 30
0.000000
  70
    32
  0
VERTEX
  8
240
  5
4698
 10
-6.02109
 20
9.29040
 30
0.000000
  70
    32
  0
VERTEX
  8
240
  5
4699
 10
-6.01173
 20
9.28856
 30
0.000000
  70
    32
  0
VERTEX
  8
240
  5
469A
 10
-6.00238
 20
9.28673
 30
0.000000
  70
    32
  0
VERTEX
  8
240
  5
469B
 10
-5.99302
 20
9.28490
 30
0.000000
  70
    32
  0
VERTEX
  8
240
  5
469C
 10
-5.98366
 20
9.28308
 30
0.000000
  70
    32
  0
VERTEX
  8
240
  5
469D
 10
-5.97430
 20
9.28125
 30
0.000000
  70
    32
  0
VERTEX
  8
240
  5
469E
 10
-5.96494
 20
9.27943
 30
0.000000
  70
    32
  0
VERTEX
  8
240
  5
469F
 10
-5.95558
 20
9.27761
 30
0.000000
  70
    32
  0
VERTEX
  8
240
  5
46A0
 10
-5.94622
 20
9.27579
 30
0.000000
  70
    32
  0
VERTEX
  8
240
  5
46A1
 10
-5.93686
 20
9.27398
 30
0.000000
  70
    32
  0
VERTEX
  8
240
  5
46A2
 10
-5.92750
 20
9.27217
 30
0.000000
  70
    32
  0
VERTEX
  8
240
  5
46A3
 10
-5.91814
 20
9.27036
 30
0.000000
  70
    32
  0
VERTEX
  8
240
  5
46A4
 10
-5.90878
 20
9.26855
 30
0.000000
  70
    32
  0
VERTEX
  8
240
  5
46A5
 10
-5.89942
 20
9.26675
 30
0.000000
  70
    32
  0
VERTEX
  8
240
  5
46A6
 10
-5.89005
 20
9.26494
 30
0.000000
  70
    32
  0
VERTEX
  8
240
  5
46A7
 10
-5.88069
 20
9.26314
 30
0.000000
  70
    32
  0
VERTEX
  8
240
  5
46A8
 10
-5.87133
 20
9.26134
 30
0.000000
  70
    32
  0
VERTEX
  8
240
  5
46A9
 10
-5.86196
 20
9.25955
 30
0.000000
  70
    32
  0
VERTEX
  8
240
  5
46AA
 10
-5.85260
 20
9.25775
 30
0.000000
  70
    32
  0
VERTEX
  8
240
  5
46AB
 10
-5.84323
 20
9.25596
 30
0.000000
  70
    32
  0
VERTEX
  8
240
  5
46AC
 10
-5.83387
 20
9.25417
 30
0.000000
  70
    32
  0
VERTEX
  8
240
  5
46AD
 10
-5.82450
 20
9.25238
 30
0.000000
  70
    32
  0
VERTEX
  8
240
  5
46AE
 10
-5.81514
 20
9.25059
 30
0.000000
  70
    32
  0
VERTEX
  8
240
  5
46AF
 10
-5.80577
 20
9.24880
 30
0.000000
  70
    32
  0
VERTEX
  8
240
  5
46B0
 10
-5.79640
 20
9.24702
 30
0.000000
  70
    32
  0
VERTEX
  8
240
  5
46B1
 10
-5.78704
 20
9.24524
 30
0.000000
  70
    32
  0
VERTEX
  8
240
  5
46B2
 10
-5.77767
 20
9.24345
 30
0.000000
  70
    32
  0
VERTEX
  8
240
  5
46B3
 10
-5.76830
 20
9.24167
 30
0.000000
  70
    32
  0
VERTEX
  8
240
  5
46B4
 10
-5.75893
 20
9.23990
 30
0.000000
  70
    32
  0
VERTEX
  8
240
  5
46B5
 10
-5.74957
 20
9.23812
 30
0.000000
  70
    32
  0
VERTEX
  8
240
  5
46B6
 10
-5.74020
 20
9.23634
 30
0.000000
  70
    32
  0
VERTEX
  8
240
  5
46B7
 10
-5.73083
 20
9.23457
 30
0.000000
  70
    32
  0
VERTEX
  8
240
  5
46B8
 10
-5.72146
 20
9.23279
 30
0.000000
  70
    32
  0
VERTEX
  8
240
  5
46B9
 10
-5.71209
 20
9.23102
 30
0.000000
  70
    32
  0
VERTEX
  8
240
  5
46BA
 10
-5.70272
 20
9.22925
 30
0.000000
  70
    32
  0
VERTEX
  8
240
  5
46BB
 10
-5.69335
 20
9.22748
 30
0.000000
  70
    32
  0
VERTEX
  8
240
  5
46BC
 10
-5.68398
 20
9.22571
 30
0.000000
  70
    32
  0
VERTEX
  8
240
  5
46BD
 10
-5.67461
 20
9.22394
 30
0.000000
  70
    32
  0
VERTEX
  8
240
  5
46BE
 10
-5.66524
 20
9.22218
 30
0.000000
  70
    32
  0
VERTEX
  8
240
  5
46BF
 10
-5.65587
 20
9.22041
 30
0.000000
  70
    32
  0
VERTEX
  8
240
  5
46C0
 10
-5.64650
 20
9.21864
 30
0.000000
  70
    32
  0
VERTEX
  8
240
  5
46C1
 10
-5.63713
 20
9.21688
 30
0.000000
  70
    32
  0
VERTEX
  8
240
  5
46C2
 10
-5.62776
 20
9.21511
 30
0.000000
  70
    32
  0
VERTEX
  8
240
  5
46C3
 10
-5.61839
 20
9.21335
 30
0.000000
  70
    32
  0
VERTEX
  8
240
  5
46C4
 10
-5.60902
 20
9.21159
 30
0.000000
  70
    32
  0
VERTEX
  8
240
  5
46C5
 10
-5.59965
 20
9.20982
 30
0.000000
  70
    32
  0
VERTEX
  8
240
  5
46C6
 10
-5.59028
 20
9.20806
 30
0.000000
  70
    32
  0
VERTEX
  8
240
  5
46C7
 10
-5.58090
 20
9.20630
 30
0.000000
  70
    32
  0
VERTEX
  8
240
  5
46C8
 10
-5.57153
 20
9.20454
 30
0.000000
  70
    32
  0
VERTEX
  8
240
  5
46C9
 10
-5.56216
 20
9.20278
 30
0.000000
  70
    32
  0
VERTEX
  8
240
  5
46CA
 10
-5.55279
 20
9.20102
 30
0.000000
  70
    32
  0
VERTEX
  8
240
  5
46CB
 10
-5.54342
 20
9.19926
 30
0.000000
  70
    32
  0
VERTEX
  8
240
  5
46CC
 10
-5.53405
 20
9.19750
 30
0.000000
  70
    32
  0
VERTEX
  8
240
  5
46CD
 10
-5.52468
 20
9.19574
 30
0.000000
  70
    32
  0
VERTEX
  8
240
  5
46CE
 10
-5.51530
 20
9.19398
 30
0.000000
  70
    32
  0
SEQEND
  8
240
  5
46CF
  0
LINE
  5
41EF
  8
245
  6
CENTER2
 10
0.0
 20
12.558592347426311
 30
0.0
 11
0.0
 21
-1.9036829085591691
 31
0.0
1001
GRPNAME
1000
PASTMD2A
  0
ARC
  5
41F0
  8
241
 10
20.037420526455609
 20
3.3877702038393229
 30
0.0
 40
0.4000000000000109
 50
214.99999985036149
 51
334.99999985037363
1001
GRPNAME
1000
PASTMD2F
  0
LINE
  5
41F1
  8
241
 10
14.488835639050651
 20
11.66066001014395
 30
0.0
 11
24.065137702907471
 21
12.49847787923539
 31
0.0
1001
GRPNAME
1000
PASTMD2F
  0
CIRCLE
  5
41F2
  8
246
 10
19.553706154203891
 20
8.9166507782484956
 30
0.0
 40
3.1749999999999989
1001
GRPNAME
1000
PASTMD2F
  0
LINE
  5
41F3
  8
240
 10
21.840814773427571
 20
0.0000000000000711
 30
0.0
 11
4.316328695456547
 21
0.0000000000000142
 31
0.0
1001
GRPNAME
1000
PASTMD2E
  0
LINE
  5
41F4
  8
241
 10
14.196037118434329
 20
11.03275155636673
 30
0.0
 11
19.709759708740108
 21
3.1583396292987942
 31
0.0
1001
GRPNAME
1000
PASTMD2F
  0
LINE
  5
41F5
  8
241
 10
12.557368354880911
 20
0.0000000000000995
 30
0.0
 11
12.557368354880911
 21
9.3074850243786926
 31
0.0
1001
GRPNAME
1000
PASTMD2E
  0
LINE
  5
41F6
  8
241
 10
14.500000000006541
 20
0.0000000000000995
 30
0.0
 11
14.500000000006541
 21
6.5000000000000986
 31
0.0
1001
GRPNAME
1000
PASTMD2E
  0
LINE
  5
41F7
  8
240
 10
7.0000000000065361
 20
9.5000000000000995
 30
0.0
 11
12.50000000000653
 21
9.5000000000000995
 31
0.0
1001
GRPNAME
1000
PASTMD2E
  0
POLYLINE
  8
240
  5
46D0
  66
     1
 10
0.000000
 20
0.000000
 30
0.000000
  70
     8
  0
VERTEX
  8
240
  5
46D1
 10
5.51530
 20
9.19398
 30
0.000000
  70
    32
  0
VERTEX
  8
240
  5
46D2
 10
5.52468
 20
9.19574
 30
0.000000
  70
    32
  0
VERTEX
  8
240
  5
46D3
 10
5.53405
 20
9.19750
 30
0.000000
  70
    32
  0
VERTEX
  8
240
  5
46D4
 10
5.54342
 20
9.19926
 30
0.000000
  70
    32
  0
VERTEX
  8
240
  5
46D5
 10
5.55279
 20
9.20102
 30
0.000000
  70
    32
  0
VERTEX
  8
240
  5
46D6
 10
5.56216
 20
9.20278
 30
0.000000
  70
    32
  0
VERTEX
  8
240
  5
46D7
 10
5.57153
 20
9.20454
 30
0.000000
  70
    32
  0
VERTEX
  8
240
  5
46D8
 10
5.58090
 20
9.20630
 30
0.000000
  70
    32
  0
VERTEX
  8
240
  5
46D9
 10
5.59028
 20
9.20806
 30
0.000000
  70
    32
  0
VERTEX
  8
240
  5
46DA
 10
5.59965
 20
9.20982
 30
0.000000
  70
    32
  0
VERTEX
  8
240
  5
46DB
 10
5.60902
 20
9.21159
 30
0.000000
  70
    32
  0
VERTEX
  8
240
  5
46DC
 10
5.61839
 20
9.21335
 30
0.000000
  70
    32
  0
VERTEX
  8
240
  5
46DD
 10
5.62776
 20
9.21511
 30
0.000000
  70
    32
  0
VERTEX
  8
240
  5
46DE
 10
5.63713
 20
9.21688
 30
0.000000
  70
    32
  0
VERTEX
  8
240
  5
46DF
 10
5.64650
 20
9.21864
 30
0.000000
  70
    32
  0
VERTEX
  8
240
  5
46E0
 10
5.65587
 20
9.22041
 30
0.000000
  70
    32
  0
VERTEX
  8
240
  5
46E1
 10
5.66524
 20
9.22218
 30
0.000000
  70
    32
  0
VERTEX
  8
240
  5
46E2
 10
5.67461
 20
9.22394
 30
0.000000
  70
    32
  0
VERTEX
  8
240
  5
46E3
 10
5.68398
 20
9.22571
 30
0.000000
  70
    32
  0
VERTEX
  8
240
  5
46E4
 10
5.69335
 20
9.22748
 30
0.000000
  70
    32
  0
VERTEX
  8
240
  5
46E5
 10
5.70272
 20
9.22925
 30
0.000000
  70
    32
  0
VERTEX
  8
240
  5
46E6
 10
5.71209
 20
9.23102
 30
0.000000
  70
    32
  0
VERTEX
  8
240
  5
46E7
 10
5.72146
 20
9.23279
 30
0.000000
  70
    32
  0
VERTEX
  8
240
  5
46E8
 10
5.73083
 20
9.23457
 30
0.000000
  70
    32
  0
VERTEX
  8
240
  5
46E9
 10
5.74020
 20
9.23634
 30
0.000000
  70
    32
  0
VERTEX
  8
240
  5
46EA
 10
5.74957
 20
9.23812
 30
0.000000
  70
    32
  0
VERTEX
  8
240
  5
46EB
 10
5.75893
 20
9.23990
 30
0.000000
  70
    32
  0
VERTEX
  8
240
  5
46EC
 10
5.76830
 20
9.24167
 30
0.000000
  70
    32
  0
VERTEX
  8
240
  5
46ED
 10
5.77767
 20
9.24345
 30
0.000000
  70
    32
  0
VERTEX
  8
240
  5
46EE
 10
5.78704
 20
9.24524
 30
0.000000
  70
    32
  0
VERTEX
  8
240
  5
46EF
 10
5.79640
 20
9.24702
 30
0.000000
  70
    32
  0
VERTEX
  8
240
  5
46F0
 10
5.80577
 20
9.24880
 30
0.000000
  70
    32
  0
VERTEX
  8
240
  5
46F1
 10
5.81514
 20
9.25059
 30
0.000000
  70
    32
  0
VERTEX
  8
240
  5
46F2
 10
5.82450
 20
9.25238
 30
0.000000
  70
    32
  0
VERTEX
  8
240
  5
46F3
 10
5.83387
 20
9.25417
 30
0.000000
  70
    32
  0
VERTEX
  8
240
  5
46F4
 10
5.84323
 20
9.25596
 30
0.000000
  70
    32
  0
VERTEX
  8
240
  5
46F5
 10
5.85260
 20
9.25775
 30
0.000000
  70
    32
  0
VERTEX
  8
240
  5
46F6
 10
5.86196
 20
9.25955
 30
0.000000
  70
    32
  0
VERTEX
  8
240
  5
46F7
 10
5.87133
 20
9.26134
 30
0.000000
  70
    32
  0
VERTEX
  8
240
  5
46F8
 10
5.88069
 20
9.26314
 30
0.000000
  70
    32
  0
VERTEX
  8
240
  5
46F9
 10
5.89005
 20
9.26494
 30
0.000000
  70
    32
  0
VERTEX
  8
240
  5
46FA
 10
5.89942
 20
9.26675
 30
0.000000
  70
    32
  0
VERTEX
  8
240
  5
46FB
 10
5.90878
 20
9.26855
 30
0.000000
  70
    32
  0
VERTEX
  8
240
  5
46FC
 10
5.91814
 20
9.27036
 30
0.000000
  70
    32
  0
VERTEX
  8
240
  5
46FD
 10
5.92750
 20
9.27217
 30
0.000000
  70
    32
  0
VERTEX
  8
240
  5
46FE
 10
5.93686
 20
9.27398
 30
0.000000
  70
    32
  0
VERTEX
  8
240
  5
46FF
 10
5.94622
 20
9.27579
 30
0.000000
  70
    32
  0
VERTEX
  8
240
  5
4700
 10
5.95558
 20
9.27761
 30
0.000000
  70
    32
  0
VERTEX
  8
240
  5
4701
 10
5.96494
 20
9.27943
 30
0.000000
  70
    32
  0
VERTEX
  8
240
  5
4702
 10
5.97430
 20
9.28125
 30
0.000000
  70
    32
  0
VERTEX
  8
240
  5
4703
 10
5.98366
 20
9.28308
 30
0.000000
  70
    32
  0
VERTEX
  8
240
  5
4704
 10
5.99302
 20
9.28490
 30
0.000000
  70
    32
  0
VERTEX
  8
240
  5
4705
 10
6.00238
 20
9.28673
 30
0.000000
  70
    32
  0
VERTEX
  8
240
  5
4706
 10
6.01173
 20
9.28856
 30
0.000000
  70
    32
  0
VERTEX
  8
240
  5
4707
 10
6.02109
 20
9.29040
 30
0.000000
  70
    32
  0
VERTEX
  8
240
  5
4708
 10
6.03044
 20
9.29224
 30
0.000000
  70
    32
  0
VERTEX
  8
240
  5
4709
 10
6.03980
 20
9.29408
 30
0.000000
  70
    32
  0
VERTEX
  8
240
  5
470A
 10
6.04915
 20
9.29592
 30
0.000000
  70
    32
  0
VERTEX
  8
240
  5
470B
 10
6.05851
 20
9.29777
 30
0.000000
  70
    32
  0
VERTEX
  8
240
  5
470C
 10
6.06786
 20
9.29962
 30
0.000000
  70
    32
  0
VERTEX
  8
240
  5
470D
 10
6.07721
 20
9.30147
 30
0.000000
  70
    32
  0
VERTEX
  8
240
  5
470E
 10
6.08657
 20
9.30332
 30
0.000000
  70
    32
  0
VERTEX
  8
240
  5
470F
 10
6.09592
 20
9.30518
 30
0.000000
  70
    32
  0
VERTEX
  8
240
  5
4710
 10
6.10527
 20
9.30704
 30
0.000000
  70
    32
  0
VERTEX
  8
240
  5
4711
 10
6.11462
 20
9.30891
 30
0.000000
  70
    32
  0
VERTEX
  8
240
  5
4712
 10
6.12397
 20
9.31078
 30
0.000000
  70
    32
  0
VERTEX
  8
240
  5
4713
 10
6.13331
 20
9.31265
 30
0.000000
  70
    32
  0
VERTEX
  8
240
  5
4714
 10
6.14266
 20
9.31453
 30
0.000000
  70
    32
  0
VERTEX
  8
240
  5
4715
 10
6.15201
 20
9.31641
 30
0.000000
  70
    32
  0
VERTEX
  8
240
  5
4716
 10
6.16136
 20
9.31829
 30
0.000000
  70
    32
  0
VERTEX
  8
240
  5
4717
 10
6.17070
 20
9.32017
 30
0.000000
  70
    32
  0
VERTEX
  8
240
  5
4718
 10
6.18005
 20
9.32206
 30
0.000000
  70
    32
  0
VERTEX
  8
240
  5
4719
 10
6.18939
 20
9.32396
 30
0.000000
  70
    32
  0
VERTEX
  8
240
  5
471A
 10
6.19873
 20
9.32585
 30
0.000000
  70
    32
  0
VERTEX
  8
240
  5
471B
 10
6.20808
 20
9.32776
 30
0.000000
  70
    32
  0
VERTEX
  8
240
  5
471C
 10
6.21742
 20
9.32966
 30
0.000000
  70
    32
  0
VERTEX
  8
240
  5
471D
 10
6.22676
 20
9.33157
 30
0.000000
  70
    32
  0
VERTEX
  8
240
  5
471E
 10
6.23610
 20
9.33348
 30
0.000000
  70
    32
  0
VERTEX
  8
240
  5
471F
 10
6.24544
 20
9.33540
 30
0.000000
  70
    32
  0
VERTEX
  8
240
  5
4720
 10
6.25478
 20
9.33732
 30
0.000000
  70
    32
  0
VERTEX
  8
240
  5
4721
 10
6.26412
 20
9.33924
 30
0.000000
  70
    32
  0
VERTEX
  8
240
  5
4722
 10
6.27345
 20
9.34117
 30
0.000000
  70
    32
  0
VERTEX
  8
240
  5
4723
 10
6.28279
 20
9.34311
 30
0.000000
  70
    32
  0
VERTEX
  8
240
  5
4724
 10
6.29212
 20
9.34504
 30
0.000000
  70
    32
  0
VERTEX
  8
240
  5
4725
 10
6.30146
 20
9.34698
 30
0.000000
  70
    32
  0
VERTEX
  8
240
  5
4726
 10
6.31079
 20
9.34893
 30
0.000000
  70
    32
  0
VERTEX
  8
240
  5
4727
 10
6.32012
 20
9.35088
 30
0.000000
  70
    32
  0
VERTEX
  8
240
  5
4728
 10
6.32946
 20
9.35283
 30
0.000000
  70
    32
  0
VERTEX
  8
240
  5
4729
 10
6.33879
 20
9.35479
 30
0.000000
  70
    32
  0
VERTEX
  8
240
  5
472A
 10
6.34812
 20
9.35675
 30
0.000000
  70
    32
  0
VERTEX
  8
240
  5
472B
 10
6.35745
 20
9.35871
 30
0.000000
  70
    32
  0
VERTEX
  8
240
  5
472C
 10
6.36678
 20
9.36068
 30
0.000000
  70
    32
  0
VERTEX
  8
240
  5
472D
 10
6.37610
 20
9.36265
 30
0.000000
  70
    32
  0
VERTEX
  8
240
  5
472E
 10
6.38543
 20
9.36462
 30
0.000000
  70
    32
  0
VERTEX
  8
240
  5
472F
 10
6.39476
 20
9.36660
 30
0.000000
  70
    32
  0
VERTEX
  8
240
  5
4730
 10
6.40408
 20
9.36858
 30
0.000000
  70
    32
  0
VERTEX
  8
240
  5
4731
 10
6.41341
 20
9.37057
 30
0.000000
  70
    32
  0
VERTEX
  8
240
  5
4732
 10
6.42273
 20
9.37255
 30
0.000000
  70
    32
  0
VERTEX
  8
240
  5
4733
 10
6.43206
 20
9.37454
 30
0.000000
  70
    32
  0
VERTEX
  8
240
  5
4734
 10
6.44138
 20
9.37654
 30
0.000000
  70
    32
  0
VERTEX
  8
240
  5
4735
 10
6.45071
 20
9.37853
 30
0.000000
  70
    32
  0
VERTEX
  8
240
  5
4736
 10
6.46003
 20
9.38053
 30
0.000000
  70
    32
  0
VERTEX
  8
240
  5
4737
 10
6.46935
 20
9.38254
 30
0.000000
  70
    32
  0
VERTEX
  8
240
  5
4738
 10
6.47867
 20
9.38454
 30
0.000000
  70
    32
  0
VERTEX
  8
240
  5
4739
 10
6.48799
 20
9.38655
 30
0.000000
  70
    32
  0
VERTEX
  8
240
  5
473A
 10
6.49731
 20
9.38856
 30
0.000000
  70
    32
  0
VERTEX
  8
240
  5
473B
 10
6.50663
 20
9.39058
 30
0.000000
  70
    32
  0
VERTEX
  8
240
  5
473C
 10
6.51595
 20
9.39260
 30
0.000000
  70
    32
  0
VERTEX
  8
240
  5
473D
 10
6.52527
 20
9.39462
 30
0.000000
  70
    32
  0
VERTEX
  8
240
  5
473E
 10
6.53458
 20
9.39664
 30
0.000000
  70
    32
  0
VERTEX
  8
240
  5
473F
 10
6.54390
 20
9.39866
 30
0.000000
  70
    32
  0
VERTEX
  8
240
  5
4740
 10
6.55322
 20
9.40069
 30
0.000000
  70
    32
  0
VERTEX
  8
240
  5
4741
 10
6.56253
 20
9.40272
 30
0.000000
  70
    32
  0
VERTEX
  8
240
  5
4742
 10
6.57185
 20
9.40476
 30
0.000000
  70
    32
  0
VERTEX
  8
240
  5
4743
 10
6.58116
 20
9.40679
 30
0.000000
  70
    32
  0
VERTEX
  8
240
  5
4744
 10
6.59048
 20
9.40883
 30
0.000000
  70
    32
  0
VERTEX
  8
240
  5
4745
 10
6.59979
 20
9.41087
 30
0.000000
  70
    32
  0
VERTEX
  8
240
  5
4746
 10
6.60910
 20
9.41291
 30
0.000000
  70
    32
  0
VERTEX
  8
240
  5
4747
 10
6.61842
 20
9.41495
 30
0.000000
  70
    32
  0
VERTEX
  8
240
  5
4748
 10
6.62773
 20
9.41700
 30
0.000000
  70
    32
  0
VERTEX
  8
240
  5
4749
 10
6.63704
 20
9.41905
 30
0.000000
  70
    32
  0
VERTEX
  8
240
  5
474A
 10
6.64635
 20
9.42110
 30
0.000000
  70
    32
  0
VERTEX
  8
240
  5
474B
 10
6.65567
 20
9.42315
 30
0.000000
  70
    32
  0
VERTEX
  8
240
  5
474C
 10
6.66498
 20
9.42521
 30
0.000000
  70
    32
  0
VERTEX
  8
240
  5
474D
 10
6.67429
 20
9.42726
 30
0.000000
  70
    32
  0
VERTEX
  8
240
  5
474E
 10
6.68360
 20
9.42932
 30
0.000000
  70
    32
  0
VERTEX
  8
240
  5
474F
 10
6.69291
 20
9.43138
 30
0.000000
  70
    32
  0
VERTEX
  8
240
  5
4750
 10
6.70222
 20
9.43344
 30
0.000000
  70
    32
  0
VERTEX
  8
240
  5
4751
 10
6.71153
 20
9.43550
 30
0.000000
  70
    32
  0
VERTEX
  8
240
  5
4752
 10
6.72084
 20
9.43757
 30
0.000000
  70
    32
  0
VERTEX
  8
240
  5
4753
 10
6.73014
 20
9.43964
 30
0.000000
  70
    32
  0
VERTEX
  8
240
  5
4754
 10
6.73945
 20
9.44170
 30
0.000000
  70
    32
  0
VERTEX
  8
240
  5
4755
 10
6.74876
 20
9.44377
 30
0.000000
  70
    32
  0
VERTEX
  8
240
  5
4756
 10
6.75807
 20
9.44584
 30
0.000000
  70
    32
  0
VERTEX
  8
240
  5
4757
 10
6.76738
 20
9.44791
 30
0.000000
  70
    32
  0
VERTEX
  8
240
  5
4758
 10
6.77668
 20
9.44999
 30
0.000000
  70
    32
  0
VERTEX
  8
240
  5
4759
 10
6.78599
 20
9.45206
 30
0.000000
  70
    32
  0
VERTEX
  8
240
  5
475A
 10
6.79530
 20
9.45414
 30
0.000000
  70
    32
  0
VERTEX
  8
240
  5
475B
 10
6.80460
 20
9.45621
 30
0.000000
  70
    32
  0
VERTEX
  8
240
  5
475C
 10
6.81391
 20
9.45829
 30
0.000000
  70
    32
  0
VERTEX
  8
240
  5
475D
 10
6.82321
 20
9.46037
 30
0.000000
  70
    32
  0
VERTEX
  8
240
  5
475E
 10
6.83252
 20
9.46245
 30
0.000000
  70
    32
  0
VERTEX
  8
240
  5
475F
 10
6.84183
 20
9.46453
 30
0.000000
  70
    32
  0
VERTEX
  8
240
  5
4760
 10
6.85113
 20
9.46661
 30
0.000000
  70
    32
  0
VERTEX
  8
240
  5
4761
 10
6.86044
 20
9.46870
 30
0.000000
  70
    32
  0
VERTEX
  8
240
  5
4762
 10
6.86974
 20
9.47078
 30
0.000000
  70
    32
  0
VERTEX
  8
240
  5
4763
 10
6.87905
 20
9.47286
 30
0.000000
  70
    32
  0
VERTEX
  8
240
  5
4764
 10
6.88835
 20
9.47495
 30
0.000000
  70
    32
  0
VERTEX
  8
240
  5
4765
 10
6.89765
 20
9.47703
 30
0.000000
  70
    32
  0
VERTEX
  8
240
  5
4766
 10
6.90696
 20
9.47912
 30
0.000000
  70
    32
  0
VERTEX
  8
240
  5
4767
 10
6.91626
 20
9.48121
 30
0.000000
  70
    32
  0
VERTEX
  8
240
  5
4768
 10
6.92557
 20
9.48329
 30
0.000000
  70
    32
  0
VERTEX
  8
240
  5
4769
 10
6.93487
 20
9.48538
 30
0.000000
  70
    32
  0
VERTEX
  8
240
  5
476A
 10
6.94418
 20
9.48747
 30
0.000000
  70
    32
  0
VERTEX
  8
240
  5
476B
 10
6.95348
 20
9.48956
 30
0.000000
  70
    32
  0
VERTEX
  8
240
  5
476C
 10
6.96278
 20
9.49165
 30
0.000000
  70
    32
  0
VERTEX
  8
240
  5
476D
 10
6.97209
 20
9.49373
 30
0.000000
  70
    32
  0
VERTEX
  8
240
  5
476E
 10
6.98139
 20
9.49582
 30
0.000000
  70
    32
  0
VERTEX
  8
240
  5
476F
 10
6.99070
 20
9.49791
 30
0.000000
  70
    32
  0
VERTEX
  8
240
  5
4770
 10
7.00000
 20
9.50000
 30
0.000000
  70
    32
  0
SEQEND
  8
240
  5
4771
  0
ARC
  5
41F9
  8
241
 10
14.52369793614986
 20
11.26218213090727
 30
0.0
 40
0.4000000000000261
 50
95.000000138334897
 51
215.0000001383348
1001
GRPNAME
1000
PASTMD2F
  0
ARC
  5
41FA
  8
241
 10
11.500000000006541
 20
6.5000000000000986
 30
0.0
 40
3.0
 50
0.0
 51
90.0
1001
GRPNAME
1000
PASTMD2E
  0
LINE
  5
41FB
  8
240
 10
12.50000000000653
 20
9.5000000000000995
 30
0.0
 11
12.88207804947535
 21
10.161778594138079
 31
0.0
1001
GRPNAME
1000
PASTMD2E
  0
LINE
  5
41FC
  8
241
 10
24.462523114821408
 20
11.930952695302659
 30
0.0
 11
20.399943641270291
 21
3.2187228991431591
 31
0.0
1001
GRPNAME
1000
PASTMD2F
  0
ARC
  5
41FD
  8
241
 10
24.100000000006681
 20
12.09999999999877
 30
0.0
 40
0.4000000000000029
 50
335.00000022061022
 51
95.000000220617366
1001
GRPNAME
1000
PASTMD2F
  0
LINE
  5
4200
  8
240
  6
CONTINUOUS
 10
-3.632251825469722
 20
2.1000000000001222
 30
0.0
 11
3.632251825469722
 21
2.1000000000001222
 31
0.0
1001
GRPNAME
1000
PASTMD30
  0
LINE
  5
4202
  8
240
  6
CONTINUOUS
 10
-4.31632869545939
 20
0.0000000000000995
 30
0.0
 11
-3.81632869545939
 21
0.5000000000000995
 31
0.0
1001
GRPNAME
1000
PASTMD30
  0
LINE
  5
4203
  8
240
  6
CONTINUOUS
 10
-3.8163286954592759
 20
0.50000000000027
 30
0.0
 11
-3.632251825469722
 21
1.600000000000122
 31
0.0
1001
GRPNAME
1000
PASTMD30
  0
LINE
  5
4204
  8
240
  6
CONTINUOUS
 10
-3.632251825469722
 20
1.600000000000122
 30
0.0
 11
-3.632251825469722
 21
2.1000000000001222
 31
0.0
1001
GRPNAME
1000
PASTMD30
  0
LINE
  5
4207
  8
240
  6
CONTINUOUS
 10
4.31632869545939
 20
0.0000000000000995
 30
0.0
 11
3.81632869545939
 21
0.5000000000000995
 31
0.0
1001
GRPNAME
1000
PASTMD30
  0
LINE
  5
4208
  8
240
  6
CONTINUOUS
 10
3.8163286954592759
 20
0.50000000000027
 30
0.0
 11
3.632251825469722
 21
1.600000000000122
 31
0.0
1001
GRPNAME
1000
PASTMD30
  0
LINE
  5
4209
  8
240
  6
CONTINUOUS
 10
3.632251825469722
 20
1.600000000000122
 30
0.0
 11
3.632251825469722
 21
2.1000000000001222
 31
0.0
1001
GRPNAME
1000
PASTMD30
  0
LINE
  5
420F
  8
240
 10
12.88207804947535
 20
10.161778594138079
 30
0.0
 11
14.59447681479935
 21
10.46372069819655
 31
0.0
  0
LINE
  5
4210
  8
240
 10
23.553553390600111
 20
1.505631835985717
 30
0.0
 11
22.194368164020801
 21
0.1464466094068015
 31
0.0
  0
LINE
  5
4211
  8
240
 10
23.70000000000676
 20
1.8591852265791351
 30
0.0
 11
23.700000000006689
 21
10.29571659853231
 31
0.0
  0
ARC
  5
4213
  8
240
 10
23.200000000006749
 20
1.859185226579128
 30
0.0
 40
0.5
 50
314.9999999999971
 51
0.0000000000004071
  0
ARC
  5
4214
  8
240
 10
21.840814773427571
 20
0.5000000000000711
 30
0.0
 40
0.5
 50
270.0
 51
314.9999999999971
  0
TEXT
  5
428C
  8
241
 10
0.0
 20
35.0
 30
0.0
 40
3.0
  1
ENH6-1J
  7
YOKO
  0
LINE
  5
4295
  8
250
 10
22.340814773427571
 20
0.0000000000000709
 30
0.0
 11
36.0
 21
0.000000000000067
 31
0.0
  0
LINE
  5
4296
  8
250
 10
24.60000000000667
 20
12.499999999998771
 30
0.0
 11
36.0
 21
12.499999999998771
 31
0.0
  0
LINE
  5
4297
  8
250
 10
35.0
 20
2.230000000000067
 30
0.0
 11
35.0
 21
10.26999999999877
 31
0.0
  0
LINE
  5
429C
  8
250
 10
40.875977964395133
 20
19.568281879479908
 30
0.0
 11
28.892471650838729
 21
19.568281879479908
 31
0.0
  0
LINE
  5
429D
  8
250
 10
28.892471650838729
 20
19.568281879479908
 30
0.0
 11
23.4278854078742
 21
13.911093413927521
 31
0.0
  0
LINE
  5
429E
  8
250
 10
23.4278854078742
 20
13.911093413927521
 30
0.0
 11
21.878576779544339
 21
12.30717858633141
 31
0.0
  0
LINE
  5
429F
  8
250
 10
23.21672601584585
 20
14.11506376347079
 30
0.0
 11
21.878576779544339
 21
12.30717858633141
 31
0.0
  0
LINE
  5
42A0
  8
250
 10
21.878576779544339
 20
12.30717858633141
 30
0.0
 11
23.63904479990255
 21
13.70712306438425
 31
0.0
  0
INSERT
  5
42A1
  8
241
  2
*U6
 10
0.0
 20
0.0
 30
0.0
  0
LINE
  5
42A2
  8
250
 10
0.0
 20
13.058592347426311
 30
0.0
 11
0.0000000000000006
 21
22.0
 31
0.0
  0
LINE
  5
42A3
  8
250
 10
24.500000000006679
 20
12.59999999999877
 30
0.0
 11
24.500000000006679
 21
22.0
 31
0.0
  0
LINE
  5
42A4
  8
250
 10
2.23
 20
21.0
 30
0.0
 11
22.270000000006679
 21
21.0
 31
0.0
  0
TEXT
  5
42A8
  8
250
 10
7.5833333333366708
 20
22.0
 30
0.0
 40
2.7999999999999989
  1
24.5
  0
LINE
  5
42A9
  8
250
 10
22.270000000006679
 20
21.37166666666667
 30
0.0
 11
24.500000000006679
 21
21.0
 31
0.0
  0
LINE
  5
42AA
  8
250
 10
22.270000000006679
 20
20.62833333333333
 30
0.0
 11
24.500000000006679
 21
21.0
 31
0.0
  0
LINE
  5
42AB
  8
250
 10
24.500000000006679
 20
21.0
 30
0.0
 11
22.270000000006679
 21
21.0
 31
0.0
  0
LINE
  5
42AC
  8
250
 10
2.23
 20
20.62833333333333
 30
0.0
 11
0.0000000000000005
 21
21.0
 31
0.0
  0
LINE
  5
42AD
  8
250
 10
2.23
 20
21.37166666666667
 30
0.0
 11
0.0000000000000005
 21
21.0
 31
0.0
  0
LINE
  5
42AE
  8
250
 10
0.0000000000000005
 20
21.0
 30
0.0
 11
2.23
 21
21.0
 31
0.0
  0
TEXT
  5
42AF
  8
250
 10
34.0
 20
1.3833333333327591
 30
0.0
 40
2.7999999999999989
  1
12.5
 50
90.0
  0
LINE
  5
42B0
  8
250
 10
34.62833333333333
 20
10.26999999999877
 30
0.0
 11
35.0
 21
12.499999999998771
 31
0.0
  0
LINE
  5
42B1
  8
250
 10
35.37166666666667
 20
10.26999999999877
 30
0.0
 11
35.0
 21
12.499999999998771
 31
0.0
  0
LINE
  5
42B2
  8
250
 10
35.0
 20
12.499999999998771
 30
0.0
 11
35.0
 21
10.26999999999877
 31
0.0
  0
LINE
  5
42B3
  8
250
 10
35.37166666666667
 20
2.230000000000067
 30
0.0
 11
35.0
 21
0.0000000000000673
 31
0.0
  0
LINE
  5
42B4
  8
250
 10
34.62833333333333
 20
2.230000000000067
 30
0.0
 11
35.0
 21
0.0000000000000673
 31
0.0
  0
LINE
  5
42B5
  8
250
 10
35.0
 20
0.0000000000000673
 30
0.0
 11
35.0
 21
2.230000000000067
 31
0.0
  0
VIEWPORT
  5
22
 67
     1
  8
0
 10
261.51769911504419
 20
148.5
 30
0.0
 40
523.0353982300885
 41
297.0
 68
     1
 69
     1
1001
ACAD
1000
MVIEW
1002
{
1070
    16
1010
0.0
1020
0.0
1030
0.0
1010
0.0
1020
0.0
1030
1.0
1040
0.0
1040
297.0
1040
261.51769911504419
1040
148.5
1040
50.0
1040
0.0
1040
0.0
1070
     0
1070
   100
1070
     1
1070
     1
1070
     0
1070
     0
1070
     0
1070
     0
1040
0.0
1040
0.0
1040
0.0
1040
1.0
1040
1.0
1040
10.0
1040
10.0
1070
     0
1002
{
1002
}
1002
}
1001
GENIUS_GENODEF_13
1002
{
1000
HIER
1070
     0
1002
}
1002
{
1000
MANEDIT
1070
     0
1002
}
1002
{
1000
NOSEL
1070
     0
1002
}
1002
{
1000
BEHIND
1070
     0
1002
}
1002
{
1000
OTHER
1070
     0
1002
}
1002
{
1000
REACTOR
1002
}
1001
GENIUS_GENOBJ-N-SDF_13
1002
{
1000
OWNER
1000
GEN
1002
}
1001
GENIUS_GENSCREG_15
1000
PF
1040
1.0
1000
DF
1040
1.0
1000
MIN
1011
0.0
1021
0.0
1031
0.0
1021
0.0
1031
0.0
1000
MAX
1011
523.0353982300885
1021
0.0
1031
0.0
1021
297.0
1031
0.0
1000
FLAGS
1070
     4
  0
ENDSEC
  0
EOF
