  0
SECTION
  2
HEADER
  9
$ACADVER
  1
AC1009
  9
$INSBASE
 10
0.0
 20
0.0
 30
0.0
  9
$EXTMIN
 10
-14.499999913684711
 20
-2.395711369999999
 30
0.0
  9
$EXTMAX
 10
41.821108341992648
 20
48.692999999999998
 30
0.0
  9
$LIMMIN
 10
0.0
 20
0.0
  9
$LIMMAX
 10
420.0
 20
297.0
  9
$ORTHOMODE
 70
     1
  9
$REGENMODE
 70
     1
  9
$FILLMODE
 70
     1
  9
$QTEXTMODE
 70
     0
  9
$MIRRTEXT
 70
     1
  9
$DRAGMODE
 70
     2
  9
$LTSCALE
 40
10.0
  9
$OSMODE
 70
    63
  9
$ATTMODE
 70
     1
  9
$TEXTSIZE
 40
3.0
  9
$TRACEWID
 40
1.0
  9
$TEXTSTYLE
  7
YOKO
  9
$CLAYER
  8
245
  9
$CELTYPE
  6
BYLAYER
  9
$CECOLOR
 62
   256
  9
$DIMSCALE
 40
1.0
  9
$DIMASZ
 40
2.2299999999999991
  9
$DIMEXO
 40
0.5
  9
$DIMDLI
 40
2.5
  9
$DIMRND
 40
0.0
  9
$DIMDLE
 40
0.0
  9
$DIMEXE
 40
1.0
  9
$DIMTP
 40
0.0
  9
$DIMTM
 40
0.0
  9
$DIMTXT
 40
2.799999999999998
  9
$DIMCEN
 40
0.0
  9
$DIMTSZ
 40
0.0
  9
$DIMTOL
 70
     0
  9
$DIMLIM
 70
     0
  9
$DIMTIH
 70
     0
  9
$DIMTOH
 70
     0
  9
$DIMSE1
 70
     0
  9
$DIMSE2
 70
     0
  9
$DIMTAD
 70
     3
  9
$DIMZIN
 70
     8
  9
$DIMBLK
  1

  9
$DIMASO
 70
     1
  9
$DIMSHO
 70
     1
  9
$DIMPOST
  1

  9
$DIMAPOST
  1

  9
$DIMALT
 70
     0
  9
$DIMALTD
 70
     2
  9
$DIMALTF
 40
25.399999999999999
  9
$DIMLFAC
 40
1.0
  9
$DIMTOFL
 70
     1
  9
$DIMTVP
 40
0.0
  9
$DIMTIX
 70
     1
  9
$DIMSOXD
 70
     0
  9
$DIMSAH
 70
     1
  9
$DIMBLK1
  1
OPEN
  9
$DIMBLK2
  1
OPEN
  9
$DIMSTYLE
  2
BIGT
  9
$DIMCLRD
 70
   256
  9
$DIMCLRE
 70
   256
  9
$DIMCLRT
 70
    40
  9
$DIMTFAC
 40
1.0
  9
$DIMGAP
 40
1.0
  9
$LUNITS
 70
     2
  9
$LUPREC
 70
     3
  9
$SKETCHINC
 40
1.0
  9
$FILLETRAD
 40
0.0
  9
$AUNITS
 70
     0
  9
$AUPREC
 70
     3
  9
$MENU
  1
.
  9
$ELEVATION
 40
0.0
  9
$PELEVATION
 40
0.0
  9
$THICKNESS
 40
0.0
  9
$LIMCHECK
 70
     0
  9
$BLIPMODE
 70
     0
  9
$CHAMFERA
 40
10.0
  9
$CHAMFERB
 40
10.0
  9
$SKPOLY
 70
     0
  9
$TDCREATE
 40
2455286.4205559138
  9
$TDUPDATE
 40
2457157.5471782181
  9
$TDINDWG
 40
0.013075544
  9
$TDUSRTIMER
 40
0.0130754977
  9
$USRTIMER
 70
     1
  9
$ANGBASE
 50
0.0
  9
$ANGDIR
 70
     0
  9
$PDMODE
 70
     1
  9
$PDSIZE
 40
-5.0
  9
$PLINEWID
 40
0.0
  9
$COORDS
 70
     1
  9
$SPLFRAME
 70
     0
  9
$SPLINETYPE
 70
     6
  9
$SPLINESEGS
 70
     8
  9
$ATTDIA
 70
     1
  9
$ATTREQ
 70
     1
  9
$HANDLING
 70
     1
  9
$HANDSEED
  5
DF3
  9
$SURFTAB1
 70
     6
  9
$SURFTAB2
 70
     6
  9
$SURFTYPE
 70
     6
  9
$SURFU
 70
     6
  9
$SURFV
 70
     6
  9
$UCSNAME
  2

  9
$UCSORG
 10
0.0
 20
0.0
 30
0.0
  9
$UCSXDIR
 10
1.0
 20
0.0
 30
0.0
  9
$UCSYDIR
 10
0.0
 20
1.0
 30
0.0
  9
$PUCSNAME
  2

  9
$PUCSORG
 10
0.0
 20
0.0
 30
0.0
  9
$PUCSXDIR
 10
1.0
 20
0.0
 30
0.0
  9
$PUCSYDIR
 10
0.0
 20
1.0
 30
0.0
  9
$USERI1
 70
     1
  9
$USERI2
 70
     0
  9
$USERI3
 70
     0
  9
$USERI4
 70
     0
  9
$USERI5
 70
     0
  9
$USERR1
 40
0.0
  9
$USERR2
 40
0.0
  9
$USERR3
 40
0.0
  9
$USERR4
 40
0.0
  9
$USERR5
 40
0.0
  9
$WORLDVIEW
 70
     1
  9
$SHADEDGE
 70
     3
  9
$SHADEDIF
 70
    70
  9
$TILEMODE
 70
     1
  9
$MAXACTVP
 70
    16
  9
$PLIMCHECK
 70
     0
  9
$PEXTMIN
 10
1.0000000000000000E+020
 20
1.0000000000000000E+020
 30
1.0000000000000000E+020
  9
$PEXTMAX
 10
-1.0000000000000000E+020
 20
-1.0000000000000000E+020
 30
-1.0000000000000000E+020
  9
$PLIMMIN
 10
0.0
 20
0.0
  9
$PLIMMAX
 10
420.0
 20
297.0
  9
$UNITMODE
 70
     0
  9
$VISRETAIN
 70
     0
  9
$PLINEGEN
 70
     0
  9
$PSLTSCALE
 70
     1
  0
ENDSEC
  0
SECTION
  2
TABLES
  0
TABLE
  2
VPORT
 70
     1
  0
VPORT
  2
*ACTIVE
 70
     0
 10
0.0
 20
0.0
 11
1.0
 21
1.0
 12
10.65002653265579
 22
22.55689551924576
 13
0.0
 23
0.0
 14
7.0
 24
7.0
 15
7.0
 25
7.0
 16
0.0
 26
0.0
 36
1.0
 17
0.0
 27
0.0
 37
0.0
 40
82.685553531196433
 41
1.433260393873085
 42
50.0
 43
0.0
 44
0.0
 50
0.0
 51
0.0
 71
     0
 72
  2000
 73
     1
 74
     0
 75
     0
 76
     1
 77
     0
 78
     0
  0
ENDTAB
  0
TABLE
  2
LTYPE
 70
    21
  0
LTYPE
  2
CONTINUOUS
 70
     0
  3
Solid line
 72
    65
 73
     0
 40
0.0
  0
LTYPE
  2
CENTER2
 70
     0
  3
___ _ ___ _ ___ _ ___ _ ___ _ ___ _ ___ _ ___ _
 72
    65
 73
     4
 40
1.125
 49
0.75
 49
-0.125
 49
0.125
 49
-0.125
  0
LTYPE
  2
PHANTOM2
 70
     0
  3
___ _ _ ___ _ _ ___ _ _ ___ _ _ ___ _ _ ___ _ _
 72
    65
 73
     6
 40
1.25
 49
0.625
 49
-0.125
 49
0.125
 49
-0.125
 49
0.125
 49
-0.125
  0
LTYPE
  2
HIDDEN2
 70
     0
  3
_ _ _ _ _ _ _ _ _ _ _ _ _ _ _ _ _ _ _ _ _ _ _ _
 72
    65
 73
     2
 40
0.1875
 49
0.125
 49
-0.0625
  0
LTYPE
  2
AMCONSTR
 70
     0
  3
_______________________
 72
    65
 73
     2
 40
9999.0
 49
9999.0
 49
0.0
  0
LTYPE
  2
AM_ISO02W050
 70
     0
  3
__ __ __ __ __ __ __ __ __ __ __ __ __ __ __
 72
    65
 73
     2
 40
7.5
 49
6.0
 49
-1.5
  0
LTYPE
  2
ACJISTGB
 70
     0
  3
__ . . __ . .
 72
    65
 73
     6
 40
9.0
 49
4.0
 49
-1.0
 49
1.0
 49
-1.0
 49
1.0
 49
-1.0
  0
LTYPE
  2
ACJISTGL
 70
     0
  3
_ _ _ _ _
 72
    65
 73
     2
 40
3.0
 49
2.0
 49
-1.0
  0
LTYPE
  2
ACISOWELD
 70
     0
  3
_ _ _ _ _
 72
    65
 73
     2
 40
2.0
 49
2.0
 49
-1.0
  0
LTYPE
  2
ACISOTGB
 70
     0
  3
__ . . __ . .
 72
    65
 73
     6
 40
9.0
 49
4.0
 49
-1.0
 49
1.0
 49
-1.0
 49
1.0
 49
-1.0
  0
LTYPE
  2
ACISOTGL
 70
     0
  3
_ _ _ _ _
 72
    65
 73
     2
 40
3.0
 49
2.0
 49
-1.0
  0
LTYPE
  2
HIDDEN
 70
     0
  3
Hidden __ __ __ __ __ __ __ __ __ __ __ __ __ _
 72
    65
 73
     2
 40
0.375
 49
0.25
 49
-0.125
  0
LTYPE
  2
CENTER
 70
     0
  3
Center ____ _ ____ _ ____ _ ____ _ ____ _ ____
 72
    65
 73
     4
 40
2.0
 49
1.25
 49
-0.25
 49
0.25
 49
-0.25
  0
LTYPE
  2
AM_ISO08W050
 70
     0
  3
____ . ____ . ____ . ____ . ____ . ____ . ____
 72
    65
 73
     4
 40
18.0
 49
12.0
 49
-1.5
 49
3.0
 49
-1.5
  0
LTYPE
  2
AM_ISO09W050
 70
     0
  3
_____ . . _____ . . _____ . . ____ .. ____
 72
    65
 73
     6
 40
22.5
 49
12.0
 49
-1.5
 49
3.0
 49
-1.5
 49
3.0
 49
-1.5
  0
LTYPE
  2
AM_ISO08W050X2
 70
     0
  3
__ . __ . __ . __ . __ . __
 72
    65
 73
     4
 40
9.0
 49
6.0
 49
-0.75
 49
1.5
 49
-0.75
  0
LTYPE
  2
AM_ISO02W050X2
 70
     0
  3
 _ _ _ _ _ _ _ _ _ _ _ _
 72
    65
 73
     2
 40
3.75
 49
3.0
 49
-0.75
  0
LTYPE
  2
AMZIGZAG
 70
     0
  3
/\/-/\/-/\/-/\/-/\/-/\/
 72
    65
 73
     2
 40
11.0001
 49
0.0001
 49
-11.0
  0
LTYPE
  2
AMZIGZAG2
 70
     0
  3
/\/-/\/-/\/-/\/-/\/-/\/
 72
    65
 73
     2
 40
0.4401
 49
0.0001
 49
-0.4400000000000001
  0
LTYPE
  2
ACANSTGB
 70
     0
  3
__ . . __ . .
 72
    65
 73
     6
 40
0.35433070866
 49
0.15748031496
 49
-0.03937007874
 49
0.03937007874
 49
-0.03937007874
 49
0.03937007874
 49
-0.03937007874
  0
LTYPE
  2
ACANSTGL
 70
     0
  3
_ _ _ _ _
 72
    65
 73
     2
 40
0.11811023622
 49
0.07874015748
 49
-0.03937007874
  0
ENDTAB
  0
TABLE
  2
LAYER
 70
     8
  0
LAYER
  2
0
 70
     0
 62
     7
  6
CONTINUOUS
  0
LAYER
  2
245
 70
     0
 62
     2
  6
CENTER2
  0
LAYER
  2
240
 70
     0
 62
     4
  6
CONTINUOUS
  0
LAYER
  2
241
 70
     0
 62
   211
  6
CONTINUOUS
  0
LAYER
  2
250
 70
     0
 62
     3
  6
CONTINUOUS
  0
LAYER
  2
DEFPOINTS
 70
     0
 62
     7
  6
CONTINUOUS
  0
LAYER
  2
246
 70
     0
 62
     3
  6
PHANTOM2
  0
LAYER
  2
AM_5
 70
     0
 62
     3
  6
CONTINUOUS
  0
ENDTAB
  0
TABLE
  2
STYLE
 70
    10
  0
STYLE
  2
STANDARD
 70
     0
 40
0.0
 41
1.0
 50
0.0
 71
     0
 42
3.0
  3
romans.shx
  4
BIGFONT.SHX
  0
STYLE
  2
ANNOTATIVE
 70
     0
 40
0.0
 41
1.0
 50
0.0
 71
     0
 42
0.2
  3
txt
  4

  0
STYLE
  2
YOKO
 70
     0
 40
0.0
 41
1.0
 50
0.0
 71
     0
 42
3.0
  3
romans.shx
  4
extfont.shx
  0
STYLE
  2
ACJISTS
 70
     0
 40
1.0
 41
1.0
 50
0.0
 71
     0
 42
3.0
  3
amgdt.shx
  4
extfont.shx
  0
STYLE
  2
ACJISGDT
 70
     0
 40
0.0
 41
1.0
 50
0.0
 71
     0
 42
3.0
  3
amgdt.shx
  4
extfont.shx
  0
STYLE
  2
ACISOTS
 70
     0
 40
1.0
 41
1.0
 50
0.0
 71
     0
 42
3.0
  3
amgdt.shx
  4
extfont.shx
  0
STYLE
  2
ACISOGDT
 70
     0
 40
0.0
 41
1.0
 50
0.0
 71
     0
 42
3.0
  3
amgdt.shx
  4
extfont.shx
  0
STYLE
  2

 70
     1
 40
0.0
 41
1.0
 50
0.0
 71
     0
 42
3.0
  3
genltshp.shx
  4

  0
STYLE
  2
ACANSTS
 70
     0
 40
0.0
 41
1.0
 50
0.0
 71
     0
 42
3.0
  3
romans.shx
  4
extfont.shx
  0
STYLE
  2
ACANSGDT
 70
     0
 40
0.0
 41
1.0
 50
0.0
 71
     0
 42
3.0
  3
amgdt.shx
  4

  0
ENDTAB
  0
TABLE
  2
VIEW
 70
     0
  0
ENDTAB
  0
TABLE
  2
UCS
 70
     0
  0
ENDTAB
  0
TABLE
  2
APPID
 70
    41
  0
APPID
  2
ACAD
 70
     0
  0
APPID
  2
ACADANNOTATIVE
 70
     0
  0
APPID
  2
GLOBAL
 70
     0
  0
APPID
  2
DETAIL
 70
     0
  0
APPID
  2
GRPNAME
 70
     0
  0
APPID
  2
GPARA
 70
     0
  0
APPID
  2
DCO15
 70
     0
  0
APPID
  2
ITEMNAME
 70
     0
  0
APPID
  2
GRADE_0
 70
     0
  0
APPID
  2
CONTENTBLOCKICON
 70
     0
  0
APPID
  2
MCAD_NO_VIS
 70
     0
  0
APPID
  2
ACAD_TEMP_GRAPHIC
 70
     0
  0
APPID
  2
ACATTRIBSERVICES
 70
     0
  0
APPID
  2
GENIUS_GENSCREG_15
 70
     0
  0
APPID
  2
GENIUS_GENODEF_13
 70
     0
  0
APPID
  2
GENIUS_GENOBJ-N-SDF_13
 70
     0
  0
APPID
  2
GENIUS_GENREC_14
 70
     0
  0
APPID
  2
GENIUS_GENOBJ-N-REC_13
 70
     0
  0
APPID
  2
GENIUS_GENDIMSH_14
 70
     0
  0
APPID
  2
GENIUS_GENOBJ-N-DIM_13
 70
     0
  0
APPID
  2
GENIUS_GENDIM_13
 70
     0
  0
APPID
  2
GENIUS_GENDTOL_13
 70
     0
  0
APPID
  2
GENIUS_GENOLIS_13
 70
     0
  0
APPID
  2
GENIUS_GENOENT_13
 70
     0
  0
APPID
  2
GENIUS_GENOBJ-F-FEM_13
 70
     0
  0
APPID
  2
GENIUS_GENOREF_13
 70
     0
  0
APPID
  2
GENIUS_GEFFEM_13
 70
     0
  0
APPID
  2
GENIUS_GEFFEMP_13
 70
     0
  0
APPID
  2
AD_DRAW
 70
     0
  0
APPID
  2
DESIGNERASSEMBLIES
 70
     0
  0
APPID
  2
ACADM_DIM_EDIT
 70
     0
  0
APPID
  2
AMDT_DM_ADJ
 70
     0
  0
APPID
  2
GENIUS_GENOBJ-N-FIL_13
 70
     0
  0
APPID
  2
GENIUS_GENFIL_13
 70
     0
  0
APPID
  2
GENIUS_GENOBJ-N-CHA_13
 70
     0
  0
APPID
  2
ACAD_NAV_VCDISPLAY
 70
     0
  0
APPID
  2
ACAECLAYERSTANDARD
 70
     0
  0
APPID
  2
ACAD_MLEADERVER
 70
     0
  0
APPID
  2
ACAD_DSTYLE_DIMJAG
 70
     0
  0
APPID
  2
ACAD_DSTYLE_DIMBREAK
 70
     0
  0
APPID
  2
ACAD_DSTYLE_DIMINSPECT
 70
     0
  0
ENDTAB
  0
TABLE
  2
DIMSTYLE
 70
    31
  0
DIMSTYLE
  2
STANDARD
 70
     0
  3

  4

  5

  6

  7

 40
1.0
 41
0.18
 42
0.0625
 43
0.38
 44
0.18
 45
0.0
 46
0.0
 47
0.0
 48
0.0
140
0.18
141
0.09
142
0.0
143
25.399999999999999
144
1.0
145
0.0
146
1.0
147
0.09
 71
     0
 72
     0
 73
     1
 74
     1
 75
     0
 76
     0
 77
     0
 78
     0
170
     0
171
     2
172
     0
173
     0
174
     0
175
     0
176
     0
177
     0
178
     0
  0
DIMSTYLE
  2
ANNOTATIVE
 70
     0
  3

  4

  5

  6

  7

 40
1.0
 41
0.18
 42
0.0625
 43
0.38
 44
0.18
 45
0.0
 46
0.0
 47
0.0
 48
0.0
140
0.18
141
0.09
142
0.0
143
25.399999999999999
144
1.0
145
0.0
146
1.0
147
0.09
 71
     0
 72
     0
 73
     1
 74
     1
 75
     0
 76
     0
 77
     0
 78
     0
170
     0
171
     2
172
     0
173
     0
174
     0
175
     0
176
     0
177
     0
178
     0
  0
DIMSTYLE
  2
BIGT
 70
     0
  3

  4

  5

  6

  7

 40
1.0
 41
2.2299999999999991
 42
0.5
 43
7.0
 44
1.0
 45
0.0
 46
0.0
 47
0.0
 48
0.01
140
2.799999999999998
141
0.0
142
0.0
143
25.399999999999999
144
1.0
145
0.0
146
1.0
147
1.0
 71
     0
 72
     0
 73
     0
 74
     0
 75
     0
 76
     0
 77
     3
 78
     9
170
     0
171
     2
172
     1
173
     0
174
     1
175
     0
176
   256
177
   256
178
    40
  0
DIMSTYLE
  2
BIGT$0
 70
     0
  3

  4

  5

  6

  7

 40
1.0
 41
2.2299999999999991
 42
0.5
 43
7.0
 44
1.0
 45
0.0
 46
0.0
 47
0.0
 48
0.01
140
2.799999999999998
141
0.0
142
0.0
143
25.399999999999999
144
1.0
145
0.0
146
1.0
147
1.0
 71
     0
 72
     0
 73
     0
 74
     0
 75
     0
 76
     0
 77
     3
 78
     9
170
     0
171
     2
172
     1
173
     0
174
     1
175
     0
176
   256
177
   256
178
    40
  0
DIMSTYLE
  2
BIGT$2
 70
     0
  3

  4

  5

  6

  7

 40
1.0
 41
2.2299999999999991
 42
0.5
 43
7.0
 44
1.0
 45
0.0
 46
0.0
 47
0.0
 48
0.01
140
2.799999999999998
141
0.0
142
0.0
143
25.399999999999999
144
1.0
145
0.0
146
1.0
147
1.0
 71
     0
 72
     0
 73
     0
 74
     0
 75
     0
 76
     0
 77
     3
 78
     9
170
     0
171
     2
172
     1
173
     0
174
     0
175
     0
176
   256
177
   256
178
    40
  0
DIMSTYLE
  2
BIGT$3
 70
     0
  3

  4

  5

  6

  7

 40
1.0
 41
2.2299999999999991
 42
0.5
 43
2.5
 44
1.0
 45
0.0
 46
0.0
 47
0.0
 48
0.01
140
2.799999999999998
141
0.0
142
0.0
143
25.399999999999999
144
1.0
145
0.0
146
1.0
147
1.0
 71
     0
 72
     0
 73
     0
 74
     0
 75
     0
 76
     0
 77
     3
 78
     9
170
     0
171
     2
172
     1
173
     0
174
     0
175
     0
176
   256
177
   256
178
    40
  0
DIMSTYLE
  2
BIGT$4
 70
     0
  3

  4

  5

  6

  7

 40
1.0
 41
2.2299999999999991
 42
0.5
 43
2.5
 44
1.0
 45
0.0
 46
0.0
 47
0.0
 48
0.01
140
2.799999999999998
141
0.0
142
0.0
143
25.399999999999999
144
1.0
145
0.0
146
1.0
147
1.0
 71
     0
 72
     0
 73
     0
 74
     0
 75
     0
 76
     0
 77
     3
 78
     9
170
     0
171
     2
172
     1
173
     0
174
     0
175
     0
176
   256
177
   256
178
    40
  0
DIMSTYLE
  2
BIGT$6
 70
     0
  3

  4

  5

  6

  7

 40
1.0
 41
2.2299999999999991
 42
0.5
 43
2.5
 44
1.0
 45
0.0
 46
0.0
 47
0.0
 48
0.01
140
2.799999999999998
141
0.0
142
0.0
143
25.399999999999999
144
1.0
145
0.0
146
1.0
147
1.0
 71
     0
 72
     0
 73
     0
 74
     0
 75
     0
 76
     0
 77
     3
 78
     9
170
     0
171
     2
172
     1
173
     0
174
     0
175
     0
176
   256
177
   256
178
    40
  0
DIMSTYLE
  2
BIGT$7
 70
     0
  3

  4

  5

  6

  7

 40
0.0
 41
2.2299999999999991
 42
0.5
 43
7.0
 44
1.0
 45
0.0
 46
0.0
 47
0.0
 48
0.01
140
2.799999999999998
141
0.0
142
0.0
143
25.399999999999999
144
1.0
145
0.0
146
1.0
147
1.0
 71
     0
 72
     0
 73
     0
 74
     0
 75
     0
 76
     0
 77
     3
 78
     9
170
     0
171
     2
172
     0
173
     0
174
     0
175
     0
176
   256
177
   256
178
    40
  0
DIMSTYLE
  2
BIGT$SF
 70
     0
  3

  4

  5

  6

  7

 40
1.0
 41
2.2299999999999991
 42
0.5
 43
7.0
 44
1.0
 45
0.0
 46
0.0
 47
0.0
 48
0.0
140
2.799999999999998
141
0.0
142
0.0
143
25.399999999999999
144
1.0
145
0.0
146
1.0
147
1.0
 71
     0
 72
     0
 73
     0
 74
     0
 75
     0
 76
     0
 77
     3
 78
     9
170
     0
171
     2
172
     1
173
     0
174
     0
175
     0
176
   256
177
   256
178
    40
  0
DIMSTYLE
  2
BIGT$SH
 70
     0
  3

  4

  5

  6

  7

 40
1.0
 41
2.2299999999999991
 42
0.5
 43
7.0
 44
1.0
 45
0.0
 46
0.0
 47
0.0
 48
0.0
140
2.799999999999998
141
0.0
142
0.0
143
25.399999999999999
144
1.0
145
0.0
146
1.0
147
1.0
 71
     0
 72
     0
 73
     0
 74
     0
 75
     0
 76
     0
 77
     3
 78
     9
170
     0
171
     2
172
     1
173
     0
174
     0
175
     0
176
   256
177
   256
178
    40
  0
DIMSTYLE
  2
AM_ISO
 70
     0
  3

  4
"
  5

  6

  7

 40
1.0
 41
2.5
 42
1.0
 43
10.0
 44
1.0
 45
0.0
 46
0.0
 47
0.1
 48
0.1
140
3.5
141
0.0
142
0.0
143
0.0393701
144
1.0
145
0.0
146
0.71
147
1.5
 71
     0
 72
     0
 73
     0
 74
     0
 75
     0
 76
     0
 77
     1
 78
     8
170
     0
171
     2
172
     1
173
     0
174
     0
175
     0
176
   256
177
   256
178
     2
  0
DIMSTYLE
  2
AM_ISO$3
 70
     0
  3

  4
"
  5

  6

  7

 40
1.0
 41
2.5
 42
1.0
 43
10.0
 44
1.0
 45
0.0
 46
0.0
 47
0.1
 48
0.1
140
3.5
141
0.0
142
0.0
143
0.0393701
144
1.0
145
0.0
146
0.71
147
1.5
 71
     0
 72
     0
 73
     0
 74
     1
 75
     0
 76
     0
 77
     1
 78
     8
170
     0
171
     2
172
     0
173
     0
174
     0
175
     0
176
   256
177
   256
178
     2
  0
DIMSTYLE
  2
AM_ISO$4
 70
     0
  3

  4
"
  5

  6

  7

 40
1.0
 41
2.5
 42
1.0
 43
10.0
 44
1.0
 45
0.0
 46
0.0
 47
0.1
 48
0.1
140
3.5
141
0.0
142
0.0
143
0.0393701
144
1.0
145
0.0
146
0.71
147
1.5
 71
     0
 72
     0
 73
     0
 74
     1
 75
     0
 76
     0
 77
     1
 78
     8
170
     0
171
     2
172
     0
173
     0
174
     0
175
     0
176
   256
177
   256
178
     2
  0
DIMSTYLE
  2
AM_ISO$6
 70
     0
  3

  4
"
  5

  6

  7

 40
1.0
 41
2.5
 42
1.0
 43
10.0
 44
1.0
 45
0.0
 46
0.0
 47
0.1
 48
0.1
140
3.5
141
0.0
142
0.0
143
0.0393701
144
1.0
145
0.0
146
0.71
147
1.5
 71
     0
 72
     0
 73
     0
 74
     0
 75
     0
 76
     0
 77
     0
 78
     8
170
     0
171
     2
172
     1
173
     0
174
     0
175
     0
176
   256
177
   256
178
     2
  0
DIMSTYLE
  2
AM_ISO$7
 70
     0
  3

  4
"
  5

  6

  7

 40
1.0
 41
2.5
 42
1.0
 43
10.0
 44
1.0
 45
0.0
 46
0.0
 47
0.1
 48
0.1
140
5.0
141
0.0
142
0.0
143
0.0393701
144
1.0
145
0.0
146
0.71
147
1.5
 71
     0
 72
     0
 73
     0
 74
     0
 75
     0
 76
     0
 77
     1
 78
     8
170
     0
171
     2
172
     1
173
     0
174
     0
175
     0
176
   256
177
   256
178
     2
  0
DIMSTYLE
  2
AM_ISO$SF
 70
     0
  3

  4
"
  5

  6

  7

 40
1.0
 41
2.5
 42
1.0
 43
10.0
 44
1.0
 45
0.0
 46
0.0
 47
0.1
 48
0.1
140
3.5
141
0.0
142
0.0
143
0.0393701
144
1.0
145
0.0
146
0.71
147
1.5
 71
     0
 72
     0
 73
     0
 74
     0
 75
     1
 76
     1
 77
     1
 78
     8
170
     0
171
     2
172
     1
173
     0
174
     0
175
     0
176
   256
177
   256
178
     2
  0
DIMSTYLE
  2
AM_ISO$SH
 70
     0
  3

  4
"
  5

  6

  7

 40
1.0
 41
2.5
 42
1.0
 43
10.0
 44
1.0
 45
0.0
 46
0.0
 47
0.1
 48
0.1
140
3.5
141
0.0
142
0.0
143
0.0393701
144
2.0
145
0.0
146
0.71
147
1.5
 71
     0
 72
     0
 73
     0
 74
     0
 75
     1
 76
     1
 77
     1
 78
     8
170
     0
171
     2
172
     1
173
     1
174
     0
175
     0
176
   256
177
   256
178
     2
  0
DIMSTYLE
  2
TECHNICAL_OSAKA
 70
     0
  3

  4
"
  5

  6

  7

 40
1.0
 41
2.5
 42
1.0
 43
10.0
 44
1.0
 45
0.0
 46
0.0
 47
0.1
 48
0.1
140
2.799999999999998
141
0.0
142
0.0
143
0.0393701
144
1.0
145
0.0
146
0.71
147
1.5
 71
     0
 72
     0
 73
     0
 74
     0
 75
     0
 76
     0
 77
     3
 78
     8
170
     0
171
     2
172
     1
173
     0
174
     0
175
     0
176
   256
177
   256
178
    40
  0
DIMSTYLE
  2
TECHNICAL_OSAKA$3
 70
     0
  3

  4
"
  5

  6

  7

 40
1.0
 41
2.5
 42
1.0
 43
10.0
 44
1.0
 45
0.0
 46
0.0
 47
0.1
 48
0.1
140
2.799999999999998
141
0.0
142
0.0
143
0.0393701
144
1.0
145
0.0
146
0.71
147
1.5
 71
     0
 72
     0
 73
     0
 74
     1
 75
     0
 76
     0
 77
     3
 78
     8
170
     0
171
     2
172
     0
173
     0
174
     0
175
     0
176
   256
177
   256
178
    40
  0
DIMSTYLE
  2
TECHNICAL_OSAKA$4
 70
     0
  3

  4
"
  5

  6

  7

 40
1.0
 41
2.5
 42
1.0
 43
10.0
 44
1.0
 45
0.0
 46
0.0
 47
0.1
 48
0.1
140
2.799999999999998
141
0.0
142
0.0
143
0.0393701
144
1.0
145
0.0
146
0.71
147
1.5
 71
     0
 72
     0
 73
     0
 74
     1
 75
     0
 76
     0
 77
     3
 78
     8
170
     0
171
     2
172
     0
173
     0
174
     0
175
     0
176
   256
177
   256
178
    40
  0
DIMSTYLE
  2
TECHNICAL_OSAKA$6
 70
     0
  3

  4
"
  5

  6

  7

 40
1.0
 41
2.5
 42
1.0
 43
10.0
 44
1.0
 45
0.0
 46
0.0
 47
0.1
 48
0.1
140
2.799999999999998
141
0.0
142
0.0
143
0.0393701
144
1.0
145
0.0
146
0.71
147
1.5
 71
     0
 72
     0
 73
     0
 74
     0
 75
     0
 76
     0
 77
     0
 78
     8
170
     0
171
     2
172
     1
173
     0
174
     0
175
     0
176
   256
177
   256
178
    40
  0
DIMSTYLE
  2
TECHNICAL_OSAKA$7
 70
     0
  3

  4
"
  5

  6

  7

 40
1.0
 41
2.5
 42
1.0
 43
10.0
 44
1.0
 45
0.0
 46
0.0
 47
0.1
 48
0.1
140
2.799999999999998
141
0.0
142
0.0
143
0.0393701
144
1.0
145
0.0
146
0.71
147
1.5
 71
     0
 72
     0
 73
     0
 74
     0
 75
     0
 76
     0
 77
     3
 78
     8
170
     0
171
     2
172
     1
173
     0
174
     0
175
     0
176
   256
177
   256
178
    40
  0
DIMSTYLE
  2
TECHNICAL_OSAKA$SF
 70
     0
  3

  4
"
  5

  6

  7

 40
1.0
 41
2.5
 42
1.0
 43
10.0
 44
1.0
 45
0.0
 46
0.0
 47
0.1
 48
0.1
140
3.5
141
0.0
142
0.0
143
0.0393701
144
1.0
145
0.0
146
0.71
147
1.5
 71
     0
 72
     0
 73
     0
 74
     0
 75
     1
 76
     1
 77
     3
 78
     8
170
     0
171
     2
172
     1
173
     0
174
     0
175
     0
176
   256
177
   256
178
    40
  0
DIMSTYLE
  2
TECHNICAL_OSAKA$SH
 70
     0
  3

  4
"
  5

  6

  7

 40
1.0
 41
2.5
 42
1.0
 43
10.0
 44
1.0
 45
0.0
 46
0.0
 47
0.1
 48
0.1
140
3.5
141
0.0
142
0.0
143
0.0393701
144
2.0
145
0.0
146
0.71
147
1.5
 71
     0
 72
     0
 73
     0
 74
     0
 75
     1
 76
     1
 77
     3
 78
     8
170
     0
171
     2
172
     1
173
     1
174
     0
175
     0
176
   256
177
   256
178
    40
  0
DIMSTYLE
  2
AM_ANSI
 70
     0
  3

  4
mm
  5

  6

  7

 40
1.0
 41
0.12
 42
0.05
 43
0.5
 44
0.1
 45
0.0
 46
0.0
 47
0.1
 48
0.1
140
0.12
141
0.0
142
0.0
143
25.399999999999999
144
1.0
145
0.0
146
0.71
147
0.06
 71
     0
 72
     0
 73
     1
 74
     1
 75
     0
 76
     0
 77
     0
 78
     7
170
     0
171
     2
172
     0
173
     0
174
     0
175
     0
176
   256
177
   256
178
     2
  0
DIMSTYLE
  2
AM_ANSI$3
 70
     0
  3

  4
mm
  5

  6

  7

 40
1.0
 41
0.12
 42
0.05
 43
0.5
 44
0.1
 45
0.0
 46
0.0
 47
0.1
 48
0.1
140
0.12
141
0.0
142
0.0
143
25.399999999999999
144
1.0
145
0.0
146
0.71
147
0.06
 71
     0
 72
     0
 73
     1
 74
     1
 75
     0
 76
     0
 77
     0
 78
     7
170
     0
171
     2
172
     0
173
     0
174
     0
175
     0
176
   256
177
   256
178
     2
  0
DIMSTYLE
  2
AM_ANSI$4
 70
     0
  3

  4
mm
  5

  6

  7

 40
1.0
 41
0.12
 42
0.05
 43
0.5
 44
0.1
 45
0.0
 46
0.0
 47
0.1
 48
0.1
140
0.12
141
0.0
142
0.0
143
25.399999999999999
144
1.0
145
0.0
146
0.71
147
0.06
 71
     0
 72
     0
 73
     1
 74
     1
 75
     0
 76
     0
 77
     0
 78
     7
170
     0
171
     2
172
     0
173
     0
174
     0
175
     0
176
   256
177
   256
178
     2
  0
DIMSTYLE
  2
AM_ANSI$7
 70
     0
  3

  4
mm
  5

  6

  7

 40
1.0
 41
0.12
 42
0.05
 43
0.5
 44
0.1
 45
0.0
 46
0.0
 47
0.1
 48
0.1
140
0.12
141
0.0
142
0.0
143
25.399999999999999
144
1.0
145
0.0
146
0.71
147
0.06
 71
     0
 72
     0
 73
     1
 74
     1
 75
     0
 76
     0
 77
     0
 78
     7
170
     0
171
     2
172
     0
173
     0
174
     0
175
     0
176
   256
177
   256
178
     2
  0
DIMSTYLE
  2
AM_ANSI$SF
 70
     0
  3

  4
mm
  5

  6

  7

 40
1.0
 41
0.12
 42
0.05
 43
0.5
 44
0.1
 45
0.0
 46
0.0
 47
0.1
 48
0.1
140
0.12
141
0.0
142
0.0
143
25.399999999999999
144
1.0
145
0.0
146
0.71
147
0.06
 71
     0
 72
     0
 73
     1
 74
     1
 75
     1
 76
     1
 77
     0
 78
     7
170
     0
171
     2
172
     0
173
     0
174
     0
175
     0
176
   256
177
   256
178
     2
  0
DIMSTYLE
  2
AM_ANSI$SH
 70
     0
  3

  4
mm
  5

  6
GENAXEH
  7

 40
1.0
 41
0.12
 42
0.05
 43
0.5
 44
0.1
 45
0.0
 46
0.0
 47
0.1
 48
0.1
140
0.12
141
0.0
142
0.0
143
25.399999999999999
144
1.0
145
0.0
146
0.71
147
0.06
 71
     0
 72
     0
 73
     1
 74
     1
 75
     1
 76
     1
 77
     0
 78
     7
170
     0
171
     2
172
     0
173
     1
174
     0
175
     0
176
   256
177
   256
178
     2
  0
ENDTAB
  0
ENDSEC
  0
SECTION
  2
BLOCKS
  0
BLOCK
  8
0
  2
$MODEL_SPACE
 70
     0
 10
0.0
 20
0.0
 30
0.0
  3
$MODEL_SPACE
  1

  0
ENDBLK
  5
C62
  8
0
  0
BLOCK
 67
     1
  8
0
  2
$PAPER_SPACE
 70
     0
 10
0.0
 20
0.0
 30
0.0
  3
$PAPER_SPACE
  1

  0
ENDBLK
  5
C5E
 67
     1
  8
0
  0
BLOCK
  8
0
  2
_OPEN
 70
     0
 10
0.0
 20
0.0
 30
0.0
  3
_OPEN
  1

  0
LINE
  5
9AF
  8
0
  6
BYBLOCK
 62
     0
 10
-1.0
 20
0.1666666666666666
 30
0.0
 11
0.0
 21
0.0
 31
0.0
  0
LINE
  5
9B0
  8
0
  6
BYBLOCK
 62
     0
 10
-1.0
 20
-0.1666666666666666
 30
0.0
 11
0.0
 21
0.0
 31
0.0
  0
LINE
  5
9B1
  8
0
  6
BYBLOCK
 62
     0
 10
0.0
 20
0.0
 30
0.0
 11
-1.0
 21
0.0
 31
0.0
  0
ENDBLK
  5
9B2
  8
0
  0
BLOCK
  8
0
  2
矢印なし
 70
     0
 10
0.0
 20
0.0
 30
0.0
  3
矢印なし
  1

  0
ENDBLK
  5
6E5
  8
0
  0
BLOCK
  8
0
  2
GENAXEH
 70
     0
 10
0.0
 20
0.0
 30
0.0
  3
GENAXEH
  1

  0
LINE
  5
9EA
  8
0
 10
-1.0
 20
0.0
 30
0.0
 11
1.0
 21
0.0
 31
0.0
  0
ENDBLK
  5
9EB
  8
0
  0
BLOCK
  8
0
  2
_OPEN30
 70
     0
 10
0.0
 20
0.0
 30
0.0
  3
_OPEN30
  1

  0
LINE
  5
A26
  8
0
  6
BYBLOCK
 62
     0
 10
-1.0
 20
0.26794919
 30
0.0
 11
0.0
 21
0.0
 31
0.0
  0
LINE
  5
A27
  8
0
  6
BYBLOCK
 62
     0
 10
0.0
 20
0.0
 30
0.0
 11
-1.0
 21
-0.26794919
 31
0.0
  0
LINE
  5
A28
  8
0
  6
BYBLOCK
 62
     0
 10
0.0
 20
0.0
 30
0.0
 11
-1.0
 21
0.0
 31
0.0
  0
ENDBLK
  5
A29
  8
0
  0
BLOCK
  8
0
  2
_ACMFILLEDHALF
 70
     0
 10
0.0
 20
0.0
 30
0.0
  3
_ACMFILLEDHALF
  1

  0
TRACE
  5
D26
  8
245
 62
     0
 10
-0.8
 20
0.0
 30
0.0
 11
-1.0
 21
0.166666666
 31
0.0
 12
0.0
 22
0.0
 32
0.0
 13
0.0
 23
0.0
 33
0.0
  0
LINE
  5
D27
  8
245
 62
     0
 10
-1.0
 20
0.0
 30
0.0
 11
-0.8
 21
0.0
 31
0.0
  0
ENDBLK
  5
D25
  8
0
  0
BLOCK
  8
0
  2
*D8
 70
     1
 10
0.0
 20
0.0
 30
0.0
  3
*D8
  1

  0
LINE
  5
D69
  8
AM_5
 10
22.554491346315292
 20
-0.0000000000000001
 30
0.0
 11
36.0
 21
-0.000000000000004
 31
0.0
  0
LINE
  5
D6A
  8
AM_5
 10
24.600000086315291
 20
12.499999999999989
 30
0.0
 11
36.0
 21
12.49999999999998
 31
0.0
  0
LINE
  5
D6B
  8
AM_5
 10
35.0
 20
2.2299999999999951
 30
0.0
 11
35.0
 21
10.269999999999991
 31
0.0
  0
INSERT
  5
D6C
  8
AM_5
  2
_OPEN
 10
35.0
 20
-0.0000000000000037
 30
0.0
 41
2.2299999999999991
 42
2.2299999999999991
 43
2.2299999999999991
 50
270.0
  0
INSERT
  5
D6D
  8
AM_5
  2
_OPEN
 10
35.0
 20
12.49999999999998
 30
0.0
 41
2.2299999999999991
 42
2.2299999999999991
 43
2.2299999999999991
 50
90.0
  0
INSERT
  5
D6E
  8
245
  2
*U10
 10
0.0
 20
0.0
 30
0.0
  0
POINT
  5
D6F
  8
DEFPOINTS
 62
     0
 10
22.054491346315292
 20
0.0
 30
0.0
  0
POINT
  5
D70
  8
DEFPOINTS
 62
     0
 10
24.100000086315291
 20
12.499999999999989
 30
0.0
  0
POINT
  5
D71
  8
DEFPOINTS
 62
     0
 10
35.0
 20
12.49999999999998
 30
0.0
  0
ENDBLK
  5
D4C
  8
0
  0
BLOCK
  8
0
  2
*U10
 70
     1
 10
0.0
 20
0.0
 30
0.0
  3
*U10
  1

  0
TEXT
  5
DF0
  8
AM_5
 62
    40
 10
34.0
 20
1.3833333333333331
 30
0.0
 40
2.799999999999998
  1
12.5
 50
90.0
  0
ENDBLK
  5
DF2
  8
0
  0
ENDSEC
  0
SECTION
  2
ENTITIES
  0
INSERT
  5
6E6
  8
245
  2
矢印なし
 10
175.62382697000001
 20
90.551235719999994
 30
0.0
  0
TEXT
  5
83E
  8
241
 10
-7.4999999136847073
 20
43.692999999999991
 30
0.0
 40
5.0
  1
ENH6-1
  7
YOKO
 11
-7.4999999136847073
 21
43.692999999999991
 31
0.0
 73
     1
  0
LINE
  5
A58
  8
240
  6
CONTINUOUS
 10
7.00000008631529
 20
9.5
 30
0.0
 11
12.50000008631528
 21
9.5
 31
0.0
1001
GRPNAME
1000
PASTMD02
  0
LINE
  5
A59
  8
240
  6
CONTINUOUS
 10
3.63225191631529
 20
0.0
 30
0.0
 11
22.054491346315292
 21
0.0
 31
0.0
1001
GRPNAME
1000
PASTMD02
  0
ARC
  5
A5A
  8
240
  6
CONTINUOUS
 10
-11.499999913684711
 20
6.5
 30
0.0
 40
3.0
 50
89.999999990000006
 51
179.99999998999999
1001
GRPNAME
1000
PASTMD02
  0
LINE
  5
A5B
  8
240
  6
CONTINUOUS
 10
-14.499999913684711
 20
0.0
 30
0.0
 11
-3.6322517436847082
 21
0.0
 31
0.0
1001
GRPNAME
1000
PASTMD02
  0
LINE
  5
A5C
  8
240
  6
CONTINUOUS
 10
-14.499999913684711
 20
0.0
 30
0.0
 11
-14.499999913684711
 21
6.5
 31
0.0
1001
GRPNAME
1000
PASTMD02
  0
LINE
  5
A5D
  8
245
  6
CENTER2
 10
0.0000000863152918
 20
-2.395711369999999
 30
0.0
 11
0.0000000863152918
 21
11.8414704
 31
0.0
1001
GRPNAME
1000
PASTMD02
  0
LINE
  5
A5E
  8
240
  6
CONTINUOUS
 10
-3.6322517436847082
 20
2.0999999999999992
 30
0.0
 11
3.63225191631529
 21
2.0999999999999992
 31
0.0
1001
GRPNAME
1000
PASTMD02
  0
POLYLINE
  5
B50
  8
240
 66
     1
 10
0.0
 20
0.0
 30
0.0
 70
     8
  0
VERTEX
  5
B51
  8
240
 10
-7.0
 20
9.5
 30
0.0
 70
    32
  0
VERTEX
  5
B52
  8
240
 10
-6.91195
 20
9.4847699999999993
 30
0.0
 70
    32
  0
VERTEX
  5
B53
  8
240
 10
-6.8239000000000001
 20
9.4695499999999981
 30
0.0
 70
    32
  0
VERTEX
  5
B54
  8
240
 10
-6.7358500000000001
 20
9.4543400000000002
 30
0.0
 70
    32
  0
VERTEX
  5
B55
  8
240
 10
-6.6478000000000002
 20
9.4391499999999997
 30
0.0
 70
    32
  0
VERTEX
  5
B56
  8
240
 10
-6.5597500000000002
 20
9.4239699999999988
 30
0.0
 70
    32
  0
VERTEX
  5
B57
  8
240
 10
-6.4717000000000002
 20
9.4088100000000008
 30
0.0
 70
    32
  0
VERTEX
  5
B58
  8
240
 10
-6.3836500000000003
 20
9.3936899999999994
 30
0.0
 70
    32
  0
VERTEX
  5
B59
  8
240
 10
-6.2956000000000003
 20
9.3786000000000005
 30
0.0
 70
    32
  0
VERTEX
  5
B5A
  8
240
 10
-6.2075500000000003
 20
9.36355
 30
0.0
 70
    32
  0
VERTEX
  5
B5B
  8
240
 10
-6.1195000000000004
 20
9.3485399999999998
 30
0.0
 70
    32
  0
VERTEX
  5
B5C
  8
240
 10
-6.0314500000000004
 20
9.3335799999999995
 30
0.0
 70
    32
  0
VERTEX
  5
B5D
  8
240
 10
-5.9433999999999987
 20
9.3186699999999991
 30
0.0
 70
    32
  0
VERTEX
  5
B5E
  8
240
 10
-5.8553499999999987
 20
9.3038199999999982
 30
0.0
 70
    32
  0
VERTEX
  5
B5F
  8
240
 10
-5.7672999999999988
 20
9.2890300000000003
 30
0.0
 70
    32
  0
VERTEX
  5
B60
  8
240
 10
-5.6792499999999988
 20
9.2743099999999998
 30
0.0
 70
    32
  0
VERTEX
  5
B61
  8
240
 10
-5.5911900000000001
 20
9.2596699999999998
 30
0.0
 70
    32
  0
VERTEX
  5
B62
  8
240
 10
-5.5031400000000001
 20
9.2451000000000008
 30
0.0
 70
    32
  0
VERTEX
  5
B63
  8
240
 10
-5.4150900000000002
 20
9.2306100000000004
 30
0.0
 70
    32
  0
VERTEX
  5
B64
  8
240
 10
-5.3270400000000002
 20
9.2162100000000002
 30
0.0
 70
    32
  0
VERTEX
  5
B65
  8
240
 10
-5.2389900000000003
 20
9.2019000000000002
 30
0.0
 70
    32
  0
VERTEX
  5
B66
  8
240
 10
-5.1509400000000003
 20
9.1876800000000003
 30
0.0
 70
    32
  0
VERTEX
  5
B67
  8
240
 10
-5.0628900000000003
 20
9.1735699999999998
 30
0.0
 70
    32
  0
VERTEX
  5
B68
  8
240
 10
-4.9748400000000004
 20
9.1595600000000008
 30
0.0
 70
    32
  0
VERTEX
  5
B69
  8
240
 10
-4.8867900000000004
 20
9.1456699999999991
 30
0.0
 70
    32
  0
VERTEX
  5
B6A
  8
240
 10
-4.7987399999999996
 20
9.1318900000000003
 30
0.0
 70
    32
  0
VERTEX
  5
B6B
  8
240
 10
-4.7106899999999996
 20
9.1182300000000005
 30
0.0
 70
    32
  0
VERTEX
  5
B6C
  8
240
 10
-4.6226399999999996
 20
9.1046899999999997
 30
0.0
 70
    32
  0
VERTEX
  5
B6D
  8
240
 10
-4.5345899999999997
 20
9.0912899999999972
 30
0.0
 70
    32
  0
VERTEX
  5
B6E
  8
240
 10
-4.4465399999999988
 20
9.0780200000000004
 30
0.0
 70
    32
  0
VERTEX
  5
B6F
  8
240
 10
-4.3584899999999989
 20
9.0648900000000001
 30
0.0
 70
    32
  0
VERTEX
  5
B70
  8
240
 10
-4.2704399999999989
 20
9.0518999999999998
 30
0.0
 70
    32
  0
VERTEX
  5
B71
  8
240
 10
-4.1823899999999989
 20
9.0390699999999988
 30
0.0
 70
    32
  0
VERTEX
  5
B72
  8
240
 10
-4.094339999999999
 20
9.0263899999999992
 30
0.0
 70
    32
  0
VERTEX
  5
B73
  8
240
 10
-4.006289999999999
 20
9.0138600000000011
 30
0.0
 70
    32
  0
VERTEX
  5
B74
  8
240
 10
-3.9182399999999991
 20
9.0015100000000015
 30
0.0
 70
    32
  0
VERTEX
  5
B75
  8
240
 10
-3.8301899999999991
 20
8.9893199999999993
 30
0.0
 70
    32
  0
VERTEX
  5
B76
  8
240
 10
-3.74214
 20
8.9772999999999996
 30
0.0
 70
    32
  0
VERTEX
  5
B77
  8
240
 10
-3.6540900000000001
 20
8.9654600000000002
 30
0.0
 70
    32
  0
VERTEX
  5
B78
  8
240
 10
-3.5660400000000001
 20
8.9538100000000007
 30
0.0
 70
    32
  0
VERTEX
  5
B79
  8
240
 10
-3.4779900000000001
 20
8.9423399999999997
 30
0.0
 70
    32
  0
VERTEX
  5
B7A
  8
240
 10
-3.3899400000000002
 20
8.9310600000000004
 30
0.0
 70
    32
  0
VERTEX
  5
B7B
  8
240
 10
-3.3018900000000002
 20
8.9199899999999985
 30
0.0
 70
    32
  0
VERTEX
  5
B7C
  8
240
 10
-3.2138399999999998
 20
8.9091100000000001
 30
0.0
 70
    32
  0
VERTEX
  5
B7D
  8
240
 10
-3.1257899999999998
 20
8.898439999999999
 30
0.0
 70
    32
  0
VERTEX
  5
B7E
  8
240
 10
-3.0377399999999999
 20
8.8879900000000003
 30
0.0
 70
    32
  0
VERTEX
  5
B7F
  8
240
 10
-2.9496899999999999
 20
8.8777500000000007
 30
0.0
 70
    32
  0
VERTEX
  5
B80
  8
240
 10
-2.8616399999999991
 20
8.8677299999999981
 30
0.0
 70
    32
  0
VERTEX
  5
B81
  8
240
 10
-2.773579999999999
 20
8.8579399999999993
 30
0.0
 70
    32
  0
VERTEX
  5
B82
  8
240
 10
-2.6855299999999991
 20
8.8483800000000006
 30
0.0
 70
    32
  0
VERTEX
  5
B83
  8
240
 10
-2.59748
 20
8.8390599999999981
 30
0.0
 70
    32
  0
VERTEX
  5
B84
  8
240
 10
-2.50943
 20
8.8299800000000008
 30
0.0
 70
    32
  0
VERTEX
  5
B85
  8
240
 10
-2.4213800000000001
 20
8.8211399999999998
 30
0.0
 70
    32
  0
VERTEX
  5
B86
  8
240
 10
-2.3333300000000001
 20
8.8125600000000013
 30
0.0
 70
    32
  0
VERTEX
  5
B87
  8
240
 10
-2.2452799999999988
 20
8.804219999999999
 30
0.0
 70
    32
  0
VERTEX
  5
B88
  8
240
 10
-2.1572299999999989
 20
8.7961500000000008
 30
0.0
 70
    32
  0
VERTEX
  5
B89
  8
240
 10
-2.0691799999999989
 20
8.7883499999999994
 30
0.0
 70
    32
  0
VERTEX
  5
B8A
  8
240
 10
-1.9811299999999989
 20
8.7808100000000007
 30
0.0
 70
    32
  0
VERTEX
  5
B8B
  8
240
 10
-1.893079999999999
 20
8.7735500000000002
 30
0.0
 70
    32
  0
VERTEX
  5
B8C
  8
240
 10
-1.8050299999999999
 20
8.7665699999999998
 30
0.0
 70
    32
  0
VERTEX
  5
B8D
  8
240
 10
-1.7169799999999991
 20
8.7598699999999994
 30
0.0
 70
    32
  0
VERTEX
  5
B8E
  8
240
 10
-1.6289299999999991
 20
8.7534700000000001
 30
0.0
 70
    32
  0
VERTEX
  5
B8F
  8
240
 10
-1.54088
 20
8.7473500000000008
 30
0.0
 70
    32
  0
VERTEX
  5
B90
  8
240
 10
-1.452829999999999
 20
8.7415399999999988
 30
0.0
 70
    32
  0
VERTEX
  5
B91
  8
240
 10
-1.364779999999999
 20
8.7360199999999981
 30
0.0
 70
    32
  0
VERTEX
  5
B92
  8
240
 10
-1.276729999999999
 20
8.7308199999999996
 30
0.0
 70
    32
  0
VERTEX
  5
B93
  8
240
 10
-1.1886799999999991
 20
8.7259299999999982
 30
0.0
 70
    32
  0
VERTEX
  5
B94
  8
240
 10
-1.1006299999999991
 20
8.7213600000000007
 30
0.0
 70
    32
  0
VERTEX
  5
B95
  8
240
 10
-1.01258
 20
8.7171099999999981
 30
0.0
 70
    32
  0
VERTEX
  5
B96
  8
240
 10
-0.9245280000000001
 20
8.7131899999999991
 30
0.0
 70
    32
  0
VERTEX
  5
B97
  8
240
 10
-0.8364779999999999
 20
8.7096
 30
0.0
 70
    32
  0
VERTEX
  5
B98
  8
240
 10
-0.748428
 20
8.7063399999999991
 30
0.0
 70
    32
  0
VERTEX
  5
B99
  8
240
 10
-0.660377
 20
8.7034300000000009
 30
0.0
 70
    32
  0
VERTEX
  5
B9A
  8
240
 10
-0.5723270000000001
 20
8.7008700000000001
 30
0.0
 70
    32
  0
VERTEX
  5
B9B
  8
240
 10
-0.4842770000000001
 20
8.6986600000000003
 30
0.0
 70
    32
  0
VERTEX
  5
B9C
  8
240
 10
-0.396226
 20
8.696810000000001
 30
0.0
 70
    32
  0
VERTEX
  5
B9D
  8
240
 10
-0.308176
 20
8.6953099999999992
 30
0.0
 70
    32
  0
VERTEX
  5
B9E
  8
240
 10
-0.220126
 20
8.6941800000000011
 30
0.0
 70
    32
  0
VERTEX
  5
B9F
  8
240
 10
-0.132075
 20
8.6934300000000011
 30
0.0
 70
    32
  0
VERTEX
  5
BA0
  8
240
 10
-0.0440251
 20
8.6930499999999995
 30
0.0
 70
    32
  0
VERTEX
  5
BA1
  8
240
 10
0.0440252
 20
8.6930499999999995
 30
0.0
 70
    32
  0
VERTEX
  5
BA2
  8
240
 10
0.132076
 20
8.6934300000000011
 30
0.0
 70
    32
  0
VERTEX
  5
BA3
  8
240
 10
0.220126
 20
8.6941800000000011
 30
0.0
 70
    32
  0
VERTEX
  5
BA4
  8
240
 10
0.308176
 20
8.6953099999999992
 30
0.0
 70
    32
  0
VERTEX
  5
BA5
  8
240
 10
0.396227
 20
8.696810000000001
 30
0.0
 70
    32
  0
VERTEX
  5
BA6
  8
240
 10
0.4842770000000001
 20
8.6986600000000003
 30
0.0
 70
    32
  0
VERTEX
  5
BA7
  8
240
 10
0.5723270000000001
 20
8.7008700000000001
 30
0.0
 70
    32
  0
VERTEX
  5
BA8
  8
240
 10
0.660377
 20
8.7034300000000009
 30
0.0
 70
    32
  0
VERTEX
  5
BA9
  8
240
 10
0.748428
 20
8.7063399999999991
 30
0.0
 70
    32
  0
VERTEX
  5
BAA
  8
240
 10
0.8364779999999999
 20
8.7096
 30
0.0
 70
    32
  0
VERTEX
  5
BAB
  8
240
 10
0.9245280000000001
 20
8.7131899999999991
 30
0.0
 70
    32
  0
VERTEX
  5
BAC
  8
240
 10
1.01258
 20
8.7171099999999981
 30
0.0
 70
    32
  0
VERTEX
  5
BAD
  8
240
 10
1.1006299999999991
 20
8.7213600000000007
 30
0.0
 70
    32
  0
VERTEX
  5
BAE
  8
240
 10
1.1886799999999991
 20
8.7259299999999982
 30
0.0
 70
    32
  0
VERTEX
  5
BAF
  8
240
 10
1.276729999999999
 20
8.7308199999999996
 30
0.0
 70
    32
  0
VERTEX
  5
BB0
  8
240
 10
1.364779999999999
 20
8.7360199999999981
 30
0.0
 70
    32
  0
VERTEX
  5
BB1
  8
240
 10
1.452829999999999
 20
8.7415399999999988
 30
0.0
 70
    32
  0
VERTEX
  5
BB2
  8
240
 10
1.54088
 20
8.7473500000000008
 30
0.0
 70
    32
  0
VERTEX
  5
BB3
  8
240
 10
1.6289299999999991
 20
8.7534700000000001
 30
0.0
 70
    32
  0
VERTEX
  5
BB4
  8
240
 10
1.7169799999999991
 20
8.7598699999999994
 30
0.0
 70
    32
  0
VERTEX
  5
BB5
  8
240
 10
1.8050299999999999
 20
8.7665699999999998
 30
0.0
 70
    32
  0
VERTEX
  5
BB6
  8
240
 10
1.893079999999999
 20
8.7735500000000002
 30
0.0
 70
    32
  0
VERTEX
  5
BB7
  8
240
 10
1.9811299999999989
 20
8.7808100000000007
 30
0.0
 70
    32
  0
VERTEX
  5
BB8
  8
240
 10
2.0691799999999989
 20
8.7883499999999994
 30
0.0
 70
    32
  0
VERTEX
  5
BB9
  8
240
 10
2.1572299999999989
 20
8.7961500000000008
 30
0.0
 70
    32
  0
VERTEX
  5
BBA
  8
240
 10
2.2452799999999988
 20
8.804219999999999
 30
0.0
 70
    32
  0
VERTEX
  5
BBB
  8
240
 10
2.3333300000000001
 20
8.8125600000000013
 30
0.0
 70
    32
  0
VERTEX
  5
BBC
  8
240
 10
2.4213800000000001
 20
8.8211399999999998
 30
0.0
 70
    32
  0
VERTEX
  5
BBD
  8
240
 10
2.50943
 20
8.8299800000000008
 30
0.0
 70
    32
  0
VERTEX
  5
BBE
  8
240
 10
2.59748
 20
8.8390599999999981
 30
0.0
 70
    32
  0
VERTEX
  5
BBF
  8
240
 10
2.6855299999999991
 20
8.8483800000000006
 30
0.0
 70
    32
  0
VERTEX
  5
BC0
  8
240
 10
2.773579999999999
 20
8.8579399999999993
 30
0.0
 70
    32
  0
VERTEX
  5
BC1
  8
240
 10
2.8616399999999991
 20
8.8677299999999981
 30
0.0
 70
    32
  0
VERTEX
  5
BC2
  8
240
 10
2.9496899999999999
 20
8.8777500000000007
 30
0.0
 70
    32
  0
VERTEX
  5
BC3
  8
240
 10
3.0377399999999999
 20
8.8879900000000003
 30
0.0
 70
    32
  0
VERTEX
  5
BC4
  8
240
 10
3.1257899999999998
 20
8.898439999999999
 30
0.0
 70
    32
  0
VERTEX
  5
BC5
  8
240
 10
3.2138399999999998
 20
8.9091100000000001
 30
0.0
 70
    32
  0
VERTEX
  5
BC6
  8
240
 10
3.3018900000000002
 20
8.9199899999999985
 30
0.0
 70
    32
  0
VERTEX
  5
BC7
  8
240
 10
3.3899400000000002
 20
8.9310600000000004
 30
0.0
 70
    32
  0
VERTEX
  5
BC8
  8
240
 10
3.4779900000000001
 20
8.9423399999999997
 30
0.0
 70
    32
  0
VERTEX
  5
BC9
  8
240
 10
3.5660400000000001
 20
8.9538100000000007
 30
0.0
 70
    32
  0
VERTEX
  5
BCA
  8
240
 10
3.6540900000000001
 20
8.9654600000000002
 30
0.0
 70
    32
  0
VERTEX
  5
BCB
  8
240
 10
3.74214
 20
8.9772999999999996
 30
0.0
 70
    32
  0
VERTEX
  5
BCC
  8
240
 10
3.8301899999999991
 20
8.9893199999999993
 30
0.0
 70
    32
  0
VERTEX
  5
BCD
  8
240
 10
3.9182399999999991
 20
9.0015100000000015
 30
0.0
 70
    32
  0
VERTEX
  5
BCE
  8
240
 10
4.006289999999999
 20
9.0138600000000011
 30
0.0
 70
    32
  0
VERTEX
  5
BCF
  8
240
 10
4.094339999999999
 20
9.0263899999999992
 30
0.0
 70
    32
  0
VERTEX
  5
BD0
  8
240
 10
4.1823899999999989
 20
9.0390699999999988
 30
0.0
 70
    32
  0
VERTEX
  5
BD1
  8
240
 10
4.2704399999999989
 20
9.0518999999999998
 30
0.0
 70
    32
  0
VERTEX
  5
BD2
  8
240
 10
4.3584899999999989
 20
9.0648900000000001
 30
0.0
 70
    32
  0
VERTEX
  5
BD3
  8
240
 10
4.4465399999999988
 20
9.0780200000000004
 30
0.0
 70
    32
  0
VERTEX
  5
BD4
  8
240
 10
4.5345899999999997
 20
9.0912899999999972
 30
0.0
 70
    32
  0
VERTEX
  5
BD5
  8
240
 10
4.6226399999999996
 20
9.1046899999999997
 30
0.0
 70
    32
  0
VERTEX
  5
BD6
  8
240
 10
4.7106899999999996
 20
9.1182300000000005
 30
0.0
 70
    32
  0
VERTEX
  5
BD7
  8
240
 10
4.7987399999999996
 20
9.1318900000000003
 30
0.0
 70
    32
  0
VERTEX
  5
BD8
  8
240
 10
4.8867900000000004
 20
9.1456699999999991
 30
0.0
 70
    32
  0
VERTEX
  5
BD9
  8
240
 10
4.9748400000000004
 20
9.1595600000000008
 30
0.0
 70
    32
  0
VERTEX
  5
BDA
  8
240
 10
5.0628900000000003
 20
9.1735699999999998
 30
0.0
 70
    32
  0
VERTEX
  5
BDB
  8
240
 10
5.1509400000000003
 20
9.1876800000000003
 30
0.0
 70
    32
  0
VERTEX
  5
BDC
  8
240
 10
5.2389900000000003
 20
9.2019000000000002
 30
0.0
 70
    32
  0
VERTEX
  5
BDD
  8
240
 10
5.3270400000000002
 20
9.2162100000000002
 30
0.0
 70
    32
  0
VERTEX
  5
BDE
  8
240
 10
5.4150900000000002
 20
9.2306100000000004
 30
0.0
 70
    32
  0
VERTEX
  5
BDF
  8
240
 10
5.5031400000000001
 20
9.2451000000000008
 30
0.0
 70
    32
  0
VERTEX
  5
BE0
  8
240
 10
5.5911999999999988
 20
9.2596699999999998
 30
0.0
 70
    32
  0
VERTEX
  5
BE1
  8
240
 10
5.6792499999999988
 20
9.2743099999999998
 30
0.0
 70
    32
  0
VERTEX
  5
BE2
  8
240
 10
5.7672999999999988
 20
9.2890300000000003
 30
0.0
 70
    32
  0
VERTEX
  5
BE3
  8
240
 10
5.8553499999999987
 20
9.3038199999999982
 30
0.0
 70
    32
  0
VERTEX
  5
BE4
  8
240
 10
5.9433999999999987
 20
9.3186699999999991
 30
0.0
 70
    32
  0
VERTEX
  5
BE5
  8
240
 10
6.0314500000000004
 20
9.3335799999999995
 30
0.0
 70
    32
  0
VERTEX
  5
BE6
  8
240
 10
6.1195000000000004
 20
9.3485399999999998
 30
0.0
 70
    32
  0
VERTEX
  5
BE7
  8
240
 10
6.2075500000000003
 20
9.36355
 30
0.0
 70
    32
  0
VERTEX
  5
BE8
  8
240
 10
6.2956000000000003
 20
9.3786000000000005
 30
0.0
 70
    32
  0
VERTEX
  5
BE9
  8
240
 10
6.3836500000000003
 20
9.3936899999999994
 30
0.0
 70
    32
  0
VERTEX
  5
BEA
  8
240
 10
6.4717000000000002
 20
9.4088100000000008
 30
0.0
 70
    32
  0
VERTEX
  5
BEB
  8
240
 10
6.5597500000000002
 20
9.4239699999999988
 30
0.0
 70
    32
  0
VERTEX
  5
BEC
  8
240
 10
6.6478000000000002
 20
9.4391499999999997
 30
0.0
 70
    32
  0
VERTEX
  5
BED
  8
240
 10
6.7358500000000001
 20
9.4543400000000002
 30
0.0
 70
    32
  0
VERTEX
  5
BEE
  8
240
 10
6.8239000000000001
 20
9.4695499999999981
 30
0.0
 70
    32
  0
VERTEX
  5
BEF
  8
240
 10
6.91195
 20
9.4847699999999993
 30
0.0
 70
    32
  0
VERTEX
  5
BF0
  8
240
 10
7.0
 20
9.5
 30
0.0
 70
    32
  0
SEQEND
  5
BF1
  8
240
  0
LINE
  5
A60
  8
240
  6
CONTINUOUS
 10
-3.6322517436847082
 20
0.0
 30
0.0
 11
-3.6322517436847082
 21
2.0999999999999992
 31
0.0
1001
GRPNAME
1000
PASTMD02
  0
LINE
  5
A61
  8
240
  6
CONTINUOUS
 10
-11.499999913684711
 20
9.5
 30
0.0
 11
-6.9999999136847082
 21
9.5
 31
0.0
1001
GRPNAME
1000
PASTMD02
  0
LINE
  5
A62
  8
240
  6
CONTINUOUS
 10
3.63225191631529
 20
0.0
 30
0.0
 11
3.63225191631529
 21
2.0999999999999992
 31
0.0
1001
GRPNAME
1000
PASTMD02
  0
LINE
  5
A63
  8
241
  6
CONTINUOUS
 10
17.587176776315282
 20
9.2304812700000003
 30
0.0
 11
22.92440341631529
 21
11.949934069999999
 31
0.0
1001
GRPNAME
1000
PASTMD01
  0
LINE
  5
A65
  8
241
  6
CONTINUOUS
 10
17.419701716315291
 20
6.0348667599999981
 30
0.0
 11
23.379045106315289
 21
2.1648239099999991
 31
0.0
1001
GRPNAME
1000
PASTMD01
  0
LINE
  5
A66
  8
240
  6
CONTINUOUS
 10
12.893277156315291
 20
10.181175870000001
 30
0.0
 11
22.92440341631529
 21
11.949934069999999
 31
0.0
1001
GRPNAME
1000
PASTMD01
  0
LINE
  5
A67
  8
241
  6
PHANTOM2
 10
15.31700390631528
 20
7.4003746799999988
 30
0.0
 11
17.419701716315291
 21
6.0348667599999981
 31
0.0
1001
GRPNAME
1000
PASTMD01
  0
LINE
  5
A68
  8
241
  6
CONTINUOUS
 10
12.55736843631529
 20
0.0
 30
0.0
 11
12.55736843631529
 21
9.3074850199999997
 31
0.0
1001
GRPNAME
1000
PASTMD02
  0
ARC
  5
A6A
  8
241
  6
CONTINUOUS
 10
11.50000008631528
 20
6.5
 30
0.0
 40
3.0
 50
0.0
 51
90.0
1001
GRPNAME
1000
PASTMD02
  0
LINE
  5
A6B
  8
241
  6
CONTINUOUS
 10
14.50000008631528
 20
0.0
 30
0.0
 11
14.50000008631528
 21
6.5
 31
0.0
1001
GRPNAME
1000
PASTMD02
  0
LINE
  5
A6D
  8
240
  6
CONTINUOUS
 10
12.50000008631528
 20
9.5
 30
0.0
 11
12.893277156315291
 21
10.181175870000001
 31
0.0
1001
GRPNAME
1000
PASTMD02
  0
ARC
  5
A6E
  8
241
  6
PHANTOM2
 10
15.534859526315291
 20
7.7358429099999988
 30
0.0
 40
0.3999999999999881
 50
117.00000008000001
 51
237.00000008000009
1001
GRPNAME
1000
PASTMD01
  0
LINE
  5
A6F
  8
241
  6
PHANTOM2
 10
15.35326332631529
 20
8.0922455099999961
 30
0.0
 11
17.587176776315282
 21
9.2304812700000003
 31
0.0
1001
GRPNAME
1000
PASTMD01
  0
LINE
  5
A71
  8
240
  6
PHANTOM2
 10
24.4994518963153
 20
12.07906562
 30
0.0
 11
23.996352526315292
 21
2.4793577599999992
 31
0.0
1001
GRPNAME
1000
PASTMD01
  0
ARC
  5
A72
  8
240
  6
PHANTOM2
 10
23.59690071631529
 20
2.5002921399999991
 30
0.0
 40
0.3999999999999777
 50
268.43252613999999
 51
356.99999994000001
1001
GRPNAME
1000
PASTMD01
  0
ARC
  5
A73
  8
241
  6
PHANTOM2
 10
23.59690071631529
 20
2.5002921399999991
 30
0.0
 40
0.3999999999999777
 50
236.99999994000001
 51
268.43252613999999
1001
GRPNAME
1000
PASTMD01
  0
LINE
  5
A74
  8
240
  6
CONTINUOUS
 10
23.554491346315292
 20
1.5
 30
0.0
 11
23.585959176315288
 21
2.1004418099999991
 31
0.0
1001
GRPNAME
1000
PASTMD01
  0
LINE
  5
A75
  8
240
  6
CONTINUOUS
 10
22.054491346315292
 20
0.0
 30
0.0
 11
23.554491346315292
 21
1.5
 31
0.0
1001
GRPNAME
1000
PASTMD02
  0
LINE
  5
A76
  8
240
  6
PHANTOM2
 10
23.918403886315289
 20
12.45640261
 30
0.0
 11
22.92440341631529
 21
11.949934069999999
 31
0.0
1001
GRPNAME
1000
PASTMD01
  0
ARC
  5
A77
  8
240
  6
PHANTOM2
 10
24.100000086315291
 20
12.1
 30
0.0
 40
0.3999999999999878
 50
357.00000002000002
 51
117.00000002
1001
GRPNAME
1000
PASTMD01
  0
LINE
  5
A79
  8
250
 10
0.0000000863152918
 20
12.3414704
 30
0.0
 11
0.0000000863152918
 21
23.693000000000001
 31
0.0
  0
LINE
  5
A7A
  8
250
 10
24.500000086315289
 20
12.589525630000001
 30
0.0
 11
24.500000086315289
 21
23.693000000000001
 31
0.0
  0
LINE
  5
A7B
  8
250
 10
2.23000008631529
 20
22.693000000000001
 30
0.0
 11
22.270000086315289
 21
22.693000000000001
 31
0.0
  0
TEXT
  5
A85
  8
250
 10
7.5833334196486231
 20
23.693000000000001
 30
0.0
 40
2.799999999999998
  1
24.5
1001
ACAD
1000
MTEXTBEGIN
1070
    73
1070
     1
1070
    44
1040
1.0
1070
    74
1070
     0
1000
MTEXTEND
  0
LINE
  5
A86
  8
250
 10
22.270000086315289
 20
23.064666666666671
 30
0.0
 11
24.500000086315289
 21
22.693000000000001
 31
0.0
  0
LINE
  5
A87
  8
250
 10
22.270000086315289
 20
22.321333333333332
 30
0.0
 11
24.500000086315289
 21
22.693000000000001
 31
0.0
  0
LINE
  5
A88
  8
250
 10
24.500000086315289
 20
22.693000000000001
 30
0.0
 11
22.270000086315289
 21
22.693000000000001
 31
0.0
  0
LINE
  5
A89
  8
250
 10
2.23000008631529
 20
22.321333333333332
 30
0.0
 11
0.0000000863152918
 21
22.693000000000001
 31
0.0
  0
LINE
  5
A8A
  8
250
 10
2.23000008631529
 20
23.064666666666671
 30
0.0
 11
0.0000000863152918
 21
22.693000000000001
 31
0.0
  0
LINE
  5
A8B
  8
250
 10
0.0000000863152918
 20
22.693000000000001
 30
0.0
 11
2.23000008631529
 21
22.693000000000001
 31
0.0
  0
CIRCLE
  5
A93
  8
246
 10
21.077253440894591
 20
7.445378348589812
 30
0.0
 40
3.1749999974483831
  0
LINE
  5
D72
  8
250
 10
22.554491346315292
 20
-0.0000000000000001
 30
0.0
 11
36.0
 21
-0.000000000000004
 31
0.0
  0
LINE
  5
D73
  8
250
 10
24.600000086315291
 20
12.499999999999989
 30
0.0
 11
36.0
 21
12.49999999999998
 31
0.0
  0
LINE
  5
D74
  8
250
 10
35.0
 20
2.2299999999999951
 30
0.0
 11
35.0
 21
10.269999999999991
 31
0.0
  0
TEXT
  5
D7A
  8
250
 10
34.0
 20
1.3833333333333331
 30
0.0
 40
2.799999999999998
  1
12.5
 50
90.0
  0
LINE
  5
D7B
  8
250
 10
34.62833333333333
 20
10.269999999999991
 30
0.0
 11
35.0
 21
12.49999999999998
 31
0.0
  0
LINE
  5
D7C
  8
250
 10
35.37166666666667
 20
10.269999999999991
 30
0.0
 11
35.0
 21
12.49999999999998
 31
0.0
  0
LINE
  5
D7D
  8
250
 10
35.0
 20
12.49999999999998
 30
0.0
 11
35.0
 21
10.269999999999991
 31
0.0
  0
LINE
  5
D7E
  8
250
 10
35.37166666666667
 20
2.2299999999999951
 30
0.0
 11
35.0
 21
-0.0000000000000037
 31
0.0
  0
LINE
  5
D7F
  8
250
 10
34.628333333333337
 20
2.2299999999999951
 30
0.0
 11
35.0
 21
-0.0000000000000037
 31
0.0
  0
LINE
  5
D80
  8
250
 10
35.0
 20
-0.0000000000000037
 30
0.0
 11
35.0
 21
2.2299999999999951
 31
0.0
  0
LINE
  5
D8C
  8
250
 10
41.821108341992648
 20
19.715606943501541
 30
0.0
 11
29.00203758193474
 21
19.715606943501541
 31
0.0
  0
LINE
  5
D8D
  8
250
 10
29.00203758193474
 20
19.715606943501541
 30
0.0
 11
24.751200838928821
 21
13.993291084343291
 31
0.0
  0
LINE
  5
D8E
  8
250
 10
24.751200838928821
 20
13.993291084343291
 30
0.0
 11
23.421403651315291
 21
12.20316834
 31
0.0
  0
LINE
  5
D8F
  8
250
 10
24.51552670969954
 20
14.16836220459618
 30
0.0
 11
23.421403651315291
 21
12.20316834
 31
0.0
  0
LINE
  5
D90
  8
250
 10
23.421403651315291
 20
12.20316834
 30
0.0
 11
24.986874968158119
 21
13.81821996409038
 31
0.0
  0
TEXT
  5
D91
  8
250
 10
29.15444167532598
 20
21.11560694350155
 30
0.0
 40
2.799999999999998
  1
TC11
  7
ACJISTS
  0
VIEWPORT
  5
22
 67
     1
  8
0
 10
261.51769911999997
 20
148.5
 30
0.0
 40
523.03539823000006
 41
297.0
 68
     1
 69
     1
1001
ACAD
1000
MVIEW
1002
{
1070
    16
1010
0.0
1020
0.0
1030
0.0
1010
0.0
1020
0.0
1030
1.0
1040
0.0
1040
297.0
1040
261.51769911999997
1040
148.5
1040
50.0
1040
0.0
1040
0.0
1070
     0
1070
   100
1070
     1
1070
     1
1070
     0
1070
     0
1070
     0
1070
     0
1040
0.0
1040
0.0
1040
0.0
1040
1.0
1040
1.0
1040
10.0
1040
10.0
1070
     0
1002
{
1002
}
1002
}
1001
GENIUS_GENOBJ-N-SDF_13
1002
{
1000
OWNER
1000
GEN
1002
}
1001
GENIUS_GENODEF_13
1002
{
1000
HIER
1070
     0
1002
}
1002
{
1000
MANEDIT
1070
     0
1002
}
1002
{
1000
NOSEL
1070
     0
1002
}
1002
{
1000
BEHIND
1070
     0
1002
}
1002
{
1000
OTHER
1070
     0
1002
}
1002
{
1000
REACTOR
1002
}
1001
GENIUS_GENSCREG_15
1000
PF
1040
1.0
1000
DF
1040
1.0
1000
MIN
1011
0.0000000049999471
1021
0.0
1031
-1.2198185577356814E+283
1021
0.0
1031
0.0
1000
MAX
1011
523.035398235
1021
0.0
1031
-1.2198185577356814E+283
1021
297.0
1031
0.0
1000
FLAGS
1070
     4
  0
ENDSEC
  0
EOF
