  0
SECTION
  2
HEADER
  9
$ACADVER
  1
AC1009
  9
$INSBASE
 10
0.0
 20
0.0
 30
0.0
  9
$EXTMIN
 10
-9.5093529240728003
 20
-0.9737593880253712
 30
-0.0015258207003583
  9
$EXTMAX
 10
35.154266766225653
 20
31.008057126730481
 30
0.0000000349246037
  9
$LIMMIN
 10
0.0
 20
0.0
  9
$LIMMAX
 10
297.0
 20
210.0
  9
$ORTHOMODE
 70
     1
  9
$REGENMODE
 70
     1
  9
$FILLMODE
 70
     1
  9
$QTEXTMODE
 70
     0
  9
$MIRRTEXT
 70
     1
  9
$DRAGMODE
 70
     2
  9
$LTSCALE
 40
10.0
  9
$OSMODE
 70
    63
  9
$ATTMODE
 70
     1
  9
$TEXTSIZE
 40
3.0
  9
$TRACEWID
 40
1.0
  9
$TEXTSTYLE
  7
YOKO
  9
$CLAYER
  8
245
  9
$CELTYPE
  6
BYLAYER
  9
$CECOLOR
 62
   256
  9
$DIMSCALE
 40
1.0
  9
$DIMASZ
 40
2.2299999999999991
  9
$DIMEXO
 40
0.5
  9
$DIMDLI
 40
7.0
  9
$DIMRND
 40
0.0
  9
$DIMDLE
 40
0.0
  9
$DIMEXE
 40
1.0
  9
$DIMTP
 40
0.0
  9
$DIMTM
 40
0.01
  9
$DIMTXT
 40
2.799999999999998
  9
$DIMCEN
 40
0.0
  9
$DIMTSZ
 40
0.0
  9
$DIMTOL
 70
     0
  9
$DIMLIM
 70
     0
  9
$DIMTIH
 70
     0
  9
$DIMTOH
 70
     0
  9
$DIMSE1
 70
     0
  9
$DIMSE2
 70
     0
  9
$DIMTAD
 70
     3
  9
$DIMZIN
 70
     9
  9
$DIMBLK
  1
OPEN
  9
$DIMASO
 70
     1
  9
$DIMSHO
 70
     1
  9
$DIMPOST
  1

  9
$DIMAPOST
  1

  9
$DIMALT
 70
     0
  9
$DIMALTD
 70
     2
  9
$DIMALTF
 40
25.399999999999999
  9
$DIMLFAC
 40
1.0
  9
$DIMTOFL
 70
     1
  9
$DIMTVP
 40
0.0
  9
$DIMTIX
 70
     1
  9
$DIMSOXD
 70
     0
  9
$DIMSAH
 70
     0
  9
$DIMBLK1
  1

  9
$DIMBLK2
  1

  9
$DIMSTYLE
  2
BIGT
  9
$DIMCLRD
 70
   256
  9
$DIMCLRE
 70
   256
  9
$DIMCLRT
 70
    40
  9
$DIMTFAC
 40
1.0
  9
$DIMGAP
 40
1.0
  9
$LUNITS
 70
     2
  9
$LUPREC
 70
     6
  9
$SKETCHINC
 40
1.0
  9
$FILLETRAD
 40
0.0
  9
$AUNITS
 70
     0
  9
$AUPREC
 70
     6
  9
$MENU
  1
.
  9
$ELEVATION
 40
0.0
  9
$PELEVATION
 40
0.0
  9
$THICKNESS
 40
0.0
  9
$LIMCHECK
 70
     0
  9
$BLIPMODE
 70
     0
  9
$CHAMFERA
 40
0.2
  9
$CHAMFERB
 40
0.2
  9
$SKPOLY
 70
     0
  9
$TDCREATE
 40
2457143.7677676389
  9
$TDUPDATE
 40
2457157.4919344452
  9
$TDINDWG
 40
0.0035226736
  9
$TDUSRTIMER
 40
0.0035226273
  9
$USRTIMER
 70
     1
  9
$ANGBASE
 50
0.0
  9
$ANGDIR
 70
     0
  9
$PDMODE
 70
     1
  9
$PDSIZE
 40
0.0
  9
$PLINEWID
 40
0.0
  9
$COORDS
 70
     1
  9
$SPLFRAME
 70
     0
  9
$SPLINETYPE
 70
     6
  9
$SPLINESEGS
 70
     4
  9
$ATTDIA
 70
     1
  9
$ATTREQ
 70
     1
  9
$HANDLING
 70
     1
  9
$HANDSEED
  5
4916
  9
$SURFTAB1
 70
     6
  9
$SURFTAB2
 70
     6
  9
$SURFTYPE
 70
     6
  9
$SURFU
 70
     6
  9
$SURFV
 70
     6
  9
$UCSNAME
  2

  9
$UCSORG
 10
0.0
 20
0.0
 30
0.0
  9
$UCSXDIR
 10
1.0
 20
0.0
 30
0.0
  9
$UCSYDIR
 10
0.0
 20
1.0
 30
0.0
  9
$PUCSNAME
  2

  9
$PUCSORG
 10
0.0
 20
0.0
 30
0.0
  9
$PUCSXDIR
 10
1.0
 20
0.0
 30
0.0
  9
$PUCSYDIR
 10
0.0
 20
1.0
 30
0.0
  9
$USERI1
 70
     1
  9
$USERI2
 70
     0
  9
$USERI3
 70
     0
  9
$USERI4
 70
     0
  9
$USERI5
 70
     0
  9
$USERR1
 40
0.0
  9
$USERR2
 40
0.0
  9
$USERR3
 40
0.0
  9
$USERR4
 40
0.0
  9
$USERR5
 40
0.0
  9
$WORLDVIEW
 70
     1
  9
$SHADEDGE
 70
     3
  9
$SHADEDIF
 70
    70
  9
$TILEMODE
 70
     1
  9
$MAXACTVP
 70
    16
  9
$PLIMCHECK
 70
     0
  9
$PEXTMIN
 10
1.0000000000000000E+020
 20
1.0000000000000000E+020
 30
1.0000000000000000E+020
  9
$PEXTMAX
 10
-1.0000000000000000E+020
 20
-1.0000000000000000E+020
 30
-1.0000000000000000E+020
  9
$PLIMMIN
 10
0.0
 20
0.0
  9
$PLIMMAX
 10
420.0
 20
297.0
  9
$UNITMODE
 70
     0
  9
$VISRETAIN
 70
     1
  9
$PLINEGEN
 70
     0
  9
$PSLTSCALE
 70
     1
  0
ENDSEC
  0
SECTION
  2
TABLES
  0
TABLE
  2
VPORT
 70
     1
  0
VPORT
  2
*ACTIVE
 70
     0
 10
0.0
 20
0.0
 11
1.0
 21
1.0
 12
12.822456921076419
 22
15.01714886935255
 13
0.0
 23
0.0
 14
7.0
 24
7.0
 15
7.0
 25
7.0
 16
0.0
 26
0.0
 36
1.0
 17
0.0
 27
0.0
 37
0.0
 40
32.191533344360813
 41
1.433260393873085
 42
50.0
 43
0.0
 44
0.0
 50
0.0
 51
0.0
 71
     0
 72
  2000
 73
     1
 74
     0
 75
     1
 76
     1
 77
     0
 78
     0
  0
ENDTAB
  0
TABLE
  2
LTYPE
 70
    21
  0
LTYPE
  2
CONTINUOUS
 70
     0
  3
Solid line
 72
    65
 73
     0
 40
0.0
  0
LTYPE
  2
CENTER2
 70
     0
  3
___ _ ___ _ ___ _ ___ _ ___ _ ___ _ ___ _ ___ _
 72
    65
 73
     4
 40
1.125
 49
0.75
 49
-0.125
 49
0.125
 49
-0.125
  0
LTYPE
  2
HIDDEN2
 70
     0
  3
_ _ _ _ _ _ _ _ _ _ _ _ _ _ _ _ _ _ _ _ _ _ _ _
 72
    65
 73
     2
 40
0.1875
 49
0.125
 49
-0.0625
  0
LTYPE
  2
PHANTOM2
 70
     0
  3
___ _ _ ___ _ _ ___ _ _ ___ _ _ ___ _ _ ___ _ _
 72
    65
 73
     6
 40
1.25
 49
0.625
 49
-0.125
 49
0.125
 49
-0.125
 49
0.125
 49
-0.125
  0
LTYPE
  2
AMCONSTR
 70
     0
  3
_______________________
 72
    65
 73
     2
 40
9999.0
 49
9999.0
 49
0.0
  0
LTYPE
  2
HIDDEN
 70
     0
  3
Hidden __ __ __ __ __ __ __ __ __ __ __ __ __ _
 72
    65
 73
     2
 40
0.375
 49
0.25
 49
-0.125
  0
LTYPE
  2
CENTER
 70
     0
  3
Center ____ _ ____ _ ____ _ ____ _ ____ _ ____
 72
    65
 73
     4
 40
2.0
 49
1.25
 49
-0.25
 49
0.25
 49
-0.25
  0
LTYPE
  2
AMZIGZAG2
 70
     0
  3
/\/-/\/-/\/-/\/-/\/-/\/
 72
    65
 73
     2
 40
0.4401
 49
0.0001
 49
-0.4400000000000001
  0
LTYPE
  2
ACANSTGB
 70
     0
  3
__ . . __ . .
 72
    65
 73
     6
 40
0.35433070866
 49
0.15748031496
 49
-0.03937007874
 49
0.03937007874
 49
-0.03937007874
 49
0.03937007874
 49
-0.03937007874
  0
LTYPE
  2
ACANSTGL
 70
     0
  3
_ _ _ _ _
 72
    65
 73
     2
 40
0.11811023622
 49
0.07874015748
 49
-0.03937007874
  0
ENDTAB
  0
TABLE
  2
LAYER
 70
     7
  0
LAYER
  2
0
 70
     0
 62
     7
  6
CONTINUOUS
  0
LAYER
  2
241
 70
     0
 62
   211
  6
CONTINUOUS
  0
LAYER
  2
DEFPOINTS
 70
     0
 62
     7
  6
CONTINUOUS
  0
LAYER
  2
245
 70
     0
 62
     2
  6
CENTER2
  0
LAYER
  2
240
 70
     0
 62
     4
  6
CONTINUOUS
  0
LAYER
  2
246
 70
     0
 62
     3
  6
PHANTOM2
  0
LAYER
  2
250
 70
     0
 62
     3
  6
CONTINUOUS
  0
ENDTAB
  0
TABLE
  2
STYLE
 70
    10
  0
STYLE
  2
STANDARD
 70
     0
 40
0.0
 41
1.0
 50
0.0
 71
     0
 42
3.0
  3
romans.shx
  4
extfont.shx
  0
STYLE
  2
YOKO
 70
     0
 40
0.0
 41
1.0
 50
0.0
 71
     0
 42
3.0
  3
romans.shx
  4
extfont.shx
  0
STYLE
  2
ACJISTS
 70
     0
 40
1.0
 41
1.0
 50
0.0
 71
     0
 42
3.0
  3
amgdt.shx
  4
extfont.shx
  0
STYLE
  2

 70
     1
 40
0.0
 41
1.0
 50
0.0
 71
     0
 42
3.0
  3
genltshp.shx
  4

  0
STYLE
  2
ACANSGDT
 70
     0
 40
0.0
 41
1.0
 50
0.0
 71
     0
 42
3.0
  3
amgdt.shx
  4

  0
ENDTAB
  0
TABLE
  2
VIEW
 70
     0
  0
ENDTAB
  0
TABLE
  2
UCS
 70
     0
  0
ENDTAB
  0
TABLE
  2
APPID
 70
    38
  0
APPID
  2
ACAD
 70
     0
  0
APPID
  2
ACADANNOTATIVE
 70
     0
  0
APPID
  2
GLOBAL
 70
     0
  0
APPID
  2
DETAIL
 70
     0
  0
APPID
  2
GRPNAME
 70
     0
  0
APPID
  2
GPARA
 70
     0
  0
APPID
  2
MCAD_NO_VIS
 70
     0
  0
APPID
  2
ACAD_TEMP_GRAPHIC
 70
     0
  0
APPID
  2
ACATTRIBSERVICES
 70
     0
  0
APPID
  2
GENIUS_GENSCREG_15
 70
     0
  0
APPID
  2
GENIUS_GENODEF_13
 70
     0
  0
APPID
  2
GENIUS_GENOBJ-N-SDF_13
 70
     0
  0
APPID
  2
GENIUS_GENREC_14
 70
     0
  0
APPID
  2
GENIUS_GENOBJ-N-REC_13
 70
     0
  0
APPID
  2
GENIUS_GENDIMSH_14
 70
     0
  0
APPID
  2
GENIUS_GENOBJ-N-DIM_13
 70
     0
  0
APPID
  2
GENIUS_GENDIM_13
 70
     0
  0
APPID
  2
GENIUS_GENDTOL_13
 70
     0
  0
APPID
  2
GENIUS_GENOLIS_13
 70
     0
  0
APPID
  2
GENIUS_GENOENT_13
 70
     0
  0
APPID
  2
GENIUS_GENOBJ-F-FEM_13
 70
     0
  0
APPID
  2
GENIUS_GENOREF_13
 70
     0
  0
APPID
  2
GENIUS_GEFFEM_13
 70
     0
  0
APPID
  2
GENIUS_GEFFEMP_13
 70
     0
  0
APPID
  2
AD_DRAW
 70
     0
  0
APPID
  2
DESIGNERASSEMBLIES
 70
     0
  0
APPID
  2
ACADM_DIM_EDIT
 70
     0
  0
APPID
  2
AMDT_DM_ADJ
 70
     0
  0
APPID
  2
ITEMNAME
 70
     0
  0
APPID
  2
GENIUS_GENOBJ-N-FIL_13
 70
     0
  0
APPID
  2
GENIUS_GENFIL_13
 70
     0
  0
APPID
  2
GENIUS_GENOBJ-N-CHA_13
 70
     0
  0
APPID
  2
ACAD_NAV_VCDISPLAY
 70
     0
  0
APPID
  2
ACAD_DSTYLE_DIMINSPECT
 70
     0
  0
APPID
  2
ACAD_EXEMPT_FROM_CAD_STANDARDS
 70
     0
  0
APPID
  2
ACAD_MLEADERVER
 70
     0
  0
APPID
  2
ACAD_DSTYLE_DIMJAG
 70
     0
  0
APPID
  2
ACAD_DSTYLE_DIMBREAK
 70
     0
  0
ENDTAB
  0
TABLE
  2
DIMSTYLE
 70
    31
  0
DIMSTYLE
  2
STANDARD
 70
     0
  3

  4

  5

  6

  7

 40
1.0
 41
0.18
 42
0.0625
 43
0.38
 44
0.18
 45
0.0
 46
0.0
 47
0.0
 48
0.0
140
0.18
141
0.09
142
0.0
143
25.399999999999999
144
1.0
145
0.0
146
1.0
147
0.09
 71
     0
 72
     0
 73
     1
 74
     1
 75
     0
 76
     0
 77
     0
 78
     0
170
     0
171
     2
172
     0
173
     0
174
     0
175
     0
176
     0
177
     0
178
     0
  0
DIMSTYLE
  2
BIGT
 70
     0
  3

  4

  5

  6

  7

 40
1.0
 41
2.2299999999999991
 42
0.5
 43
7.0
 44
1.0
 45
0.0
 46
0.0
 47
0.0
 48
0.01
140
2.799999999999998
141
0.0
142
0.0
143
25.399999999999999
144
1.0
145
0.0
146
1.0
147
1.0
 71
     0
 72
     0
 73
     0
 74
     0
 75
     0
 76
     0
 77
     3
 78
     9
170
     0
171
     2
172
     1
173
     0
174
     1
175
     0
176
   256
177
   256
178
    40
  0
DIMSTYLE
  2
AM_ANSI
 70
     0
  3

  4
mm
  5

  6

  7

 40
1.0
 41
0.12
 42
0.05
 43
0.5
 44
0.1
 45
0.0
 46
0.0
 47
0.1
 48
0.1
140
0.12
141
0.0
142
0.0
143
25.399999999999999
144
1.0
145
0.0
146
0.71
147
0.06
 71
     0
 72
     0
 73
     1
 74
     1
 75
     0
 76
     0
 77
     0
 78
     7
170
     0
171
     2
172
     0
173
     0
174
     0
175
     0
176
   256
177
   256
178
     2
  0
DIMSTYLE
  2
AM_ANSI$3
 70
     0
  3

  4
mm
  5

  6

  7

 40
1.0
 41
0.12
 42
0.05
 43
0.5
 44
0.1
 45
0.0
 46
0.0
 47
0.1
 48
0.1
140
0.12
141
0.0
142
0.0
143
25.399999999999999
144
1.0
145
0.0
146
0.71
147
0.06
 71
     0
 72
     0
 73
     1
 74
     1
 75
     0
 76
     0
 77
     0
 78
     7
170
     0
171
     2
172
     0
173
     0
174
     0
175
     0
176
   256
177
   256
178
     2
  0
DIMSTYLE
  2
AM_ANSI$4
 70
     0
  3

  4
mm
  5

  6

  7

 40
1.0
 41
0.12
 42
0.05
 43
0.5
 44
0.1
 45
0.0
 46
0.0
 47
0.1
 48
0.1
140
0.12
141
0.0
142
0.0
143
25.399999999999999
144
1.0
145
0.0
146
0.71
147
0.06
 71
     0
 72
     0
 73
     1
 74
     1
 75
     0
 76
     0
 77
     0
 78
     7
170
     0
171
     2
172
     0
173
     0
174
     0
175
     0
176
   256
177
   256
178
     2
  0
DIMSTYLE
  2
AM_ANSI$7
 70
     0
  3

  4
mm
  5

  6

  7

 40
1.0
 41
0.12
 42
0.05
 43
0.5
 44
0.1
 45
0.0
 46
0.0
 47
0.1
 48
0.1
140
0.12
141
0.0
142
0.0
143
25.399999999999999
144
1.0
145
0.0
146
0.71
147
0.06
 71
     0
 72
     0
 73
     1
 74
     1
 75
     0
 76
     0
 77
     0
 78
     7
170
     0
171
     2
172
     0
173
     0
174
     0
175
     0
176
   256
177
   256
178
     2
  0
DIMSTYLE
  2
AM_ANSI$SF
 70
     0
  3

  4
mm
  5

  6

  7

 40
1.0
 41
0.12
 42
0.05
 43
0.5
 44
0.1
 45
0.0
 46
0.0
 47
0.1
 48
0.1
140
0.12
141
0.0
142
0.0
143
25.399999999999999
144
1.0
145
0.0
146
0.71
147
0.06
 71
     0
 72
     0
 73
     1
 74
     1
 75
     1
 76
     1
 77
     0
 78
     7
170
     0
171
     2
172
     0
173
     0
174
     0
175
     0
176
   256
177
   256
178
     2
  0
DIMSTYLE
  2
AM_ANSI$SH
 70
     0
  3

  4
mm
  5

  6
GENAXEH
  7

 40
1.0
 41
0.12
 42
0.05
 43
0.5
 44
0.1
 45
0.0
 46
0.0
 47
0.1
 48
0.1
140
0.12
141
0.0
142
0.0
143
25.399999999999999
144
1.0
145
0.0
146
0.71
147
0.06
 71
     0
 72
     0
 73
     1
 74
     1
 75
     1
 76
     1
 77
     0
 78
     7
170
     0
171
     2
172
     0
173
     1
174
     0
175
     0
176
   256
177
   256
178
     2
  0
ENDTAB
  0
ENDSEC
  0
SECTION
  2
BLOCKS
  0
BLOCK
  8
0
  2
$MODEL_SPACE
 70
     0
 10
0.0
 20
0.0
 30
0.0
  3
$MODEL_SPACE
  1

  0
ENDBLK
  5
47DD
  8
0
  0
BLOCK
 67
     1
  8
0
  2
$PAPER_SPACE
 70
     0
 10
0.0
 20
0.0
 30
0.0
  3
$PAPER_SPACE
  1

  0
ENDBLK
  5
47D9
 67
     1
  8
0
  0
BLOCK
  8
0
  2
_OPEN
 70
     0
 10
0.0
 20
0.0
 30
0.0
  3
_OPEN
  1

  0
LINE
  5
449A
  8
0
  6
BYBLOCK
 62
     0
 10
-1.0
 20
0.1666666666666666
 30
0.0
 11
0.0
 21
0.0
 31
0.0
  0
LINE
  5
449B
  8
0
  6
BYBLOCK
 62
     0
 10
-1.0
 20
-0.1666666666666666
 30
0.0
 11
0.0
 21
0.0
 31
0.0
  0
LINE
  5
449C
  8
0
  6
BYBLOCK
 62
     0
 10
0.0
 20
0.0
 30
0.0
 11
-1.0
 21
0.0
 31
0.0
  0
ENDBLK
  5
449D
  8
0
  0
BLOCK
  8
0
  2
GENAXEH
 70
     0
 10
0.0
 20
0.0
 30
0.0
  3
GENAXEH
  1

  0
LINE
  5
44D5
  8
0
 10
-1.0
 20
0.0
 30
0.0
 11
1.0
 21
0.0
 31
0.0
  0
ENDBLK
  5
44D6
  8
0
  0
BLOCK
  8
0
  2
_ACMFILLEDHALF
 70
     0
 10
0.0
 20
0.0
 30
0.0
  3
_ACMFILLEDHALF
  1

  0
TRACE
  5
489C
  8
241
 62
     0
 10
-0.8
 20
0.0
 30
0.0
 11
-1.0
 21
0.166666666
 31
0.0
 12
0.0
 22
0.0
 32
0.0
 13
0.0
 23
0.0
 33
0.0
  0
LINE
  5
489D
  8
241
 62
     0
 10
-1.0
 20
0.0
 30
0.0
 11
-0.8
 21
0.0
 31
0.0
  0
ENDBLK
  5
489B
  8
0
  0
ENDSEC
  0
SECTION
  2
ENTITIES
  0
POLYLINE
  5
4587
  8
240
 66
     1
 10
0.0
 20
0.0
 30
0.0
 70
     8
  0
VERTEX
  5
4588
  8
240
 10
-3.2616900000000002
 20
7.295910000000001
 30
0.0
 70
    32
  0
VERTEX
  5
4589
  8
240
 10
-3.2206599999999992
 20
7.2916399999999992
 30
0.0
 70
    32
  0
VERTEX
  5
458A
  8
240
 10
-3.1796299999999991
 20
7.2873799999999997
 30
0.0
 70
    32
  0
VERTEX
  5
458B
  8
240
 10
-3.138609999999999
 20
7.283129999999999
 30
0.0
 70
    32
  0
VERTEX
  5
458C
  8
240
 10
-3.0975799999999989
 20
7.2788699999999986
 30
0.0
 70
    32
  0
VERTEX
  5
458D
  8
240
 10
-3.0565500000000001
 20
7.2746199999999988
 30
0.0
 70
    32
  0
VERTEX
  5
458E
  8
240
 10
-3.0155199999999991
 20
7.2703800000000003
 30
0.0
 70
    32
  0
VERTEX
  5
458F
  8
240
 10
-2.974499999999999
 20
7.2661499999999988
 30
0.0
 70
    32
  0
VERTEX
  5
4590
  8
240
 10
-2.9334699999999998
 20
7.261919999999999
 30
0.0
 70
    32
  0
VERTEX
  5
4591
  8
240
 10
-2.8924400000000001
 20
7.2577100000000003
 30
0.0
 70
    32
  0
VERTEX
  5
4592
  8
240
 10
-2.8514099999999991
 20
7.2535100000000003
 30
0.0
 70
    32
  0
VERTEX
  5
4593
  8
240
 10
-2.8103899999999991
 20
7.2493199999999991
 30
0.0
 70
    32
  0
VERTEX
  5
4594
  8
240
 10
-2.7693599999999989
 20
7.2451499999999989
 30
0.0
 70
    32
  0
VERTEX
  5
4595
  8
240
 10
-2.7283300000000001
 20
7.2409899999999991
 30
0.0
 70
    32
  0
VERTEX
  5
4596
  8
240
 10
-2.6873
 20
7.2368499999999987
 30
0.0
 70
    32
  0
VERTEX
  5
4597
  8
240
 10
-2.6462799999999991
 20
7.2327300000000001
 30
0.0
 70
    32
  0
VERTEX
  5
4598
  8
240
 10
-2.605249999999999
 20
7.228629999999999
 30
0.0
 70
    32
  0
VERTEX
  5
4599
  8
240
 10
-2.5642200000000002
 20
7.2245499999999989
 30
0.0
 70
    32
  0
VERTEX
  5
459A
  8
240
 10
-2.52319
 20
7.220489999999999
 30
0.0
 70
    32
  0
VERTEX
  5
459B
  8
240
 10
-2.4821699999999991
 20
7.2164599999999997
 30
0.0
 70
    32
  0
VERTEX
  5
459C
  8
240
 10
-2.4411399999999999
 20
7.2124600000000001
 30
0.0
 70
    32
  0
VERTEX
  5
459D
  8
240
 10
-2.4001099999999989
 20
7.2084799999999998
 30
0.0
 70
    32
  0
VERTEX
  5
459E
  8
240
 10
-2.3590800000000001
 20
7.2045300000000001
 30
0.0
 70
    32
  0
VERTEX
  5
459F
  8
240
 10
-2.31806
 20
7.2006100000000002
 30
0.0
 70
    32
  0
VERTEX
  5
45A0
  8
240
 10
-2.277029999999999
 20
7.19672
 30
0.0
 70
    32
  0
VERTEX
  5
45A1
  8
240
 10
-2.2360000000000002
 20
7.1928599999999996
 30
0.0
 70
    32
  0
VERTEX
  5
45A2
  8
240
 10
-2.1949700000000001
 20
7.1890399999999994
 30
0.0
 70
    32
  0
VERTEX
  5
45A3
  8
240
 10
-2.15395
 20
7.185249999999999
 30
0.0
 70
    32
  0
VERTEX
  5
45A4
  8
240
 10
-2.112919999999999
 20
7.1814899999999993
 30
0.0
 70
    32
  0
VERTEX
  5
45A5
  8
240
 10
-2.0718899999999998
 20
7.1777800000000003
 30
0.0
 70
    32
  0
VERTEX
  5
45A6
  8
240
 10
-2.0308599999999992
 20
7.1741000000000001
 30
0.0
 70
    32
  0
VERTEX
  5
45A7
  8
240
 10
-1.9898299999999991
 20
7.170469999999999
 30
0.0
 70
    32
  0
VERTEX
  5
45A8
  8
240
 10
-1.948809999999999
 20
7.166879999999999
 30
0.0
 70
    32
  0
VERTEX
  5
45A9
  8
240
 10
-1.9077799999999989
 20
7.1633300000000002
 30
0.0
 70
    32
  0
VERTEX
  5
45AA
  8
240
 10
-1.866749999999999
 20
7.159819999999999
 30
0.0
 70
    32
  0
VERTEX
  5
45AB
  8
240
 10
-1.82572
 20
7.1563600000000003
 30
0.0
 70
    32
  0
VERTEX
  5
45AC
  8
240
 10
-1.7846999999999991
 20
7.1529499999999988
 30
0.0
 70
    32
  0
VERTEX
  5
45AD
  8
240
 10
-1.7436700000000001
 20
7.1495800000000003
 30
0.0
 70
    32
  0
VERTEX
  5
45AE
  8
240
 10
-1.7026399999999999
 20
7.1462699999999986
 30
0.0
 70
    32
  0
VERTEX
  5
45AF
  8
240
 10
-1.6616099999999989
 20
7.1430100000000003
 30
0.0
 70
    32
  0
VERTEX
  5
45B0
  8
240
 10
-1.6205899999999991
 20
7.1398000000000001
 30
0.0
 70
    32
  0
VERTEX
  5
45B1
  8
240
 10
-1.5795600000000001
 20
7.1366399999999981
 30
0.0
 70
    32
  0
VERTEX
  5
45B2
  8
240
 10
-1.5385299999999991
 20
7.1335399999999991
 30
0.0
 70
    32
  0
VERTEX
  5
45B3
  8
240
 10
-1.4975000000000001
 20
7.1304999999999987
 30
0.0
 70
    32
  0
VERTEX
  5
45B4
  8
240
 10
-1.4564799999999991
 20
7.12751
 30
0.0
 70
    32
  0
VERTEX
  5
45B5
  8
240
 10
-1.4154500000000001
 20
7.124579999999999
 30
0.0
 70
    32
  0
VERTEX
  5
45B6
  8
240
 10
-1.3744199999999991
 20
7.1217199999999989
 30
0.0
 70
    32
  0
VERTEX
  5
45B7
  8
240
 10
-1.333389999999999
 20
7.1189099999999996
 30
0.0
 70
    32
  0
VERTEX
  5
45B8
  8
240
 10
-1.29237
 20
7.1161699999999994
 30
0.0
 70
    32
  0
VERTEX
  5
45B9
  8
240
 10
-1.251339999999999
 20
7.1135000000000002
 30
0.0
 70
    32
  0
VERTEX
  5
45BA
  8
240
 10
-1.2103099999999991
 20
7.1108899999999986
 30
0.0
 70
    32
  0
VERTEX
  5
45BB
  8
240
 10
-1.169279999999999
 20
7.1083399999999992
 30
0.0
 70
    32
  0
VERTEX
  5
45BC
  8
240
 10
-1.12826
 20
7.1058699999999986
 30
0.0
 70
    32
  0
VERTEX
  5
45BD
  8
240
 10
-1.087229999999999
 20
7.1034699999999988
 30
0.0
 70
    32
  0
VERTEX
  5
45BE
  8
240
 10
-1.0462
 20
7.1011399999999991
 30
0.0
 70
    32
  0
VERTEX
  5
45BF
  8
240
 10
-1.0051699999999999
 20
7.0988800000000003
 30
0.0
 70
    32
  0
VERTEX
  5
45C0
  8
240
 10
-0.9641469999999999
 20
7.0966899999999988
 30
0.0
 70
    32
  0
VERTEX
  5
45C1
  8
240
 10
-0.9231189999999999
 20
7.0945799999999997
 30
0.0
 70
    32
  0
VERTEX
  5
45C2
  8
240
 10
-0.8820919999999999
 20
7.0925500000000001
 30
0.0
 70
    32
  0
VERTEX
  5
45C3
  8
240
 10
-0.8410639999999999
 20
7.0905899999999988
 30
0.0
 70
    32
  0
VERTEX
  5
45C4
  8
240
 10
-0.800037
 20
7.0887199999999986
 30
0.0
 70
    32
  0
VERTEX
  5
45C5
  8
240
 10
-0.759009
 20
7.0869299999999997
 30
0.0
 70
    32
  0
VERTEX
  5
45C6
  8
240
 10
-0.7179820000000001
 20
7.08521
 30
0.0
 70
    32
  0
VERTEX
  5
45C7
  8
240
 10
-0.6769539999999999
 20
7.0835899999999992
 30
0.0
 70
    32
  0
VERTEX
  5
45C8
  8
240
 10
-0.6359270000000001
 20
7.0820399999999992
 30
0.0
 70
    32
  0
VERTEX
  5
45C9
  8
240
 10
-0.594899
 20
7.0805899999999991
 30
0.0
 70
    32
  0
VERTEX
  5
45CA
  8
240
 10
-0.5538720000000001
 20
7.0792199999999994
 30
0.0
 70
    32
  0
VERTEX
  5
45CB
  8
240
 10
-0.512844
 20
7.077939999999999
 30
0.0
 70
    32
  0
VERTEX
  5
45CC
  8
240
 10
-0.471817
 20
7.0767499999999988
 30
0.0
 70
    32
  0
VERTEX
  5
45CD
  8
240
 10
-0.4307890000000001
 20
7.0756500000000004
 30
0.0
 70
    32
  0
VERTEX
  5
45CE
  8
240
 10
-0.389761
 20
7.0746500000000001
 30
0.0
 70
    32
  0
VERTEX
  5
45CF
  8
240
 10
-0.348734
 20
7.073739999999999
 30
0.0
 70
    32
  0
VERTEX
  5
45D0
  8
240
 10
-0.307706
 20
7.072919999999999
 30
0.0
 70
    32
  0
VERTEX
  5
45D1
  8
240
 10
-0.266679
 20
7.0721999999999987
 30
0.0
 70
    32
  0
VERTEX
  5
45D2
  8
240
 10
-0.225651
 20
7.0715799999999991
 30
0.0
 70
    32
  0
VERTEX
  5
45D3
  8
240
 10
-0.184624
 20
7.0710699999999989
 30
0.0
 70
    32
  0
VERTEX
  5
45D4
  8
240
 10
-0.143596
 20
7.0706499999999988
 30
0.0
 70
    32
  0
VERTEX
  5
45D5
  8
240
 10
-0.102569
 20
7.0703300000000002
 30
0.0
 70
    32
  0
VERTEX
  5
45D6
  8
240
 10
-0.0615413
 20
7.0701199999999993
 30
0.0
 70
    32
  0
VERTEX
  5
45D7
  8
240
 10
-0.0205138
 20
7.0700099999999999
 30
0.0
 70
    32
  0
VERTEX
  5
45D8
  8
240
 10
0.0205138
 20
7.0700099999999999
 30
0.0
 70
    32
  0
VERTEX
  5
45D9
  8
240
 10
0.0615413
 20
7.0701199999999993
 30
0.0
 70
    32
  0
VERTEX
  5
45DA
  8
240
 10
0.102569
 20
7.0703300000000002
 30
0.0
 70
    32
  0
VERTEX
  5
45DB
  8
240
 10
0.143596
 20
7.0706499999999988
 30
0.0
 70
    32
  0
VERTEX
  5
45DC
  8
240
 10
0.184624
 20
7.0710699999999989
 30
0.0
 70
    32
  0
VERTEX
  5
45DD
  8
240
 10
0.225651
 20
7.0715799999999991
 30
0.0
 70
    32
  0
VERTEX
  5
45DE
  8
240
 10
0.266679
 20
7.0721999999999987
 30
0.0
 70
    32
  0
VERTEX
  5
45DF
  8
240
 10
0.307706
 20
7.072919999999999
 30
0.0
 70
    32
  0
VERTEX
  5
45E0
  8
240
 10
0.348734
 20
7.073739999999999
 30
0.0
 70
    32
  0
VERTEX
  5
45E1
  8
240
 10
0.389761
 20
7.0746500000000001
 30
0.0
 70
    32
  0
VERTEX
  5
45E2
  8
240
 10
0.4307890000000001
 20
7.0756500000000004
 30
0.0
 70
    32
  0
VERTEX
  5
45E3
  8
240
 10
0.471817
 20
7.0767499999999988
 30
0.0
 70
    32
  0
VERTEX
  5
45E4
  8
240
 10
0.512844
 20
7.077939999999999
 30
0.0
 70
    32
  0
VERTEX
  5
45E5
  8
240
 10
0.5538720000000001
 20
7.0792199999999994
 30
0.0
 70
    32
  0
VERTEX
  5
45E6
  8
240
 10
0.594899
 20
7.0805899999999991
 30
0.0
 70
    32
  0
VERTEX
  5
45E7
  8
240
 10
0.6359270000000001
 20
7.0820399999999992
 30
0.0
 70
    32
  0
VERTEX
  5
45E8
  8
240
 10
0.6769539999999999
 20
7.0835899999999992
 30
0.0
 70
    32
  0
VERTEX
  5
45E9
  8
240
 10
0.7179820000000001
 20
7.08521
 30
0.0
 70
    32
  0
VERTEX
  5
45EA
  8
240
 10
0.759009
 20
7.0869299999999997
 30
0.0
 70
    32
  0
VERTEX
  5
45EB
  8
240
 10
0.800037
 20
7.0887199999999986
 30
0.0
 70
    32
  0
VERTEX
  5
45EC
  8
240
 10
0.8410639999999999
 20
7.0905899999999988
 30
0.0
 70
    32
  0
VERTEX
  5
45ED
  8
240
 10
0.8820919999999999
 20
7.0925500000000001
 30
0.0
 70
    32
  0
VERTEX
  5
45EE
  8
240
 10
0.9231189999999999
 20
7.0945799999999997
 30
0.0
 70
    32
  0
VERTEX
  5
45EF
  8
240
 10
0.9641469999999999
 20
7.0966899999999988
 30
0.0
 70
    32
  0
VERTEX
  5
45F0
  8
240
 10
1.0051699999999999
 20
7.0988800000000003
 30
0.0
 70
    32
  0
VERTEX
  5
45F1
  8
240
 10
1.0462
 20
7.1011399999999991
 30
0.0
 70
    32
  0
VERTEX
  5
45F2
  8
240
 10
1.087229999999999
 20
7.1034699999999988
 30
0.0
 70
    32
  0
VERTEX
  5
45F3
  8
240
 10
1.12826
 20
7.1058699999999986
 30
0.0
 70
    32
  0
VERTEX
  5
45F4
  8
240
 10
1.169279999999999
 20
7.1083399999999992
 30
0.0
 70
    32
  0
VERTEX
  5
45F5
  8
240
 10
1.2103099999999991
 20
7.1108899999999986
 30
0.0
 70
    32
  0
VERTEX
  5
45F6
  8
240
 10
1.251339999999999
 20
7.1135000000000002
 30
0.0
 70
    32
  0
VERTEX
  5
45F7
  8
240
 10
1.29237
 20
7.1161699999999994
 30
0.0
 70
    32
  0
VERTEX
  5
45F8
  8
240
 10
1.333389999999999
 20
7.1189099999999996
 30
0.0
 70
    32
  0
VERTEX
  5
45F9
  8
240
 10
1.3744199999999991
 20
7.1217199999999989
 30
0.0
 70
    32
  0
VERTEX
  5
45FA
  8
240
 10
1.4154500000000001
 20
7.124579999999999
 30
0.0
 70
    32
  0
VERTEX
  5
45FB
  8
240
 10
1.4564799999999991
 20
7.12751
 30
0.0
 70
    32
  0
VERTEX
  5
45FC
  8
240
 10
1.4975000000000001
 20
7.1304999999999987
 30
0.0
 70
    32
  0
VERTEX
  5
45FD
  8
240
 10
1.5385299999999991
 20
7.1335399999999991
 30
0.0
 70
    32
  0
VERTEX
  5
45FE
  8
240
 10
1.5795600000000001
 20
7.1366399999999981
 30
0.0
 70
    32
  0
VERTEX
  5
45FF
  8
240
 10
1.6205899999999991
 20
7.1398000000000001
 30
0.0
 70
    32
  0
VERTEX
  5
4600
  8
240
 10
1.6616099999999989
 20
7.1430100000000003
 30
0.0
 70
    32
  0
VERTEX
  5
4601
  8
240
 10
1.7026399999999999
 20
7.1462699999999986
 30
0.0
 70
    32
  0
VERTEX
  5
4602
  8
240
 10
1.7436700000000001
 20
7.1495800000000003
 30
0.0
 70
    32
  0
VERTEX
  5
4603
  8
240
 10
1.7846999999999991
 20
7.1529499999999988
 30
0.0
 70
    32
  0
VERTEX
  5
4604
  8
240
 10
1.82572
 20
7.1563600000000003
 30
0.0
 70
    32
  0
VERTEX
  5
4605
  8
240
 10
1.866749999999999
 20
7.159819999999999
 30
0.0
 70
    32
  0
VERTEX
  5
4606
  8
240
 10
1.9077799999999989
 20
7.1633300000000002
 30
0.0
 70
    32
  0
VERTEX
  5
4607
  8
240
 10
1.948809999999999
 20
7.166879999999999
 30
0.0
 70
    32
  0
VERTEX
  5
4608
  8
240
 10
1.9898299999999991
 20
7.170469999999999
 30
0.0
 70
    32
  0
VERTEX
  5
4609
  8
240
 10
2.0308599999999992
 20
7.1741000000000001
 30
0.0
 70
    32
  0
VERTEX
  5
460A
  8
240
 10
2.0718899999999998
 20
7.1777800000000003
 30
0.0
 70
    32
  0
VERTEX
  5
460B
  8
240
 10
2.112919999999999
 20
7.1814899999999993
 30
0.0
 70
    32
  0
VERTEX
  5
460C
  8
240
 10
2.15395
 20
7.185249999999999
 30
0.0
 70
    32
  0
VERTEX
  5
460D
  8
240
 10
2.1949700000000001
 20
7.1890399999999994
 30
0.0
 70
    32
  0
VERTEX
  5
460E
  8
240
 10
2.2360000000000002
 20
7.1928599999999996
 30
0.0
 70
    32
  0
VERTEX
  5
460F
  8
240
 10
2.277029999999999
 20
7.19672
 30
0.0
 70
    32
  0
VERTEX
  5
4610
  8
240
 10
2.31806
 20
7.2006100000000002
 30
0.0
 70
    32
  0
VERTEX
  5
4611
  8
240
 10
2.3590800000000001
 20
7.2045300000000001
 30
0.0
 70
    32
  0
VERTEX
  5
4612
  8
240
 10
2.4001099999999989
 20
7.2084799999999998
 30
0.0
 70
    32
  0
VERTEX
  5
4613
  8
240
 10
2.4411399999999999
 20
7.2124600000000001
 30
0.0
 70
    32
  0
VERTEX
  5
4614
  8
240
 10
2.4821699999999991
 20
7.2164599999999997
 30
0.0
 70
    32
  0
VERTEX
  5
4615
  8
240
 10
2.52319
 20
7.220489999999999
 30
0.0
 70
    32
  0
VERTEX
  5
4616
  8
240
 10
2.5642200000000002
 20
7.2245499999999989
 30
0.0
 70
    32
  0
VERTEX
  5
4617
  8
240
 10
2.605249999999999
 20
7.228629999999999
 30
0.0
 70
    32
  0
VERTEX
  5
4618
  8
240
 10
2.6462799999999991
 20
7.2327300000000001
 30
0.0
 70
    32
  0
VERTEX
  5
4619
  8
240
 10
2.6873
 20
7.2368499999999987
 30
0.0
 70
    32
  0
VERTEX
  5
461A
  8
240
 10
2.7283300000000001
 20
7.2409899999999991
 30
0.0
 70
    32
  0
VERTEX
  5
461B
  8
240
 10
2.7693599999999989
 20
7.2451499999999989
 30
0.0
 70
    32
  0
VERTEX
  5
461C
  8
240
 10
2.8103899999999991
 20
7.2493199999999991
 30
0.0
 70
    32
  0
VERTEX
  5
461D
  8
240
 10
2.8514099999999991
 20
7.2535100000000003
 30
0.0
 70
    32
  0
VERTEX
  5
461E
  8
240
 10
2.8924400000000001
 20
7.2577100000000003
 30
0.0
 70
    32
  0
VERTEX
  5
461F
  8
240
 10
2.9334699999999998
 20
7.261919999999999
 30
0.0
 70
    32
  0
VERTEX
  5
4620
  8
240
 10
2.974499999999999
 20
7.2661499999999988
 30
0.0
 70
    32
  0
VERTEX
  5
4621
  8
240
 10
3.0155199999999991
 20
7.2703800000000003
 30
0.0
 70
    32
  0
VERTEX
  5
4622
  8
240
 10
3.0565500000000001
 20
7.2746199999999988
 30
0.0
 70
    32
  0
VERTEX
  5
4623
  8
240
 10
3.0975799999999989
 20
7.2788699999999986
 30
0.0
 70
    32
  0
VERTEX
  5
4624
  8
240
 10
3.138609999999999
 20
7.283129999999999
 30
0.0
 70
    32
  0
VERTEX
  5
4625
  8
240
 10
3.1796299999999991
 20
7.2873799999999997
 30
0.0
 70
    32
  0
VERTEX
  5
4626
  8
240
 10
3.2206599999999992
 20
7.2916399999999992
 30
0.0
 70
    32
  0
VERTEX
  5
4627
  8
240
 10
3.2616900000000002
 20
7.295910000000001
 30
0.0
 70
    32
  0
SEQEND
  5
4628
  8
240
  0
CIRCLE
  5
41E9
  8
246
 10
15.2284970869121
 20
7.2992067375097971
 30
0.0
 40
2.379999999999999
1001
GRPNAME
1000
PASTMD11
  0
LINE
  5
41EA
  8
240
 10
-9.4999999999925517
 20
-0.0000000000000284
 30
0.0
 11
-2.8330629563654801
 21
-0.0000000000000213
 31
0.0
1001
GRPNAME
1000
PASTMD1L
  0
LINE
  5
41EB
  8
240
 10
18.200000000012292
 20
1.2071067811866161
 30
0.0
 11
18.200000000012071
 21
8.0400555310641391
 31
0.0
  0
LINE
  5
41EC
  8
240
 10
18.053553390605561
 20
0.8535533905933332
 30
0.0
 11
17.346446609419068
 21
0.1464466094068157
 31
0.0
  0
LINE
  5
41ED
  8
241
 10
9.5000000000075033
 20
0.0000000000000497
 30
0.0
 11
9.5000000000069917
 21
7.4999999999998499
 31
0.0
1001
GRPNAME
1000
PASTMD1L
  0
LINE
  5
41EE
  8
241
 10
8.2272413359596612
 20
0.0000000000000497
 30
0.0
 11
8.2272413359596612
 21
7.3630942110593098
 31
0.0
1001
GRPNAME
1000
PASTMD1L
  0
LINE
  5
41EF
  8
240
 10
4.5000000000075033
 20
7.5000000000000471
 30
0.0
 11
9.8000000000074579
 21
7.5000000000000471
 31
0.0
1001
GRPNAME
1000
PASTMD1L
  0
LINE
  5
41F0
  8
240
 10
9.8000000000074579
 20
7.5000000000000471
 30
0.0
 11
10.516773576699419
 21
8.2167735766941146
 31
0.0
1001
GRPNAME
1000
PASTMD1L
  0
LINE
  5
41F1
  8
240
 10
10.516773576699419
 20
8.2167735766941146
 30
0.0
 11
11.55266901892672
 21
8.3994298923516961
 31
0.0
  0
ARC
  5
41F2
  8
241
 10
7.5000000000075024
 20
5.5000000000000924
 30
0.0
 40
1.999999999999986
 50
68.677279065032039
 51
89.999999947349153
1001
GRPNAME
1000
PASTMD1L
  0
POLYLINE
  5
4629
  8
240
 66
     1
 10
0.0
 20
0.0
 30
0.0
 70
     8
  0
VERTEX
  5
462A
  8
240
 10
3.2616900000000002
 20
7.295910000000001
 30
0.0
 70
    32
  0
VERTEX
  5
462B
  8
240
 10
3.269499999999999
 20
7.2970399999999991
 30
0.0
 70
    32
  0
VERTEX
  5
462C
  8
240
 10
3.2773099999999991
 20
7.2981699999999989
 30
0.0
 70
    32
  0
VERTEX
  5
462D
  8
240
 10
3.2851300000000001
 20
7.2993100000000002
 30
0.0
 70
    32
  0
VERTEX
  5
462E
  8
240
 10
3.2929400000000002
 20
7.3004399999999992
 30
0.0
 70
    32
  0
VERTEX
  5
462F
  8
240
 10
3.300749999999999
 20
7.3015800000000004
 30
0.0
 70
    32
  0
VERTEX
  5
4630
  8
240
 10
3.3085599999999991
 20
7.3027100000000003
 30
0.0
 70
    32
  0
VERTEX
  5
4631
  8
240
 10
3.3163800000000001
 20
7.3038499999999988
 30
0.0
 70
    32
  0
VERTEX
  5
4632
  8
240
 10
3.3241900000000002
 20
7.3049799999999996
 30
0.0
 70
    32
  0
VERTEX
  5
4633
  8
240
 10
3.331999999999999
 20
7.3061199999999991
 30
0.0
 70
    32
  0
VERTEX
  5
4634
  8
240
 10
3.3398099999999991
 20
7.3072499999999989
 30
0.0
 70
    32
  0
VERTEX
  5
4635
  8
240
 10
3.3476300000000001
 20
7.3083899999999993
 30
0.0
 70
    32
  0
VERTEX
  5
4636
  8
240
 10
3.3554400000000002
 20
7.3095299999999996
 30
0.0
 70
    32
  0
VERTEX
  5
4637
  8
240
 10
3.363249999999999
 20
7.31067
 30
0.0
 70
    32
  0
VERTEX
  5
4638
  8
240
 10
3.3710599999999991
 20
7.311799999999999
 30
0.0
 70
    32
  0
VERTEX
  5
4639
  8
240
 10
3.3788800000000001
 20
7.3129399999999993
 30
0.0
 70
    32
  0
VERTEX
  5
463A
  8
240
 10
3.3866900000000002
 20
7.3140799999999997
 30
0.0
 70
    32
  0
VERTEX
  5
463B
  8
240
 10
3.394499999999999
 20
7.3152200000000001
 30
0.0
 70
    32
  0
VERTEX
  5
463C
  8
240
 10
3.4023099999999991
 20
7.3163600000000004
 30
0.0
 70
    32
  0
VERTEX
  5
463D
  8
240
 10
3.4101199999999992
 20
7.3175100000000004
 30
0.0
 70
    32
  0
VERTEX
  5
463E
  8
240
 10
3.4179300000000001
 20
7.318649999999999
 30
0.0
 70
    32
  0
VERTEX
  5
463F
  8
240
 10
3.4257399999999998
 20
7.3197899999999994
 30
0.0
 70
    32
  0
VERTEX
  5
4640
  8
240
 10
3.4335599999999991
 20
7.3209399999999993
 30
0.0
 70
    32
  0
VERTEX
  5
4641
  8
240
 10
3.4413699999999992
 20
7.3220799999999997
 30
0.0
 70
    32
  0
VERTEX
  5
4642
  8
240
 10
3.4491800000000001
 20
7.3232299999999997
 30
0.0
 70
    32
  0
VERTEX
  5
4643
  8
240
 10
3.4569899999999998
 20
7.3243799999999997
 30
0.0
 70
    32
  0
VERTEX
  5
4644
  8
240
 10
3.464799999999999
 20
7.3255299999999997
 30
0.0
 70
    32
  0
VERTEX
  5
4645
  8
240
 10
3.4726099999999991
 20
7.3266799999999996
 30
0.0
 70
    32
  0
VERTEX
  5
4646
  8
240
 10
3.4804199999999992
 20
7.3278299999999996
 30
0.0
 70
    32
  0
VERTEX
  5
4647
  8
240
 10
3.4882300000000002
 20
7.3289799999999996
 30
0.0
 70
    32
  0
VERTEX
  5
4648
  8
240
 10
3.4960399999999998
 20
7.3301399999999992
 30
0.0
 70
    32
  0
VERTEX
  5
4649
  8
240
 10
3.503849999999999
 20
7.3312899999999992
 30
0.0
 70
    32
  0
VERTEX
  5
464A
  8
240
 10
3.5116499999999991
 20
7.3324499999999988
 30
0.0
 70
    32
  0
VERTEX
  5
464B
  8
240
 10
3.51946
 20
7.3336100000000002
 30
0.0
 70
    32
  0
VERTEX
  5
464C
  8
240
 10
3.5272699999999988
 20
7.3347699999999989
 30
0.0
 70
    32
  0
VERTEX
  5
464D
  8
240
 10
3.5350799999999998
 20
7.3359300000000003
 30
0.0
 70
    32
  0
VERTEX
  5
464E
  8
240
 10
3.5428899999999999
 20
7.3371000000000004
 30
0.0
 70
    32
  0
VERTEX
  5
464F
  8
240
 10
3.5506999999999991
 20
7.33826
 30
0.0
 70
    32
  0
VERTEX
  5
4650
  8
240
 10
3.5584999999999991
 20
7.3394300000000001
 30
0.0
 70
    32
  0
VERTEX
  5
4651
  8
240
 10
3.5663099999999992
 20
7.3406000000000002
 30
0.0
 70
    32
  0
VERTEX
  5
4652
  8
240
 10
3.5741199999999989
 20
7.3417699999999986
 30
0.0
 70
    32
  0
VERTEX
  5
4653
  8
240
 10
3.5819199999999989
 20
7.3429399999999987
 30
0.0
 70
    32
  0
VERTEX
  5
4654
  8
240
 10
3.5897299999999999
 20
7.3441199999999993
 30
0.0
 70
    32
  0
VERTEX
  5
4655
  8
240
 10
3.5975299999999999
 20
7.3452999999999991
 30
0.0
 70
    32
  0
VERTEX
  5
4656
  8
240
 10
3.6053399999999991
 20
7.3464700000000001
 30
0.0
 70
    32
  0
VERTEX
  5
4657
  8
240
 10
3.61314
 20
7.3476600000000003
 30
0.0
 70
    32
  0
VERTEX
  5
4658
  8
240
 10
3.6209500000000001
 20
7.3488399999999992
 30
0.0
 70
    32
  0
VERTEX
  5
4659
  8
240
 10
3.6287500000000001
 20
7.3500199999999989
 30
0.0
 70
    32
  0
VERTEX
  5
465A
  8
240
 10
3.6365599999999989
 20
7.35121
 30
0.0
 70
    32
  0
VERTEX
  5
465B
  8
240
 10
3.6443599999999989
 20
7.3524000000000003
 30
0.0
 70
    32
  0
VERTEX
  5
465C
  8
240
 10
3.652159999999999
 20
7.3535899999999987
 30
0.0
 70
    32
  0
VERTEX
  5
465D
  8
240
 10
3.6599699999999991
 20
7.3547899999999986
 30
0.0
 70
    32
  0
VERTEX
  5
465E
  8
240
 10
3.6677699999999991
 20
7.3559799999999997
 30
0.0
 70
    32
  0
VERTEX
  5
465F
  8
240
 10
3.6755699999999991
 20
7.3571799999999996
 30
0.0
 70
    32
  0
VERTEX
  5
4660
  8
240
 10
3.6833699999999991
 20
7.3583899999999991
 30
0.0
 70
    32
  0
VERTEX
  5
4661
  8
240
 10
3.6911699999999992
 20
7.359589999999999
 30
0.0
 70
    32
  0
VERTEX
  5
4662
  8
240
 10
3.6989800000000002
 20
7.3608000000000002
 30
0.0
 70
    32
  0
VERTEX
  5
4663
  8
240
 10
3.7067800000000002
 20
7.3620099999999997
 30
0.0
 70
    32
  0
VERTEX
  5
4664
  8
240
 10
3.7145800000000002
 20
7.3632200000000001
 30
0.0
 70
    32
  0
VERTEX
  5
4665
  8
240
 10
3.7223699999999988
 20
7.3644299999999996
 30
0.0
 70
    32
  0
VERTEX
  5
4666
  8
240
 10
3.7301699999999989
 20
7.3656499999999987
 30
0.0
 70
    32
  0
VERTEX
  5
4667
  8
240
 10
3.7379699999999989
 20
7.3668699999999987
 30
0.0
 70
    32
  0
VERTEX
  5
4668
  8
240
 10
3.7457699999999989
 20
7.3681000000000001
 30
0.0
 70
    32
  0
VERTEX
  5
4669
  8
240
 10
3.753569999999999
 20
7.3693200000000001
 30
0.0
 70
    32
  0
VERTEX
  5
466A
  8
240
 10
3.7613599999999989
 20
7.3705499999999988
 30
0.0
 70
    32
  0
VERTEX
  5
466B
  8
240
 10
3.769159999999999
 20
7.3717800000000002
 30
0.0
 70
    32
  0
VERTEX
  5
466C
  8
240
 10
3.776959999999999
 20
7.3730199999999986
 30
0.0
 70
    32
  0
VERTEX
  5
466D
  8
240
 10
3.7847499999999989
 20
7.3742599999999996
 30
0.0
 70
    32
  0
VERTEX
  5
466E
  8
240
 10
3.792549999999999
 20
7.3754999999999988
 30
0.0
 70
    32
  0
VERTEX
  5
466F
  8
240
 10
3.8003399999999998
 20
7.3767500000000004
 30
0.0
 70
    32
  0
VERTEX
  5
4670
  8
240
 10
3.8081399999999999
 20
7.3780000000000001
 30
0.0
 70
    32
  0
VERTEX
  5
4671
  8
240
 10
3.8159299999999998
 20
7.379249999999999
 30
0.0
 70
    32
  0
VERTEX
  5
4672
  8
240
 10
3.8237199999999989
 20
7.3804999999999987
 30
0.0
 70
    32
  0
VERTEX
  5
4673
  8
240
 10
3.8315099999999989
 20
7.3817599999999999
 30
0.0
 70
    32
  0
VERTEX
  5
4674
  8
240
 10
3.8393099999999989
 20
7.3830200000000001
 30
0.0
 70
    32
  0
VERTEX
  5
4675
  8
240
 10
3.8471000000000002
 20
7.3842899999999991
 30
0.0
 70
    32
  0
VERTEX
  5
4676
  8
240
 10
3.8548900000000001
 20
7.3855599999999999
 30
0.0
 70
    32
  0
VERTEX
  5
4677
  8
240
 10
3.8626800000000001
 20
7.3868299999999998
 30
0.0
 70
    32
  0
VERTEX
  5
4678
  8
240
 10
3.8704699999999992
 20
7.3881100000000002
 30
0.0
 70
    32
  0
VERTEX
  5
4679
  8
240
 10
3.87826
 20
7.3893899999999988
 30
0.0
 70
    32
  0
VERTEX
  5
467A
  8
240
 10
3.8860399999999991
 20
7.3906700000000001
 30
0.0
 70
    32
  0
VERTEX
  5
467B
  8
240
 10
3.8938299999999999
 20
7.3919600000000001
 30
0.0
 70
    32
  0
VERTEX
  5
467C
  8
240
 10
3.901619999999999
 20
7.3932500000000001
 30
0.0
 70
    32
  0
VERTEX
  5
467D
  8
240
 10
3.9094000000000002
 20
7.3945399999999992
 30
0.0
 70
    32
  0
VERTEX
  5
467E
  8
240
 10
3.9171900000000002
 20
7.3958399999999989
 30
0.0
 70
    32
  0
VERTEX
  5
467F
  8
240
 10
3.9249800000000001
 20
7.3971399999999994
 30
0.0
 70
    32
  0
VERTEX
  5
4680
  8
240
 10
3.93276
 20
7.3984500000000004
 30
0.0
 70
    32
  0
VERTEX
  5
4681
  8
240
 10
3.9405399999999999
 20
7.3997599999999997
 30
0.0
 70
    32
  0
VERTEX
  5
4682
  8
240
 10
3.9483299999999999
 20
7.4010699999999989
 30
0.0
 70
    32
  0
VERTEX
  5
4683
  8
240
 10
3.9561099999999989
 20
7.4023899999999987
 30
0.0
 70
    32
  0
VERTEX
  5
4684
  8
240
 10
3.9638900000000001
 20
7.4037100000000002
 30
0.0
 70
    32
  0
VERTEX
  5
4685
  8
240
 10
3.9716699999999991
 20
7.40503
 30
0.0
 70
    32
  0
VERTEX
  5
4686
  8
240
 10
3.9794599999999991
 20
7.4063499999999989
 30
0.0
 70
    32
  0
VERTEX
  5
4687
  8
240
 10
3.9872399999999999
 20
7.40768
 30
0.0
 70
    32
  0
VERTEX
  5
4688
  8
240
 10
3.9950199999999989
 20
7.4090100000000003
 30
0.0
 70
    32
  0
VERTEX
  5
4689
  8
240
 10
4.0027999999999988
 20
7.4103500000000002
 30
0.0
 70
    32
  0
VERTEX
  5
468A
  8
240
 10
4.01058
 20
7.4116899999999992
 30
0.0
 70
    32
  0
VERTEX
  5
468B
  8
240
 10
4.018349999999999
 20
7.41303
 30
0.0
 70
    32
  0
VERTEX
  5
468C
  8
240
 10
4.0261300000000002
 20
7.414369999999999
 30
0.0
 70
    32
  0
VERTEX
  5
468D
  8
240
 10
4.0339099999999988
 20
7.4157199999999994
 30
0.0
 70
    32
  0
VERTEX
  5
468E
  8
240
 10
4.04169
 20
7.4170699999999989
 30
0.0
 70
    32
  0
VERTEX
  5
468F
  8
240
 10
4.0494599999999989
 20
7.4184199999999993
 30
0.0
 70
    32
  0
VERTEX
  5
4690
  8
240
 10
4.0572400000000002
 20
7.4197699999999989
 30
0.0
 70
    32
  0
VERTEX
  5
4691
  8
240
 10
4.0650199999999987
 20
7.4211299999999998
 30
0.0
 70
    32
  0
VERTEX
  5
4692
  8
240
 10
4.0727900000000004
 20
7.4224899999999989
 30
0.0
 70
    32
  0
VERTEX
  5
4693
  8
240
 10
4.0805699999999989
 20
7.4238600000000003
 30
0.0
 70
    32
  0
VERTEX
  5
4694
  8
240
 10
4.0883399999999996
 20
7.4252199999999986
 30
0.0
 70
    32
  0
VERTEX
  5
4695
  8
240
 10
4.0961199999999991
 20
7.4265899999999991
 30
0.0
 70
    32
  0
VERTEX
  5
4696
  8
240
 10
4.1038899999999989
 20
7.4279599999999997
 30
0.0
 70
    32
  0
VERTEX
  5
4697
  8
240
 10
4.1116599999999988
 20
7.4293300000000002
 30
0.0
 70
    32
  0
VERTEX
  5
4698
  8
240
 10
4.1194399999999991
 20
7.4307100000000004
 30
0.0
 70
    32
  0
VERTEX
  5
4699
  8
240
 10
4.1272099999999989
 20
7.43208
 30
0.0
 70
    32
  0
VERTEX
  5
469A
  8
240
 10
4.1349799999999997
 20
7.4334600000000002
 30
0.0
 70
    32
  0
VERTEX
  5
469B
  8
240
 10
4.1427500000000004
 20
7.4348499999999991
 30
0.0
 70
    32
  0
VERTEX
  5
469C
  8
240
 10
4.1505199999999993
 20
7.4362300000000001
 30
0.0
 70
    32
  0
VERTEX
  5
469D
  8
240
 10
4.1582999999999988
 20
7.437619999999999
 30
0.0
 70
    32
  0
VERTEX
  5
469E
  8
240
 10
4.1660699999999986
 20
7.4390099999999997
 30
0.0
 70
    32
  0
VERTEX
  5
469F
  8
240
 10
4.1738400000000002
 20
7.4404000000000003
 30
0.0
 70
    32
  0
VERTEX
  5
46A0
  8
240
 10
4.18161
 20
7.4417899999999992
 30
0.0
 70
    32
  0
VERTEX
  5
46A1
  8
240
 10
4.189379999999999
 20
7.443179999999999
 30
0.0
 70
    32
  0
VERTEX
  5
46A2
  8
240
 10
4.1971499999999988
 20
7.4445800000000002
 30
0.0
 70
    32
  0
VERTEX
  5
46A3
  8
240
 10
4.2049199999999987
 20
7.4459799999999996
 30
0.0
 70
    32
  0
VERTEX
  5
46A4
  8
240
 10
4.2126799999999998
 20
7.447379999999999
 30
0.0
 70
    32
  0
VERTEX
  5
46A5
  8
240
 10
4.2204499999999987
 20
7.4487800000000002
 30
0.0
 70
    32
  0
VERTEX
  5
46A6
  8
240
 10
4.2282199999999994
 20
7.4501799999999996
 30
0.0
 70
    32
  0
VERTEX
  5
46A7
  8
240
 10
4.2359900000000001
 20
7.4515899999999986
 30
0.0
 70
    32
  0
VERTEX
  5
46A8
  8
240
 10
4.2437599999999991
 20
7.4529899999999989
 30
0.0
 70
    32
  0
VERTEX
  5
46A9
  8
240
 10
4.2515299999999998
 20
7.4543999999999988
 30
0.0
 70
    32
  0
VERTEX
  5
46AA
  8
240
 10
4.25929
 20
7.4558099999999996
 30
0.0
 70
    32
  0
VERTEX
  5
46AB
  8
240
 10
4.267059999999999
 20
7.4572199999999986
 30
0.0
 70
    32
  0
VERTEX
  5
46AC
  8
240
 10
4.2748299999999997
 20
7.4586300000000003
 30
0.0
 70
    32
  0
VERTEX
  5
46AD
  8
240
 10
4.282589999999999
 20
7.460049999999999
 30
0.0
 70
    32
  0
VERTEX
  5
46AE
  8
240
 10
4.2903599999999988
 20
7.4614599999999998
 30
0.0
 70
    32
  0
VERTEX
  5
46AF
  8
240
 10
4.2981299999999996
 20
7.4628800000000002
 30
0.0
 70
    32
  0
VERTEX
  5
46B0
  8
240
 10
4.3058899999999989
 20
7.4642999999999988
 30
0.0
 70
    32
  0
VERTEX
  5
46B1
  8
240
 10
4.3136599999999987
 20
7.4657200000000001
 30
0.0
 70
    32
  0
VERTEX
  5
46B2
  8
240
 10
4.3214199999999989
 20
7.4671399999999988
 30
0.0
 70
    32
  0
VERTEX
  5
46B3
  8
240
 10
4.3291899999999996
 20
7.4685600000000001
 30
0.0
 70
    32
  0
VERTEX
  5
46B4
  8
240
 10
4.336949999999999
 20
7.4699799999999996
 30
0.0
 70
    32
  0
VERTEX
  5
46B5
  8
240
 10
4.3447199999999988
 20
7.4714
 30
0.0
 70
    32
  0
VERTEX
  5
46B6
  8
240
 10
4.352479999999999
 20
7.4728300000000001
 30
0.0
 70
    32
  0
VERTEX
  5
46B7
  8
240
 10
4.3602499999999988
 20
7.4742499999999987
 30
0.0
 70
    32
  0
VERTEX
  5
46B8
  8
240
 10
4.3680099999999991
 20
7.4756799999999997
 30
0.0
 70
    32
  0
VERTEX
  5
46B9
  8
240
 10
4.3757799999999998
 20
7.4771000000000001
 30
0.0
 70
    32
  0
VERTEX
  5
46BA
  8
240
 10
4.3835399999999991
 20
7.4785300000000001
 30
0.0
 70
    32
  0
VERTEX
  5
46BB
  8
240
 10
4.3913099999999989
 20
7.4799600000000002
 30
0.0
 70
    32
  0
VERTEX
  5
46BC
  8
240
 10
4.39907
 20
7.4813899999999993
 30
0.0
 70
    32
  0
VERTEX
  5
46BD
  8
240
 10
4.406839999999999
 20
7.4828199999999994
 30
0.0
 70
    32
  0
VERTEX
  5
46BE
  8
240
 10
4.4146000000000001
 20
7.4842500000000003
 30
0.0
 70
    32
  0
VERTEX
  5
46BF
  8
240
 10
4.4223600000000003
 20
7.4856800000000003
 30
0.0
 70
    32
  0
VERTEX
  5
46C0
  8
240
 10
4.4301300000000001
 20
7.4871100000000004
 30
0.0
 70
    32
  0
VERTEX
  5
46C1
  8
240
 10
4.4378900000000003
 20
7.4885399999999986
 30
0.0
 70
    32
  0
VERTEX
  5
46C2
  8
240
 10
4.4456600000000002
 20
7.4899699999999987
 30
0.0
 70
    32
  0
VERTEX
  5
46C3
  8
240
 10
4.4534199999999986
 20
7.4913999999999987
 30
0.0
 70
    32
  0
VERTEX
  5
46C4
  8
240
 10
4.4611799999999997
 20
7.4928399999999993
 30
0.0
 70
    32
  0
VERTEX
  5
46C5
  8
240
 10
4.4689500000000004
 20
7.4942699999999993
 30
0.0
 70
    32
  0
VERTEX
  5
46C6
  8
240
 10
4.4767099999999989
 20
7.4957000000000003
 30
0.0
 70
    32
  0
VERTEX
  5
46C7
  8
240
 10
4.4844699999999991
 20
7.4971300000000003
 30
0.0
 70
    32
  0
VERTEX
  5
46C8
  8
240
 10
4.4922399999999989
 20
7.4985699999999991
 30
0.0
 70
    32
  0
VERTEX
  5
46C9
  8
240
 10
4.5
 20
7.5
 30
0.0
 70
    32
  0
SEQEND
  5
46CA
  8
240
  0
LINE
  5
41F4
  8
240
 10
-9.4999999999925517
 20
-0.0000000000000284
 30
0.0
 11
-9.4999999999924967
 21
5.500000000000048
 31
0.0
1001
GRPNAME
1000
PASTMD1L
  0
LINE
  5
41F5
  8
240
 10
-7.4999999999924949
 20
7.5000000000000471
 30
0.0
 11
-4.4999999999924949
 21
7.5000000000000471
 31
0.0
1001
GRPNAME
1000
PASTMD1L
  0
POLYLINE
  5
46CB
  8
240
 66
     1
 10
0.0
 20
0.0
 30
0.0
 70
     8
  0
VERTEX
  5
46CC
  8
240
 10
-4.5
 20
7.5
 30
0.0
 70
    32
  0
VERTEX
  5
46CD
  8
240
 10
-4.4922399999999989
 20
7.4985699999999991
 30
0.0
 70
    32
  0
VERTEX
  5
46CE
  8
240
 10
-4.4844699999999991
 20
7.4971300000000003
 30
0.0
 70
    32
  0
VERTEX
  5
46CF
  8
240
 10
-4.4767099999999989
 20
7.4957000000000003
 30
0.0
 70
    32
  0
VERTEX
  5
46D0
  8
240
 10
-4.4689500000000004
 20
7.4942699999999993
 30
0.0
 70
    32
  0
VERTEX
  5
46D1
  8
240
 10
-4.4611799999999997
 20
7.4928399999999993
 30
0.0
 70
    32
  0
VERTEX
  5
46D2
  8
240
 10
-4.4534199999999986
 20
7.4913999999999987
 30
0.0
 70
    32
  0
VERTEX
  5
46D3
  8
240
 10
-4.4456600000000002
 20
7.4899699999999987
 30
0.0
 70
    32
  0
VERTEX
  5
46D4
  8
240
 10
-4.4378900000000003
 20
7.4885399999999986
 30
0.0
 70
    32
  0
VERTEX
  5
46D5
  8
240
 10
-4.4301300000000001
 20
7.4871100000000004
 30
0.0
 70
    32
  0
VERTEX
  5
46D6
  8
240
 10
-4.4223600000000003
 20
7.4856800000000003
 30
0.0
 70
    32
  0
VERTEX
  5
46D7
  8
240
 10
-4.4146000000000001
 20
7.4842500000000003
 30
0.0
 70
    32
  0
VERTEX
  5
46D8
  8
240
 10
-4.406839999999999
 20
7.4828199999999994
 30
0.0
 70
    32
  0
VERTEX
  5
46D9
  8
240
 10
-4.39907
 20
7.4813899999999993
 30
0.0
 70
    32
  0
VERTEX
  5
46DA
  8
240
 10
-4.3913099999999989
 20
7.4799600000000002
 30
0.0
 70
    32
  0
VERTEX
  5
46DB
  8
240
 10
-4.3835399999999991
 20
7.4785300000000001
 30
0.0
 70
    32
  0
VERTEX
  5
46DC
  8
240
 10
-4.3757799999999998
 20
7.4771000000000001
 30
0.0
 70
    32
  0
VERTEX
  5
46DD
  8
240
 10
-4.3680099999999991
 20
7.4756799999999997
 30
0.0
 70
    32
  0
VERTEX
  5
46DE
  8
240
 10
-4.3602499999999988
 20
7.4742499999999987
 30
0.0
 70
    32
  0
VERTEX
  5
46DF
  8
240
 10
-4.352479999999999
 20
7.4728300000000001
 30
0.0
 70
    32
  0
VERTEX
  5
46E0
  8
240
 10
-4.3447199999999988
 20
7.4714
 30
0.0
 70
    32
  0
VERTEX
  5
46E1
  8
240
 10
-4.336949999999999
 20
7.4699799999999996
 30
0.0
 70
    32
  0
VERTEX
  5
46E2
  8
240
 10
-4.3291899999999996
 20
7.4685600000000001
 30
0.0
 70
    32
  0
VERTEX
  5
46E3
  8
240
 10
-4.3214199999999989
 20
7.4671399999999988
 30
0.0
 70
    32
  0
VERTEX
  5
46E4
  8
240
 10
-4.3136599999999987
 20
7.4657200000000001
 30
0.0
 70
    32
  0
VERTEX
  5
46E5
  8
240
 10
-4.3058899999999989
 20
7.4642999999999988
 30
0.0
 70
    32
  0
VERTEX
  5
46E6
  8
240
 10
-4.2981299999999996
 20
7.4628800000000002
 30
0.0
 70
    32
  0
VERTEX
  5
46E7
  8
240
 10
-4.2903599999999988
 20
7.4614599999999998
 30
0.0
 70
    32
  0
VERTEX
  5
46E8
  8
240
 10
-4.282589999999999
 20
7.460049999999999
 30
0.0
 70
    32
  0
VERTEX
  5
46E9
  8
240
 10
-4.2748299999999997
 20
7.4586300000000003
 30
0.0
 70
    32
  0
VERTEX
  5
46EA
  8
240
 10
-4.267059999999999
 20
7.4572199999999986
 30
0.0
 70
    32
  0
VERTEX
  5
46EB
  8
240
 10
-4.25929
 20
7.4558099999999996
 30
0.0
 70
    32
  0
VERTEX
  5
46EC
  8
240
 10
-4.2515299999999998
 20
7.4543999999999988
 30
0.0
 70
    32
  0
VERTEX
  5
46ED
  8
240
 10
-4.2437599999999991
 20
7.4529899999999989
 30
0.0
 70
    32
  0
VERTEX
  5
46EE
  8
240
 10
-4.2359900000000001
 20
7.4515899999999986
 30
0.0
 70
    32
  0
VERTEX
  5
46EF
  8
240
 10
-4.2282199999999994
 20
7.4501799999999996
 30
0.0
 70
    32
  0
VERTEX
  5
46F0
  8
240
 10
-4.2204499999999987
 20
7.4487800000000002
 30
0.0
 70
    32
  0
VERTEX
  5
46F1
  8
240
 10
-4.2126799999999998
 20
7.447379999999999
 30
0.0
 70
    32
  0
VERTEX
  5
46F2
  8
240
 10
-4.2049199999999987
 20
7.4459799999999996
 30
0.0
 70
    32
  0
VERTEX
  5
46F3
  8
240
 10
-4.1971499999999988
 20
7.4445800000000002
 30
0.0
 70
    32
  0
VERTEX
  5
46F4
  8
240
 10
-4.189379999999999
 20
7.443179999999999
 30
0.0
 70
    32
  0
VERTEX
  5
46F5
  8
240
 10
-4.18161
 20
7.4417899999999992
 30
0.0
 70
    32
  0
VERTEX
  5
46F6
  8
240
 10
-4.1738400000000002
 20
7.4404000000000003
 30
0.0
 70
    32
  0
VERTEX
  5
46F7
  8
240
 10
-4.1660699999999986
 20
7.4390099999999997
 30
0.0
 70
    32
  0
VERTEX
  5
46F8
  8
240
 10
-4.1582999999999988
 20
7.437619999999999
 30
0.0
 70
    32
  0
VERTEX
  5
46F9
  8
240
 10
-4.1505199999999993
 20
7.4362300000000001
 30
0.0
 70
    32
  0
VERTEX
  5
46FA
  8
240
 10
-4.1427500000000004
 20
7.4348499999999991
 30
0.0
 70
    32
  0
VERTEX
  5
46FB
  8
240
 10
-4.1349799999999997
 20
7.4334600000000002
 30
0.0
 70
    32
  0
VERTEX
  5
46FC
  8
240
 10
-4.1272099999999989
 20
7.43208
 30
0.0
 70
    32
  0
VERTEX
  5
46FD
  8
240
 10
-4.1194399999999991
 20
7.4307100000000004
 30
0.0
 70
    32
  0
VERTEX
  5
46FE
  8
240
 10
-4.1116599999999988
 20
7.4293300000000002
 30
0.0
 70
    32
  0
VERTEX
  5
46FF
  8
240
 10
-4.1038899999999989
 20
7.4279599999999997
 30
0.0
 70
    32
  0
VERTEX
  5
4700
  8
240
 10
-4.0961199999999991
 20
7.4265899999999991
 30
0.0
 70
    32
  0
VERTEX
  5
4701
  8
240
 10
-4.0883399999999996
 20
7.4252199999999986
 30
0.0
 70
    32
  0
VERTEX
  5
4702
  8
240
 10
-4.0805699999999989
 20
7.4238600000000003
 30
0.0
 70
    32
  0
VERTEX
  5
4703
  8
240
 10
-4.0727900000000004
 20
7.4224899999999989
 30
0.0
 70
    32
  0
VERTEX
  5
4704
  8
240
 10
-4.0650199999999987
 20
7.4211299999999998
 30
0.0
 70
    32
  0
VERTEX
  5
4705
  8
240
 10
-4.0572400000000002
 20
7.4197699999999989
 30
0.0
 70
    32
  0
VERTEX
  5
4706
  8
240
 10
-4.0494599999999989
 20
7.4184199999999993
 30
0.0
 70
    32
  0
VERTEX
  5
4707
  8
240
 10
-4.04169
 20
7.4170699999999989
 30
0.0
 70
    32
  0
VERTEX
  5
4708
  8
240
 10
-4.0339099999999988
 20
7.4157199999999994
 30
0.0
 70
    32
  0
VERTEX
  5
4709
  8
240
 10
-4.0261300000000002
 20
7.414369999999999
 30
0.0
 70
    32
  0
VERTEX
  5
470A
  8
240
 10
-4.018349999999999
 20
7.41303
 30
0.0
 70
    32
  0
VERTEX
  5
470B
  8
240
 10
-4.01058
 20
7.4116899999999992
 30
0.0
 70
    32
  0
VERTEX
  5
470C
  8
240
 10
-4.0027999999999988
 20
7.4103500000000002
 30
0.0
 70
    32
  0
VERTEX
  5
470D
  8
240
 10
-3.9950199999999989
 20
7.4090100000000003
 30
0.0
 70
    32
  0
VERTEX
  5
470E
  8
240
 10
-3.9872399999999999
 20
7.40768
 30
0.0
 70
    32
  0
VERTEX
  5
470F
  8
240
 10
-3.9794599999999991
 20
7.4063499999999989
 30
0.0
 70
    32
  0
VERTEX
  5
4710
  8
240
 10
-3.9716699999999991
 20
7.40503
 30
0.0
 70
    32
  0
VERTEX
  5
4711
  8
240
 10
-3.9638900000000001
 20
7.4037100000000002
 30
0.0
 70
    32
  0
VERTEX
  5
4712
  8
240
 10
-3.9561099999999989
 20
7.4023899999999987
 30
0.0
 70
    32
  0
VERTEX
  5
4713
  8
240
 10
-3.9483299999999999
 20
7.4010699999999989
 30
0.0
 70
    32
  0
VERTEX
  5
4714
  8
240
 10
-3.9405399999999999
 20
7.3997599999999997
 30
0.0
 70
    32
  0
VERTEX
  5
4715
  8
240
 10
-3.93276
 20
7.3984500000000004
 30
0.0
 70
    32
  0
VERTEX
  5
4716
  8
240
 10
-3.9249800000000001
 20
7.3971399999999994
 30
0.0
 70
    32
  0
VERTEX
  5
4717
  8
240
 10
-3.9171900000000002
 20
7.3958399999999989
 30
0.0
 70
    32
  0
VERTEX
  5
4718
  8
240
 10
-3.9094000000000002
 20
7.3945399999999992
 30
0.0
 70
    32
  0
VERTEX
  5
4719
  8
240
 10
-3.901619999999999
 20
7.3932500000000001
 30
0.0
 70
    32
  0
VERTEX
  5
471A
  8
240
 10
-3.8938299999999999
 20
7.3919600000000001
 30
0.0
 70
    32
  0
VERTEX
  5
471B
  8
240
 10
-3.8860399999999991
 20
7.3906700000000001
 30
0.0
 70
    32
  0
VERTEX
  5
471C
  8
240
 10
-3.87826
 20
7.3893899999999988
 30
0.0
 70
    32
  0
VERTEX
  5
471D
  8
240
 10
-3.8704699999999992
 20
7.3881100000000002
 30
0.0
 70
    32
  0
VERTEX
  5
471E
  8
240
 10
-3.8626800000000001
 20
7.3868299999999998
 30
0.0
 70
    32
  0
VERTEX
  5
471F
  8
240
 10
-3.8548900000000001
 20
7.3855599999999999
 30
0.0
 70
    32
  0
VERTEX
  5
4720
  8
240
 10
-3.8471000000000002
 20
7.3842899999999991
 30
0.0
 70
    32
  0
VERTEX
  5
4721
  8
240
 10
-3.8393099999999989
 20
7.3830200000000001
 30
0.0
 70
    32
  0
VERTEX
  5
4722
  8
240
 10
-3.8315099999999989
 20
7.3817599999999999
 30
0.0
 70
    32
  0
VERTEX
  5
4723
  8
240
 10
-3.8237199999999989
 20
7.3804999999999987
 30
0.0
 70
    32
  0
VERTEX
  5
4724
  8
240
 10
-3.8159299999999998
 20
7.379249999999999
 30
0.0
 70
    32
  0
VERTEX
  5
4725
  8
240
 10
-3.8081399999999999
 20
7.3780000000000001
 30
0.0
 70
    32
  0
VERTEX
  5
4726
  8
240
 10
-3.8003399999999998
 20
7.3767500000000004
 30
0.0
 70
    32
  0
VERTEX
  5
4727
  8
240
 10
-3.792549999999999
 20
7.3754999999999988
 30
0.0
 70
    32
  0
VERTEX
  5
4728
  8
240
 10
-3.7847499999999989
 20
7.3742599999999996
 30
0.0
 70
    32
  0
VERTEX
  5
4729
  8
240
 10
-3.776959999999999
 20
7.3730199999999986
 30
0.0
 70
    32
  0
VERTEX
  5
472A
  8
240
 10
-3.769159999999999
 20
7.3717800000000002
 30
0.0
 70
    32
  0
VERTEX
  5
472B
  8
240
 10
-3.7613599999999989
 20
7.3705499999999988
 30
0.0
 70
    32
  0
VERTEX
  5
472C
  8
240
 10
-3.753569999999999
 20
7.3693200000000001
 30
0.0
 70
    32
  0
VERTEX
  5
472D
  8
240
 10
-3.7457699999999989
 20
7.3681000000000001
 30
0.0
 70
    32
  0
VERTEX
  5
472E
  8
240
 10
-3.7379699999999989
 20
7.3668699999999987
 30
0.0
 70
    32
  0
VERTEX
  5
472F
  8
240
 10
-3.7301699999999989
 20
7.3656499999999987
 30
0.0
 70
    32
  0
VERTEX
  5
4730
  8
240
 10
-3.7223699999999988
 20
7.3644299999999996
 30
0.0
 70
    32
  0
VERTEX
  5
4731
  8
240
 10
-3.7145800000000002
 20
7.3632200000000001
 30
0.0
 70
    32
  0
VERTEX
  5
4732
  8
240
 10
-3.7067800000000002
 20
7.3620099999999997
 30
0.0
 70
    32
  0
VERTEX
  5
4733
  8
240
 10
-3.6989800000000002
 20
7.3608000000000002
 30
0.0
 70
    32
  0
VERTEX
  5
4734
  8
240
 10
-3.6911699999999992
 20
7.359589999999999
 30
0.0
 70
    32
  0
VERTEX
  5
4735
  8
240
 10
-3.6833699999999991
 20
7.3583899999999991
 30
0.0
 70
    32
  0
VERTEX
  5
4736
  8
240
 10
-3.6755699999999991
 20
7.3571799999999996
 30
0.0
 70
    32
  0
VERTEX
  5
4737
  8
240
 10
-3.6677699999999991
 20
7.3559799999999997
 30
0.0
 70
    32
  0
VERTEX
  5
4738
  8
240
 10
-3.6599699999999991
 20
7.3547899999999986
 30
0.0
 70
    32
  0
VERTEX
  5
4739
  8
240
 10
-3.652159999999999
 20
7.3535899999999987
 30
0.0
 70
    32
  0
VERTEX
  5
473A
  8
240
 10
-3.6443599999999989
 20
7.3524000000000003
 30
0.0
 70
    32
  0
VERTEX
  5
473B
  8
240
 10
-3.6365599999999989
 20
7.35121
 30
0.0
 70
    32
  0
VERTEX
  5
473C
  8
240
 10
-3.6287500000000001
 20
7.3500199999999989
 30
0.0
 70
    32
  0
VERTEX
  5
473D
  8
240
 10
-3.6209500000000001
 20
7.3488399999999992
 30
0.0
 70
    32
  0
VERTEX
  5
473E
  8
240
 10
-3.61314
 20
7.3476600000000003
 30
0.0
 70
    32
  0
VERTEX
  5
473F
  8
240
 10
-3.6053399999999991
 20
7.3464700000000001
 30
0.0
 70
    32
  0
VERTEX
  5
4740
  8
240
 10
-3.5975299999999999
 20
7.3452999999999991
 30
0.0
 70
    32
  0
VERTEX
  5
4741
  8
240
 10
-3.5897299999999999
 20
7.3441199999999993
 30
0.0
 70
    32
  0
VERTEX
  5
4742
  8
240
 10
-3.5819199999999989
 20
7.3429399999999987
 30
0.0
 70
    32
  0
VERTEX
  5
4743
  8
240
 10
-3.5741199999999989
 20
7.3417699999999986
 30
0.0
 70
    32
  0
VERTEX
  5
4744
  8
240
 10
-3.5663099999999992
 20
7.3406000000000002
 30
0.0
 70
    32
  0
VERTEX
  5
4745
  8
240
 10
-3.5584999999999991
 20
7.3394300000000001
 30
0.0
 70
    32
  0
VERTEX
  5
4746
  8
240
 10
-3.5506999999999991
 20
7.33826
 30
0.0
 70
    32
  0
VERTEX
  5
4747
  8
240
 10
-3.5428899999999999
 20
7.3371000000000004
 30
0.0
 70
    32
  0
VERTEX
  5
4748
  8
240
 10
-3.5350799999999998
 20
7.3359300000000003
 30
0.0
 70
    32
  0
VERTEX
  5
4749
  8
240
 10
-3.5272699999999988
 20
7.3347699999999989
 30
0.0
 70
    32
  0
VERTEX
  5
474A
  8
240
 10
-3.51946
 20
7.3336100000000002
 30
0.0
 70
    32
  0
VERTEX
  5
474B
  8
240
 10
-3.5116499999999991
 20
7.3324499999999988
 30
0.0
 70
    32
  0
VERTEX
  5
474C
  8
240
 10
-3.503849999999999
 20
7.3312899999999992
 30
0.0
 70
    32
  0
VERTEX
  5
474D
  8
240
 10
-3.4960399999999998
 20
7.3301399999999992
 30
0.0
 70
    32
  0
VERTEX
  5
474E
  8
240
 10
-3.4882300000000002
 20
7.3289799999999996
 30
0.0
 70
    32
  0
VERTEX
  5
474F
  8
240
 10
-3.4804199999999992
 20
7.3278299999999996
 30
0.0
 70
    32
  0
VERTEX
  5
4750
  8
240
 10
-3.4726099999999991
 20
7.3266799999999996
 30
0.0
 70
    32
  0
VERTEX
  5
4751
  8
240
 10
-3.464799999999999
 20
7.3255299999999997
 30
0.0
 70
    32
  0
VERTEX
  5
4752
  8
240
 10
-3.4569899999999998
 20
7.3243799999999997
 30
0.0
 70
    32
  0
VERTEX
  5
4753
  8
240
 10
-3.4491800000000001
 20
7.3232299999999997
 30
0.0
 70
    32
  0
VERTEX
  5
4754
  8
240
 10
-3.4413699999999992
 20
7.3220799999999997
 30
0.0
 70
    32
  0
VERTEX
  5
4755
  8
240
 10
-3.4335599999999991
 20
7.3209399999999993
 30
0.0
 70
    32
  0
VERTEX
  5
4756
  8
240
 10
-3.4257399999999998
 20
7.3197899999999994
 30
0.0
 70
    32
  0
VERTEX
  5
4757
  8
240
 10
-3.4179300000000001
 20
7.318649999999999
 30
0.0
 70
    32
  0
VERTEX
  5
4758
  8
240
 10
-3.4101199999999992
 20
7.3175100000000004
 30
0.0
 70
    32
  0
VERTEX
  5
4759
  8
240
 10
-3.4023099999999991
 20
7.3163600000000004
 30
0.0
 70
    32
  0
VERTEX
  5
475A
  8
240
 10
-3.394499999999999
 20
7.3152200000000001
 30
0.0
 70
    32
  0
VERTEX
  5
475B
  8
240
 10
-3.3866900000000002
 20
7.3140799999999997
 30
0.0
 70
    32
  0
VERTEX
  5
475C
  8
240
 10
-3.3788800000000001
 20
7.3129399999999993
 30
0.0
 70
    32
  0
VERTEX
  5
475D
  8
240
 10
-3.3710599999999991
 20
7.311799999999999
 30
0.0
 70
    32
  0
VERTEX
  5
475E
  8
240
 10
-3.363249999999999
 20
7.31067
 30
0.0
 70
    32
  0
VERTEX
  5
475F
  8
240
 10
-3.3554400000000002
 20
7.3095299999999996
 30
0.0
 70
    32
  0
VERTEX
  5
4760
  8
240
 10
-3.3476300000000001
 20
7.3083899999999993
 30
0.0
 70
    32
  0
VERTEX
  5
4761
  8
240
 10
-3.3398099999999991
 20
7.3072499999999989
 30
0.0
 70
    32
  0
VERTEX
  5
4762
  8
240
 10
-3.331999999999999
 20
7.3061199999999991
 30
0.0
 70
    32
  0
VERTEX
  5
4763
  8
240
 10
-3.3241900000000002
 20
7.3049799999999996
 30
0.0
 70
    32
  0
VERTEX
  5
4764
  8
240
 10
-3.3163800000000001
 20
7.3038499999999988
 30
0.0
 70
    32
  0
VERTEX
  5
4765
  8
240
 10
-3.3085599999999991
 20
7.3027100000000003
 30
0.0
 70
    32
  0
VERTEX
  5
4766
  8
240
 10
-3.300749999999999
 20
7.3015800000000004
 30
0.0
 70
    32
  0
VERTEX
  5
4767
  8
240
 10
-3.2929400000000002
 20
7.3004399999999992
 30
0.0
 70
    32
  0
VERTEX
  5
4768
  8
240
 10
-3.2851300000000001
 20
7.2993100000000002
 30
0.0
 70
    32
  0
VERTEX
  5
4769
  8
240
 10
-3.2773099999999991
 20
7.2981699999999989
 30
0.0
 70
    32
  0
VERTEX
  5
476A
  8
240
 10
-3.269499999999999
 20
7.2970399999999991
 30
0.0
 70
    32
  0
VERTEX
  5
476B
  8
240
 10
-3.2616900000000002
 20
7.295910000000001
 30
0.0
 70
    32
  0
SEQEND
  5
476C
  8
240
  0
ARC
  5
41F7
  8
240
 10
-7.4999999999924949
 20
5.5000000000000924
 30
0.0
 40
2.0
 50
89.999999992287684
 51
179.99999999228109
1001
GRPNAME
1000
PASTMD1L
  0
LINE
  5
41F8
  8
245
 10
0.0
 20
9.6057384518331812
 30
0.0
 11
0.0
 21
-0.9673216674936283
 31
0.0
1001
GRPNAME
1000
PASTMD1G
  0
LINE
  5
41F9
  8
241
 10
11.25956398688265
 20
9.3410612983178183
 30
0.0
 11
18.782568851462418
 21
9.9992389396184453
 31
0.0
1001
GRPNAME
1000
PASTMD11
  0
LINE
  5
41FC
  8
241
 10
15.78975768269915
 20
2.8712742014814192
 30
0.0
 11
18.98126155741927
 21
9.7154763476519914
 31
0.0
1001
GRPNAME
1000
PASTMD11
  0
LINE
  5
41FE
  8
241
 10
11.113164726574411
 20
9.0271070714292936
 30
0.0
 11
15.44466571643399
 21
2.8410825665594142
 31
0.0
1001
GRPNAME
1000
PASTMD11
  0
ARC
  5
4200
  8
241
 10
15.60849612529181
 20
2.9557978538295582
 30
0.0
 40
0.2000000000000104
 50
214.9999998058544
 51
334.99999980586568
1001
GRPNAME
1000
PASTMD11
  0
ARC
  5
4201
  8
241
 10
11.276995135432159
 20
9.1418223586994785
 30
0.0
 40
0.1999999999999656
 50
95.000000165807094
 51
215.00000016582879
1001
GRPNAME
1000
PASTMD11
  0
ARC
  5
4206
  8
241
 10
18.80000000001192
 20
9.8000000000001144
 30
0.0
 40
0.2000000000000606
 50
335.00000032008938
 51
95.000000320067102
1001
GRPNAME
1000
PASTMD11
  0
LINE
  5
4209
  8
240
 10
-2.2322518254697741
 20
2.1000000000000001
 30
0.0
 11
2.2322518254690049
 21
2.099999999999993
 31
0.0
  0
LINE
  5
420A
  8
240
 10
-2.232251825469759
 20
1.599999999999745
 30
0.0
 11
-2.4330629563674351
 21
0.4000000000000271
 31
0.0
  0
LINE
  5
420B
  8
240
 10
-2.4330629563674351
 20
0.4000000000000271
 30
0.0
 11
-2.8330629563674119
 21
-0.0000000000000213
 31
0.0
  0
LINE
  5
420C
  8
240
 10
-2.232251825469759
 20
1.599999999999745
 30
0.0
 11
-2.2322518254697741
 21
2.1000000000000001
 31
0.0
  0
LINE
  5
420D
  8
240
 10
2.232251825469759
 20
1.599999999999745
 30
0.0
 11
2.4330629563674351
 21
0.4000000000000271
 31
0.0
  0
LINE
  5
420E
  8
240
 10
2.4330629563674351
 20
0.4000000000000271
 30
0.0
 11
2.8330629563674119
 21
-0.0000000000000213
 31
0.0
  0
LINE
  5
420F
  8
240
 10
2.232251825469759
 20
1.599999999999745
 30
0.0
 11
2.2322518254697741
 21
2.1000000000000001
 31
0.0
  0
LINE
  5
4210
  8
240
 10
2.8330629563689329
 20
0.0000000000000142
 30
0.0
 11
16.992893218825799
 21
0.0000000000000853
 31
0.0
1001
GRPNAME
1000
PASTMD1L
  0
ARC
  5
421A
  8
240
 10
17.700000000012292
 20
1.2071067811866021
 30
0.0
 40
0.5
 50
315.00000000000063
 51
0.0000000000020356
  0
ARC
  5
421B
  8
240
 10
16.992893218825799
 20
0.5000000000000853
 30
0.0
 40
0.5
 50
270.0
 51
315.00000000000148
  0
TEXT
  5
428A
  8
241
 10
0.0
 20
28.0
 30
0.0
 40
3.0
  1
ENH5-1J
  7
YOKO
  0
LINE
  5
4293
  8
250
 10
17.492893218825799
 20
0.0000000000000851
 30
0.0
 11
29.0
 21
0.0000000000000819
 31
0.0
  0
LINE
  5
4294
  8
250
 10
19.300000000011931
 20
10.000000000000179
 30
0.0
 11
29.0
 21
10.000000000000171
 31
0.0
  0
LINE
  5
4295
  8
250
 10
28.0
 20
2.2300000000000821
 30
0.0
 11
28.0
 21
7.7700000000001763
 31
0.0
  0
LINE
  5
429A
  8
250
 10
35.144519674557159
 20
17.710700815454341
 30
0.0
 11
22.394131861647448
 21
17.710700815454341
 31
0.0
  0
LINE
  5
429B
  8
250
 10
22.394131861647448
 20
17.710700815454341
 30
0.0
 11
18.029350719065562
 21
11.63105412899154
 31
0.0
  0
LINE
  5
429C
  8
250
 10
18.029350719065562
 20
11.63105412899154
 30
0.0
 11
16.72881795700291
 21
9.8195590186471389
 31
0.0
  0
LINE
  5
429D
  8
250
 10
17.79086286448543
 20
11.802272514547401
 30
0.0
 11
16.72881795700291
 21
9.8195590186471389
 31
0.0
  0
LINE
  5
429E
  8
250
 10
16.72881795700291
 20
9.8195590186471389
 30
0.0
 11
18.26783857364569
 21
11.459835743435679
 31
0.0
  0
LINE
  5
42A0
  8
250
 10
0.0
 20
10.105738451833179
 30
0.0
 11
0.0000000000000008
 21
22.0
 31
0.0
  0
LINE
  5
42A1
  8
250
 10
19.00000000001199
 20
10.30000000000012
 30
0.0
 11
19.00000000001199
 21
22.0
 31
0.0
  0
LINE
  5
42A2
  8
250
 10
2.2299999999999991
 20
21.0
 30
0.0
 11
16.77000000001199
 21
21.0
 31
0.0
  0
TEXT
  5
42A6
  8
250
 10
6.7000000000059972
 20
22.0
 30
0.0
 40
2.799999999999998
  1
19
  0
LINE
  5
42A7
  8
250
 10
16.77000000001199
 20
21.37166666666667
 30
0.0
 11
19.00000000001199
 21
21.0
 31
0.0
  0
LINE
  5
42A8
  8
250
 10
16.77000000001199
 20
20.62833333333333
 30
0.0
 11
19.00000000001199
 21
21.0
 31
0.0
  0
LINE
  5
42A9
  8
250
 10
19.00000000001199
 20
21.0
 30
0.0
 11
16.77000000001199
 21
21.0
 31
0.0
  0
LINE
  5
42AA
  8
250
 10
2.2299999999999991
 20
20.62833333333333
 30
0.0
 11
0.0000000000000007
 21
21.0
 31
0.0
  0
LINE
  5
42AB
  8
250
 10
2.2299999999999991
 20
21.37166666666667
 30
0.0
 11
0.0000000000000007
 21
21.0
 31
0.0
  0
LINE
  5
42AC
  8
250
 10
0.0000000000000007
 20
21.0
 30
0.0
 11
2.2299999999999991
 21
21.0
 31
0.0
  0
TEXT
  5
42AD
  8
250
 10
22.477853007890491
 20
19.11070081545434
 30
0.0
 40
2.799999999999998
  1
TP08
  7
ACJISTS
  0
TEXT
  5
42AE
  8
250
 10
27.000000000000011
 20
2.1333333333334661
 30
0.0
 40
2.799999999999998
  1
10
 50
90.0
  0
LINE
  5
42AF
  8
250
 10
27.628333333333341
 20
7.7700000000001772
 30
0.0
 11
28.000000000000011
 21
10.000000000000171
 31
0.0
  0
LINE
  5
42B0
  8
250
 10
28.37166666666667
 20
7.7700000000001772
 30
0.0
 11
28.000000000000011
 21
10.000000000000171
 31
0.0
  0
LINE
  5
42B1
  8
250
 10
28.000000000000011
 20
10.000000000000171
 30
0.0
 11
28.000000000000011
 21
7.7700000000001772
 31
0.0
  0
LINE
  5
42B2
  8
250
 10
28.371666666666659
 20
2.2300000000000821
 30
0.0
 11
28.0
 21
0.0000000000000821
 31
0.0
  0
LINE
  5
42B3
  8
250
 10
27.62833333333333
 20
2.2300000000000821
 30
0.0
 11
28.0
 21
0.0000000000000821
 31
0.0
  0
LINE
  5
42B4
  8
250
 10
28.0
 20
0.0000000000000821
 30
0.0
 11
28.0
 21
2.2300000000000821
 31
0.0
  0
VIEWPORT
  5
22
 67
     1
  8
0
 10
261.51769911504419
 20
148.5
 30
0.0
 40
523.0353982300885
 41
297.0
 68
     1
 69
     1
1001
ACAD
1000
MVIEW
1002
{
1070
    16
1010
0.0
1020
0.0
1030
0.0
1010
0.0
1020
0.0
1030
1.0
1040
0.0
1040
297.0
1040
261.51769911504419
1040
148.5
1040
50.0
1040
0.0
1040
0.0
1070
     0
1070
   100
1070
     1
1070
     1
1070
     0
1070
     0
1070
     0
1070
     0
1040
0.0
1040
0.0
1040
0.0
1040
1.0
1040
1.0
1040
10.0
1040
10.0
1070
     0
1002
{
1002
}
1002
}
1001
GENIUS_GENODEF_13
1002
{
1000
HIER
1070
     0
1002
}
1002
{
1000
MANEDIT
1070
     0
1002
}
1002
{
1000
NOSEL
1070
     0
1002
}
1002
{
1000
BEHIND
1070
     0
1002
}
1002
{
1000
OTHER
1070
     0
1002
}
1002
{
1000
REACTOR
1002
}
1001
GENIUS_GENOBJ-N-SDF_13
1002
{
1000
OWNER
1000
GEN
1002
}
1001
GENIUS_GENSCREG_15
1000
PF
1040
1.0
1000
DF
1040
1.0
1000
MIN
1011
0.0
1021
0.0
1031
0.0
1021
0.0
1031
0.0
1000
MAX
1011
523.0353982300885
1021
0.0
1031
0.0
1021
297.0
1031
0.0
1000
FLAGS
1070
     4
  0
ENDSEC
  0
EOF
