  0
SECTION
  2
HEADER
  9
$ACADVER
  1
AC1009
  9
$INSBASE
 10
0.0
 20
0.0
 30
0.0
  9
$EXTMIN
 10
-9.5
 20
-3.5355814833727601
 30
0.0
  9
$EXTMAX
 10
36.321108255677373
 20
43.5
 30
0.0
  9
$LIMMIN
 10
0.0
 20
0.0
  9
$LIMMAX
 10
420.0
 20
297.0
  9
$ORTHOMODE
 70
     0
  9
$REGENMODE
 70
     1
  9
$FILLMODE
 70
     1
  9
$QTEXTMODE
 70
     0
  9
$MIRRTEXT
 70
     1
  9
$DRAGMODE
 70
     2
  9
$LTSCALE
 40
10.0
  9
$OSMODE
 70
    63
  9
$ATTMODE
 70
     1
  9
$TEXTSIZE
 40
3.0
  9
$TRACEWID
 40
1.0
  9
$TEXTSTYLE
  7
YOKO
  9
$CLAYER
  8
245
  9
$CELTYPE
  6
BYLAYER
  9
$CECOLOR
 62
   256
  9
$DIMSCALE
 40
1.0
  9
$DIMASZ
 40
2.2299999999999991
  9
$DIMEXO
 40
0.5
  9
$DIMDLI
 40
2.5
  9
$DIMRND
 40
0.0
  9
$DIMDLE
 40
0.0
  9
$DIMEXE
 40
1.0
  9
$DIMTP
 40
0.0
  9
$DIMTM
 40
0.0
  9
$DIMTXT
 40
2.799999999999998
  9
$DIMCEN
 40
0.0
  9
$DIMTSZ
 40
0.0
  9
$DIMTOL
 70
     0
  9
$DIMLIM
 70
     0
  9
$DIMTIH
 70
     0
  9
$DIMTOH
 70
     0
  9
$DIMSE1
 70
     0
  9
$DIMSE2
 70
     0
  9
$DIMTAD
 70
     3
  9
$DIMZIN
 70
     8
  9
$DIMBLK
  1

  9
$DIMASO
 70
     1
  9
$DIMSHO
 70
     1
  9
$DIMPOST
  1
<>
  9
$DIMAPOST
  1

  9
$DIMALT
 70
     0
  9
$DIMALTD
 70
     2
  9
$DIMALTF
 40
25.399999999999999
  9
$DIMLFAC
 40
1.0
  9
$DIMTOFL
 70
     1
  9
$DIMTVP
 40
0.0
  9
$DIMTIX
 70
     1
  9
$DIMSOXD
 70
     0
  9
$DIMSAH
 70
     1
  9
$DIMBLK1
  1
OPEN
  9
$DIMBLK2
  1
OPEN
  9
$DIMSTYLE
  2
BIGT
  9
$DIMCLRD
 70
   256
  9
$DIMCLRE
 70
   256
  9
$DIMCLRT
 70
    40
  9
$DIMTFAC
 40
1.0
  9
$DIMGAP
 40
1.0
  9
$LUNITS
 70
     2
  9
$LUPREC
 70
     3
  9
$SKETCHINC
 40
1.0
  9
$FILLETRAD
 40
0.0
  9
$AUNITS
 70
     0
  9
$AUPREC
 70
     3
  9
$MENU
  1
.
  9
$ELEVATION
 40
0.0
  9
$PELEVATION
 40
0.0
  9
$THICKNESS
 40
0.0
  9
$LIMCHECK
 70
     0
  9
$BLIPMODE
 70
     0
  9
$CHAMFERA
 40
10.0
  9
$CHAMFERB
 40
10.0
  9
$SKPOLY
 70
     0
  9
$TDCREATE
 40
2455448.3643411808
  9
$TDUPDATE
 40
2457157.4912769329
  9
$TDINDWG
 40
0.376365787
  9
$TDUSRTIMER
 40
0.3763646759
  9
$USRTIMER
 70
     1
  9
$ANGBASE
 50
0.0
  9
$ANGDIR
 70
     0
  9
$PDMODE
 70
     1
  9
$PDSIZE
 40
-5.0
  9
$PLINEWID
 40
0.0
  9
$COORDS
 70
     1
  9
$SPLFRAME
 70
     0
  9
$SPLINETYPE
 70
     6
  9
$SPLINESEGS
 70
     8
  9
$ATTDIA
 70
     1
  9
$ATTREQ
 70
     1
  9
$HANDLING
 70
     1
  9
$HANDSEED
  5
F7A
  9
$SURFTAB1
 70
     6
  9
$SURFTAB2
 70
     6
  9
$SURFTYPE
 70
     6
  9
$SURFU
 70
     6
  9
$SURFV
 70
     6
  9
$UCSNAME
  2

  9
$UCSORG
 10
0.0
 20
0.0
 30
0.0
  9
$UCSXDIR
 10
1.0
 20
0.0
 30
0.0
  9
$UCSYDIR
 10
0.0
 20
1.0
 30
0.0
  9
$PUCSNAME
  2

  9
$PUCSORG
 10
0.0
 20
0.0
 30
0.0
  9
$PUCSXDIR
 10
1.0
 20
0.0
 30
0.0
  9
$PUCSYDIR
 10
0.0
 20
1.0
 30
0.0
  9
$USERI1
 70
     1
  9
$USERI2
 70
     0
  9
$USERI3
 70
     0
  9
$USERI4
 70
     0
  9
$USERI5
 70
     0
  9
$USERR1
 40
0.0
  9
$USERR2
 40
0.0
  9
$USERR3
 40
0.0
  9
$USERR4
 40
0.0
  9
$USERR5
 40
0.0
  9
$WORLDVIEW
 70
     1
  9
$SHADEDGE
 70
     3
  9
$SHADEDIF
 70
    70
  9
$TILEMODE
 70
     1
  9
$MAXACTVP
 70
    16
  9
$PLIMCHECK
 70
     0
  9
$PEXTMIN
 10
1.0000000000000000E+020
 20
1.0000000000000000E+020
 30
1.0000000000000000E+020
  9
$PEXTMAX
 10
-1.0000000000000000E+020
 20
-1.0000000000000000E+020
 30
-1.0000000000000000E+020
  9
$PLIMMIN
 10
0.0
 20
0.0
  9
$PLIMMAX
 10
420.0
 20
297.0
  9
$UNITMODE
 70
     0
  9
$VISRETAIN
 70
     0
  9
$PLINEGEN
 70
     0
  9
$PSLTSCALE
 70
     1
  0
ENDSEC
  0
SECTION
  2
TABLES
  0
TABLE
  2
VPORT
 70
     1
  0
VPORT
  2
*ACTIVE
 70
     0
 10
0.0
 20
0.0
 11
1.0
 21
1.0
 12
12.650995637792089
 22
19.476144275867991
 13
0.0
 23
0.0
 14
7.0
 24
7.0
 15
7.0
 25
7.0
 16
0.0
 26
0.0
 36
1.0
 17
0.0
 27
0.0
 37
0.0
 40
71.705229018214439
 41
1.433260393873085
 42
50.0
 43
0.0
 44
0.0
 50
0.0
 51
0.0
 71
     0
 72
  2000
 73
     1
 74
     0
 75
     0
 76
     1
 77
     0
 78
     0
  0
ENDTAB
  0
TABLE
  2
LTYPE
 70
    22
  0
LTYPE
  2
CONTINUOUS
 70
     0
  3
Solid line
 72
    65
 73
     0
 40
0.0
  0
LTYPE
  2
CENTER2
 70
     0
  3
___ _ ___ _ ___ _ ___ _ ___ _ ___ _ ___ _ ___ _
 72
    65
 73
     4
 40
1.125
 49
0.75
 49
-0.125
 49
0.125
 49
-0.125
  0
LTYPE
  2
PHANTOM2
 70
     0
  3
___ _ _ ___ _ _ ___ _ _ ___ _ _ ___ _ _ ___ _ _
 72
    65
 73
     6
 40
1.25
 49
0.625
 49
-0.125
 49
0.125
 49
-0.125
 49
0.125
 49
-0.125
  0
LTYPE
  2
HIDDEN2
 70
     0
  3
_ _ _ _ _ _ _ _ _ _ _ _ _ _ _ _ _ _ _ _ _ _ _ _
 72
    65
 73
     2
 40
0.1875
 49
0.125
 49
-0.0625
  0
LTYPE
  2
AMCONSTR
 70
     0
  3
_______________________
 72
    65
 73
     2
 40
9999.0
 49
9999.0
 49
0.0
  0
LTYPE
  2
HIDDEN
 70
     0
  3
Hidden __ __ __ __ __ __ __ __ __ __ __ __ __ _
 72
    65
 73
     2
 40
0.375
 49
0.25
 49
-0.125
  0
LTYPE
  2
CENTER
 70
     0
  3
Center ____ _ ____ _ ____ _ ____ _ ____ _ ____
 72
    65
 73
     4
 40
2.0
 49
1.25
 49
-0.25
 49
0.25
 49
-0.25
  0
LTYPE
  2
AMZIGZAG2
 70
     0
  3
/\/-/\/-/\/-/\/-/\/-/\/
 72
    65
 73
     2
 40
0.4401
 49
0.0001
 49
-0.4400000000000001
  0
LTYPE
  2
ACANSTGB
 70
     0
  3
__ . . __ . .
 72
    65
 73
     6
 40
0.35433070866
 49
0.15748031496
 49
-0.03937007874
 49
0.03937007874
 49
-0.03937007874
 49
0.03937007874
 49
-0.03937007874
  0
LTYPE
  2
ACANSTGL
 70
     0
  3
_ _ _ _ _
 72
    65
 73
     2
 40
0.11811023622
 49
0.07874015748
 49
-0.03937007874
  0
ENDTAB
  0
TABLE
  2
LAYER
 70
     8
  0
LAYER
  2
0
 70
     0
 62
     7
  6
CONTINUOUS
  0
LAYER
  2
245
 70
     0
 62
     2
  6
CENTER2
  0
LAYER
  2
240
 70
     0
 62
     4
  6
CONTINUOUS
  0
LAYER
  2
241
 70
     0
 62
   211
  6
CONTINUOUS
  0
LAYER
  2
250
 70
     0
 62
     3
  6
CONTINUOUS
  0
LAYER
  2
DEFPOINTS
 70
     0
 62
     7
  6
CONTINUOUS
  0
LAYER
  2
246
 70
     0
 62
     3
  6
PHANTOM2
  0
ENDTAB
  0
TABLE
  2
STYLE
 70
    10
  0
STYLE
  2
STANDARD
 70
     0
 40
0.0
 41
1.0
 50
0.0
 71
     0
 42
3.0
  3
romans.shx
  4
BIGFONT.SHX
  0
STYLE
  2
YOKO
 70
     0
 40
0.0
 41
1.0
 50
0.0
 71
     0
 42
3.0
  3
romans.shx
  4
extfont.shx
  0
STYLE
  2
ACJISTS
 70
     0
 40
1.0
 41
1.0
 50
0.0
 71
     0
 42
3.0
  3
amgdt.shx
  4
extfont.shx
  0
STYLE
  2

 70
     1
 40
0.0
 41
1.0
 50
0.0
 71
     0
 42
3.0
  3
genltshp.shx
  4

  0
STYLE
  2
ACANSGDT
 70
     0
 40
0.0
 41
1.0
 50
0.0
 71
     0
 42
3.0
  3
amgdt.shx
  4

  0
ENDTAB
  0
TABLE
  2
VIEW
 70
     1
  0
VIEW
  2
OLE1
 70
     0
 40
44.861458210000002
 10
-2.8403068099999991
 20
13.75916683
 41
63.188319589999999
 11
0.0
 21
0.0
 31
1.0
 12
0.0
 22
0.0
 32
0.0
 42
50.0
 43
0.0
 44
0.0
 50
0.0
 71
     0
  0
ENDTAB
  0
TABLE
  2
UCS
 70
     0
  0
ENDTAB
  0
TABLE
  2
APPID
 70
    43
  0
APPID
  2
ACAD
 70
     0
  0
APPID
  2
ACADANNOTATIVE
 70
     0
  0
APPID
  2
GLOBAL
 70
     0
  0
APPID
  2
DETAIL
 70
     0
  0
APPID
  2
GRPNAME
 70
     0
  0
APPID
  2
GPARA
 70
     0
  0
APPID
  2
DCO15
 70
     0
  0
APPID
  2
ITEMNAME
 70
     0
  0
APPID
  2
GRADE_0
 70
     0
  0
APPID
  2
CONTENTBLOCKICON
 70
     0
  0
APPID
  2
MCAD_NO_VIS
 70
     0
  0
APPID
  2
ACAD_TEMP_GRAPHIC
 70
     0
  0
APPID
  2
ACATTRIBSERVICES
 70
     0
  0
APPID
  2
GENIUS_GENSCREG_15
 70
     0
  0
APPID
  2
GENIUS_GENODEF_13
 70
     0
  0
APPID
  2
GENIUS_GENOBJ-N-SDF_13
 70
     0
  0
APPID
  2
GENIUS_GENREC_14
 70
     0
  0
APPID
  2
GENIUS_GENOBJ-N-REC_13
 70
     0
  0
APPID
  2
GENIUS_GENDIMSH_14
 70
     0
  0
APPID
  2
GENIUS_GENOBJ-N-DIM_13
 70
     0
  0
APPID
  2
GENIUS_GENDIM_13
 70
     0
  0
APPID
  2
GENIUS_GENDTOL_13
 70
     0
  0
APPID
  2
GENIUS_GENOLIS_13
 70
     0
  0
APPID
  2
GENIUS_GENOENT_13
 70
     0
  0
APPID
  2
GENIUS_GENOBJ-F-FEM_13
 70
     0
  0
APPID
  2
GENIUS_GENOREF_13
 70
     0
  0
APPID
  2
GENIUS_GEFFEM_13
 70
     0
  0
APPID
  2
GENIUS_GEFFEMP_13
 70
     0
  0
APPID
  2
AD_DRAW
 70
     0
  0
APPID
  2
DESIGNERASSEMBLIES
 70
     0
  0
APPID
  2
ACADM_DIM_EDIT
 70
     0
  0
APPID
  2
AMDT_DM_ADJ
 70
     0
  0
APPID
  2
GENIUS_GENOBJ-N-FIL_13
 70
     0
  0
APPID
  2
GENIUS_GENFIL_13
 70
     0
  0
APPID
  2
GENIUS_GENOBJ-N-CHA_13
 70
     0
  0
APPID
  2
ACAD_NAV_VCDISPLAY
 70
     0
  0
APPID
  2
ACAECLAYERSTANDARD
 70
     0
  0
APPID
  2
ACAD_MLEADERVER
 70
     0
  0
APPID
  2
ACAD_DSTYLE_DIMJAG
 70
     0
  0
APPID
  2
ACAD_DSTYLE_DIMBREAK
 70
     0
  0
APPID
  2
ACAD_DSTYLE_DIMINSPECT
 70
     0
  0
APPID
  2
ACAD_EXEMPT_FROM_CAD_STANDARDS
 70
     0
  0
APPID
  2
ACAD_DSTYLE_DIMRADIAL_EXTENSION
 70
     0
  0
ENDTAB
  0
TABLE
  2
DIMSTYLE
 70
    31
  0
DIMSTYLE
  2
STANDARD
 70
     0
  3

  4

  5

  6

  7

 40
1.0
 41
0.18
 42
0.0625
 43
0.38
 44
0.18
 45
0.0
 46
0.0
 47
0.0
 48
0.0
140
0.18
141
0.09
142
0.0
143
25.399999999999999
144
1.0
145
0.0
146
1.0
147
0.09
 71
     0
 72
     0
 73
     1
 74
     1
 75
     0
 76
     0
 77
     0
 78
     0
170
     0
171
     2
172
     0
173
     0
174
     0
175
     0
176
     0
177
     0
178
     0
  0
DIMSTYLE
  2
BIGT
 70
     0
  3

  4

  5

  6

  7

 40
1.0
 41
2.2299999999999991
 42
0.5
 43
7.0
 44
1.0
 45
0.0
 46
0.0
 47
0.0
 48
0.01
140
2.799999999999998
141
0.0
142
0.0
143
25.399999999999999
144
1.0
145
0.0
146
1.0
147
1.0
 71
     0
 72
     0
 73
     0
 74
     0
 75
     0
 76
     0
 77
     3
 78
     9
170
     0
171
     2
172
     1
173
     0
174
     1
175
     0
176
   256
177
   256
178
    40
  0
DIMSTYLE
  2
AM_ANSI
 70
     0
  3

  4
mm
  5

  6

  7

 40
1.0
 41
0.12
 42
0.05
 43
0.5
 44
0.1
 45
0.0
 46
0.0
 47
0.1
 48
0.1
140
0.12
141
0.0
142
0.0
143
25.399999999999999
144
1.0
145
0.0
146
0.71
147
0.06
 71
     0
 72
     0
 73
     1
 74
     1
 75
     0
 76
     0
 77
     0
 78
     7
170
     0
171
     2
172
     0
173
     0
174
     0
175
     0
176
   256
177
   256
178
     2
  0
DIMSTYLE
  2
AM_ANSI$3
 70
     0
  3

  4
mm
  5

  6

  7

 40
1.0
 41
0.12
 42
0.05
 43
0.5
 44
0.1
 45
0.0
 46
0.0
 47
0.1
 48
0.1
140
0.12
141
0.0
142
0.0
143
25.399999999999999
144
1.0
145
0.0
146
0.71
147
0.06
 71
     0
 72
     0
 73
     1
 74
     1
 75
     0
 76
     0
 77
     0
 78
     7
170
     0
171
     2
172
     0
173
     0
174
     0
175
     0
176
   256
177
   256
178
     2
  0
DIMSTYLE
  2
AM_ANSI$4
 70
     0
  3

  4
mm
  5

  6

  7

 40
1.0
 41
0.12
 42
0.05
 43
0.5
 44
0.1
 45
0.0
 46
0.0
 47
0.1
 48
0.1
140
0.12
141
0.0
142
0.0
143
25.399999999999999
144
1.0
145
0.0
146
0.71
147
0.06
 71
     0
 72
     0
 73
     1
 74
     1
 75
     0
 76
     0
 77
     0
 78
     7
170
     0
171
     2
172
     0
173
     0
174
     0
175
     0
176
   256
177
   256
178
     2
  0
DIMSTYLE
  2
AM_ANSI$7
 70
     0
  3

  4
mm
  5

  6

  7

 40
1.0
 41
0.12
 42
0.05
 43
0.5
 44
0.1
 45
0.0
 46
0.0
 47
0.1
 48
0.1
140
0.12
141
0.0
142
0.0
143
25.399999999999999
144
1.0
145
0.0
146
0.71
147
0.06
 71
     0
 72
     0
 73
     1
 74
     1
 75
     0
 76
     0
 77
     0
 78
     7
170
     0
171
     2
172
     0
173
     0
174
     0
175
     0
176
   256
177
   256
178
     2
  0
DIMSTYLE
  2
AM_ANSI$SF
 70
     0
  3

  4
mm
  5

  6

  7

 40
1.0
 41
0.12
 42
0.05
 43
0.5
 44
0.1
 45
0.0
 46
0.0
 47
0.1
 48
0.1
140
0.12
141
0.0
142
0.0
143
25.399999999999999
144
1.0
145
0.0
146
0.71
147
0.06
 71
     0
 72
     0
 73
     1
 74
     1
 75
     1
 76
     1
 77
     0
 78
     7
170
     0
171
     2
172
     0
173
     0
174
     0
175
     0
176
   256
177
   256
178
     2
  0
DIMSTYLE
  2
AM_ANSI$SH
 70
     0
  3

  4
mm
  5

  6
GENAXEH
  7

 40
1.0
 41
0.12
 42
0.05
 43
0.5
 44
0.1
 45
0.0
 46
0.0
 47
0.1
 48
0.1
140
0.12
141
0.0
142
0.0
143
25.399999999999999
144
1.0
145
0.0
146
0.71
147
0.06
 71
     0
 72
     0
 73
     1
 74
     1
 75
     1
 76
     1
 77
     0
 78
     7
170
     0
171
     2
172
     0
173
     1
174
     0
175
     0
176
   256
177
   256
178
     2
  0
ENDTAB
  0
ENDSEC
  0
SECTION
  2
BLOCKS
  0
BLOCK
  8
0
  2
$MODEL_SPACE
 70
     0
 10
0.0
 20
0.0
 30
0.0
  3
$MODEL_SPACE
  1

  0
ENDBLK
  5
DD8
  8
0
  0
BLOCK
 67
     1
  8
0
  2
$PAPER_SPACE
 70
     0
 10
0.0
 20
0.0
 30
0.0
  3
$PAPER_SPACE
  1

  0
ENDBLK
  5
DD4
 67
     1
  8
0
  0
BLOCK
  8
0
  2
_OPEN
 70
     0
 10
0.0
 20
0.0
 30
0.0
  3
_OPEN
  1

  0
LINE
  5
ADC
  8
0
  6
BYBLOCK
 62
     0
 10
-1.0
 20
0.1666666666666666
 30
0.0
 11
0.0
 21
0.0
 31
0.0
  0
LINE
  5
ADD
  8
0
  6
BYBLOCK
 62
     0
 10
-1.0
 20
-0.1666666666666666
 30
0.0
 11
0.0
 21
0.0
 31
0.0
  0
LINE
  5
ADE
  8
0
  6
BYBLOCK
 62
     0
 10
0.0
 20
0.0
 30
0.0
 11
-1.0
 21
0.0
 31
0.0
  0
ENDBLK
  5
ADF
  8
0
  0
BLOCK
  8
0
  2
矢印なし
 70
     0
 10
0.0
 20
0.0
 30
0.0
  3
矢印なし
  1

  0
ENDBLK
  5
6E5
  8
0
  0
BLOCK
  8
0
  2
GENAXEH
 70
     0
 10
0.0
 20
0.0
 30
0.0
  3
GENAXEH
  1

  0
LINE
  5
B17
  8
0
 10
-1.0
 20
0.0
 30
0.0
 11
1.0
 21
0.0
 31
0.0
  0
ENDBLK
  5
B18
  8
0
  0
BLOCK
  8
0
  2
_ACMFILLEDHALF
 70
     0
 10
0.0
 20
0.0
 30
0.0
  3
_ACMFILLEDHALF
  1

  0
TRACE
  5
E9D
  8
245
 62
     0
 10
-0.8
 20
0.0
 30
0.0
 11
-1.0
 21
0.166666666
 31
0.0
 12
0.0
 22
0.0
 32
0.0
 13
0.0
 23
0.0
 33
0.0
  0
LINE
  5
E9E
  8
245
 62
     0
 10
-1.0
 20
0.0
 30
0.0
 11
-0.8
 21
0.0
 31
0.0
  0
ENDBLK
  5
E9C
  8
0
  0
ENDSEC
  0
SECTION
  2
ENTITIES
  0
INSERT
  5
6E6
  8
245
  2
矢印なし
 10
175.62382697000001
 20
90.551235719999994
 30
0.0
  0
TEXT
  5
87B
  8
241
 10
-9.5
 20
38.5
 30
0.0
 40
5.0
  1
ENH5-1
  7
YOKO
 11
-9.5
 21
38.5
 31
0.0
 73
     1
  0
LINE
  5
B85
  8
240
  6
CONTINUOUS
 10
2.23225183
 20
0.0
 30
0.0
 11
17.362919099999999
 21
0.0
 31
0.0
  0
LINE
  5
B86
  8
240
  6
CONTINUOUS
 10
10.53517772
 20
8.2351777199999976
 30
0.0
 11
17.424403330000001
 21
9.4499340699999994
 31
0.0
1001
GRPNAME
1000
PASTMD03
  0
LINE
  5
B87
  8
241
  6
CONTINUOUS
 10
9.81700382
 20
4.9003746799999988
 30
0.0
 11
17.362919099999999
 21
0.0
 31
0.0
1001
GRPNAME
1000
PASTMD03
  0
LINE
  5
B88
  8
241
  6
CONTINUOUS
 10
9.8532632400000004
 20
5.5922455099999979
 30
0.0
 11
17.424403330000001
 21
9.4499340699999994
 31
0.0
1001
GRPNAME
1000
PASTMD03
  0
POLYLINE
  5
CC6
  8
240
 66
     1
 10
0.0
 20
0.0
 30
0.0
 70
     8
  0
VERTEX
  5
CC7
  8
240
 10
-4.5
 20
7.5
 30
0.0
 70
    32
  0
VERTEX
  5
CC8
  8
240
 10
-4.4433999999999987
 20
7.4918899999999988
 30
0.0
 70
    32
  0
VERTEX
  5
CC9
  8
240
 10
-4.3867900000000004
 20
7.4837800000000003
 30
0.0
 70
    32
  0
VERTEX
  5
CCA
  8
240
 10
-4.3301899999999991
 20
7.47567
 30
0.0
 70
    32
  0
VERTEX
  5
CCB
  8
240
 10
-4.273579999999999
 20
7.4675699999999994
 30
0.0
 70
    32
  0
VERTEX
  5
CCC
  8
240
 10
-4.2169800000000004
 20
7.4594899999999988
 30
0.0
 70
    32
  0
VERTEX
  5
CCD
  8
240
 10
-4.1603799999999991
 20
7.4514100000000001
 30
0.0
 70
    32
  0
VERTEX
  5
CCE
  8
240
 10
-4.103769999999999
 20
7.4433499999999988
 30
0.0
 70
    32
  0
VERTEX
  5
CCF
  8
240
 10
-4.0471699999999986
 20
7.4353100000000003
 30
0.0
 70
    32
  0
VERTEX
  5
CD0
  8
240
 10
-3.9905699999999991
 20
7.4272899999999993
 30
0.0
 70
    32
  0
VERTEX
  5
CD1
  8
240
 10
-3.933959999999999
 20
7.4192999999999989
 30
0.0
 70
    32
  0
VERTEX
  5
CD2
  8
240
 10
-3.877359999999999
 20
7.411319999999999
 30
0.0
 70
    32
  0
VERTEX
  5
CD3
  8
240
 10
-3.820749999999999
 20
7.4033800000000003
 30
0.0
 70
    32
  0
VERTEX
  5
CD4
  8
240
 10
-3.764149999999999
 20
7.3954699999999987
 30
0.0
 70
    32
  0
VERTEX
  5
CD5
  8
240
 10
-3.707549999999999
 20
7.3875899999999994
 30
0.0
 70
    32
  0
VERTEX
  5
CD6
  8
240
 10
-3.6509399999999999
 20
7.3797499999999987
 30
0.0
 70
    32
  0
VERTEX
  5
CD7
  8
240
 10
-3.5943399999999999
 20
7.3719399999999986
 30
0.0
 70
    32
  0
VERTEX
  5
CD8
  8
240
 10
-3.5377399999999999
 20
7.3641800000000002
 30
0.0
 70
    32
  0
VERTEX
  5
CD9
  8
240
 10
-3.4811299999999998
 20
7.3564600000000002
 30
0.0
 70
    32
  0
VERTEX
  5
CDA
  8
240
 10
-3.4245299999999999
 20
7.3487799999999996
 30
0.0
 70
    32
  0
VERTEX
  5
CDB
  8
240
 10
-3.3679199999999989
 20
7.3411600000000004
 30
0.0
 70
    32
  0
VERTEX
  5
CDC
  8
240
 10
-3.3113199999999989
 20
7.3335899999999992
 30
0.0
 70
    32
  0
VERTEX
  5
CDD
  8
240
 10
-3.2547199999999998
 20
7.3260699999999987
 30
0.0
 70
    32
  0
VERTEX
  5
CDE
  8
240
 10
-3.1981099999999989
 20
7.3185999999999991
 30
0.0
 70
    32
  0
VERTEX
  5
CDF
  8
240
 10
-3.1415099999999989
 20
7.3112000000000004
 30
0.0
 70
    32
  0
VERTEX
  5
CE0
  8
240
 10
-3.0849099999999989
 20
7.3038600000000002
 30
0.0
 70
    32
  0
VERTEX
  5
CE1
  8
240
 10
-3.0283000000000002
 20
7.2965799999999996
 30
0.0
 70
    32
  0
VERTEX
  5
CE2
  8
240
 10
-2.9716999999999989
 20
7.289369999999999
 30
0.0
 70
    32
  0
VERTEX
  5
CE3
  8
240
 10
-2.9150900000000002
 20
7.2822199999999988
 30
0.0
 70
    32
  0
VERTEX
  5
CE4
  8
240
 10
-2.8584900000000002
 20
7.27515
 30
0.0
 70
    32
  0
VERTEX
  5
CE5
  8
240
 10
-2.8018900000000002
 20
7.26816
 30
0.0
 70
    32
  0
VERTEX
  5
CE6
  8
240
 10
-2.7452799999999988
 20
7.261239999999999
 30
0.0
 70
    32
  0
VERTEX
  5
CE7
  8
240
 10
-2.6886799999999988
 20
7.2544000000000004
 30
0.0
 70
    32
  0
VERTEX
  5
CE8
  8
240
 10
-2.6320799999999989
 20
7.2476399999999988
 30
0.0
 70
    32
  0
VERTEX
  5
CE9
  8
240
 10
-2.5754700000000001
 20
7.240969999999999
 30
0.0
 70
    32
  0
VERTEX
  5
CEA
  8
240
 10
-2.5188700000000002
 20
7.2343799999999998
 30
0.0
 70
    32
  0
VERTEX
  5
CEB
  8
240
 10
-2.4622599999999988
 20
7.2278899999999986
 30
0.0
 70
    32
  0
VERTEX
  5
CEC
  8
240
 10
-2.4056599999999988
 20
7.2214899999999993
 30
0.0
 70
    32
  0
VERTEX
  5
CED
  8
240
 10
-2.3490599999999988
 20
7.2151800000000001
 30
0.0
 70
    32
  0
VERTEX
  5
CEE
  8
240
 10
-2.2924500000000001
 20
7.208969999999999
 30
0.0
 70
    32
  0
VERTEX
  5
CEF
  8
240
 10
-2.2358500000000001
 20
7.2028600000000003
 30
0.0
 70
    32
  0
VERTEX
  5
CF0
  8
240
 10
-2.1792500000000001
 20
7.1968500000000004
 30
0.0
 70
    32
  0
VERTEX
  5
CF1
  8
240
 10
-2.1226400000000001
 20
7.1909499999999991
 30
0.0
 70
    32
  0
VERTEX
  5
CF2
  8
240
 10
-2.0660400000000001
 20
7.1851500000000001
 30
0.0
 70
    32
  0
VERTEX
  5
CF3
  8
240
 10
-2.00943
 20
7.1794699999999994
 30
0.0
 70
    32
  0
VERTEX
  5
CF4
  8
240
 10
-1.952829999999999
 20
7.1738999999999988
 30
0.0
 70
    32
  0
VERTEX
  5
CF5
  8
240
 10
-1.896229999999999
 20
7.1684399999999986
 30
0.0
 70
    32
  0
VERTEX
  5
CF6
  8
240
 10
-1.83962
 20
7.1631
 30
0.0
 70
    32
  0
VERTEX
  5
CF7
  8
240
 10
-1.78302
 20
7.1578899999999992
 30
0.0
 70
    32
  0
VERTEX
  5
CF8
  8
240
 10
-1.7264200000000001
 20
7.1527899999999986
 30
0.0
 70
    32
  0
VERTEX
  5
CF9
  8
240
 10
-1.6698099999999989
 20
7.147829999999999
 30
0.0
 70
    32
  0
VERTEX
  5
CFA
  8
240
 10
-1.61321
 20
7.1429899999999993
 30
0.0
 70
    32
  0
VERTEX
  5
CFB
  8
240
 10
-1.5565999999999991
 20
7.1382799999999991
 30
0.0
 70
    32
  0
VERTEX
  5
CFC
  8
240
 10
-1.5
 20
7.1337000000000002
 30
0.0
 70
    32
  0
VERTEX
  5
CFD
  8
240
 10
-1.4434
 20
7.1292600000000004
 30
0.0
 70
    32
  0
VERTEX
  5
CFE
  8
240
 10
-1.3867899999999991
 20
7.1249599999999997
 30
0.0
 70
    32
  0
VERTEX
  5
CFF
  8
240
 10
-1.3301899999999991
 20
7.1208099999999996
 30
0.0
 70
    32
  0
VERTEX
  5
D00
  8
240
 10
-1.273579999999999
 20
7.1167899999999991
 30
0.0
 70
    32
  0
VERTEX
  5
D01
  8
240
 10
-1.2169799999999991
 20
7.112919999999999
 30
0.0
 70
    32
  0
VERTEX
  5
D02
  8
240
 10
-1.1603799999999991
 20
7.1092000000000004
 30
0.0
 70
    32
  0
VERTEX
  5
D03
  8
240
 10
-1.1037699999999999
 20
7.1056299999999997
 30
0.0
 70
    32
  0
VERTEX
  5
D04
  8
240
 10
-1.0471699999999999
 20
7.1022199999999991
 30
0.0
 70
    32
  0
VERTEX
  5
D05
  8
240
 10
-0.990566
 20
7.0989599999999999
 30
0.0
 70
    32
  0
VERTEX
  5
D06
  8
240
 10
-0.933962
 20
7.0958600000000001
 30
0.0
 70
    32
  0
VERTEX
  5
D07
  8
240
 10
-0.8773579999999999
 20
7.0929199999999986
 30
0.0
 70
    32
  0
VERTEX
  5
D08
  8
240
 10
-0.8207549999999999
 20
7.0901500000000004
 30
0.0
 70
    32
  0
VERTEX
  5
D09
  8
240
 10
-0.7641510000000001
 20
7.0875500000000002
 30
0.0
 70
    32
  0
VERTEX
  5
D0A
  8
240
 10
-0.7075470000000002
 20
7.0851100000000002
 30
0.0
 70
    32
  0
VERTEX
  5
D0B
  8
240
 10
-0.6509430000000001
 20
7.0828499999999988
 30
0.0
 70
    32
  0
VERTEX
  5
D0C
  8
240
 10
-0.59434
 20
7.0807599999999997
 30
0.0
 70
    32
  0
VERTEX
  5
D0D
  8
240
 10
-0.537736
 20
7.0788399999999987
 30
0.0
 70
    32
  0
VERTEX
  5
D0E
  8
240
 10
-0.481132
 20
7.0771100000000002
 30
0.0
 70
    32
  0
VERTEX
  5
D0F
  8
240
 10
-0.424528
 20
7.0755600000000003
 30
0.0
 70
    32
  0
VERTEX
  5
D10
  8
240
 10
-0.367925
 20
7.0741899999999989
 30
0.0
 70
    32
  0
VERTEX
  5
D11
  8
240
 10
-0.311321
 20
7.0730199999999988
 30
0.0
 70
    32
  0
VERTEX
  5
D12
  8
240
 10
-0.254717
 20
7.0720299999999998
 30
0.0
 70
    32
  0
VERTEX
  5
D13
  8
240
 10
-0.198113
 20
7.071229999999999
 30
0.0
 70
    32
  0
VERTEX
  5
D14
  8
240
 10
-0.141509
 20
7.0706300000000004
 30
0.0
 70
    32
  0
VERTEX
  5
D15
  8
240
 10
-0.0849057
 20
7.0702299999999996
 30
0.0
 70
    32
  0
VERTEX
  5
D16
  8
240
 10
-0.0283019
 20
7.07003
 30
0.0
 70
    32
  0
VERTEX
  5
D17
  8
240
 10
0.0283019
 20
7.07003
 30
0.0
 70
    32
  0
VERTEX
  5
D18
  8
240
 10
0.0849057
 20
7.0702299999999996
 30
0.0
 70
    32
  0
VERTEX
  5
D19
  8
240
 10
0.141509
 20
7.0706300000000004
 30
0.0
 70
    32
  0
VERTEX
  5
D1A
  8
240
 10
0.198113
 20
7.071229999999999
 30
0.0
 70
    32
  0
VERTEX
  5
D1B
  8
240
 10
0.254717
 20
7.0720299999999998
 30
0.0
 70
    32
  0
VERTEX
  5
D1C
  8
240
 10
0.311321
 20
7.0730199999999988
 30
0.0
 70
    32
  0
VERTEX
  5
D1D
  8
240
 10
0.367925
 20
7.0741899999999989
 30
0.0
 70
    32
  0
VERTEX
  5
D1E
  8
240
 10
0.424528
 20
7.0755600000000003
 30
0.0
 70
    32
  0
VERTEX
  5
D1F
  8
240
 10
0.481132
 20
7.0771100000000002
 30
0.0
 70
    32
  0
VERTEX
  5
D20
  8
240
 10
0.537736
 20
7.0788399999999987
 30
0.0
 70
    32
  0
VERTEX
  5
D21
  8
240
 10
0.59434
 20
7.0807599999999997
 30
0.0
 70
    32
  0
VERTEX
  5
D22
  8
240
 10
0.6509430000000001
 20
7.0828499999999988
 30
0.0
 70
    32
  0
VERTEX
  5
D23
  8
240
 10
0.7075470000000002
 20
7.0851100000000002
 30
0.0
 70
    32
  0
VERTEX
  5
D24
  8
240
 10
0.7641510000000001
 20
7.0875500000000002
 30
0.0
 70
    32
  0
VERTEX
  5
D25
  8
240
 10
0.8207549999999999
 20
7.0901500000000004
 30
0.0
 70
    32
  0
VERTEX
  5
D26
  8
240
 10
0.8773579999999999
 20
7.0929199999999986
 30
0.0
 70
    32
  0
VERTEX
  5
D27
  8
240
 10
0.933962
 20
7.0958600000000001
 30
0.0
 70
    32
  0
VERTEX
  5
D28
  8
240
 10
0.990566
 20
7.0989599999999999
 30
0.0
 70
    32
  0
VERTEX
  5
D29
  8
240
 10
1.0471699999999999
 20
7.1022199999999991
 30
0.0
 70
    32
  0
VERTEX
  5
D2A
  8
240
 10
1.1037699999999999
 20
7.1056299999999997
 30
0.0
 70
    32
  0
VERTEX
  5
D2B
  8
240
 10
1.1603799999999991
 20
7.1092000000000004
 30
0.0
 70
    32
  0
VERTEX
  5
D2C
  8
240
 10
1.2169799999999991
 20
7.112919999999999
 30
0.0
 70
    32
  0
VERTEX
  5
D2D
  8
240
 10
1.273579999999999
 20
7.1167899999999991
 30
0.0
 70
    32
  0
VERTEX
  5
D2E
  8
240
 10
1.3301899999999991
 20
7.1208099999999996
 30
0.0
 70
    32
  0
VERTEX
  5
D2F
  8
240
 10
1.3867899999999991
 20
7.1249599999999997
 30
0.0
 70
    32
  0
VERTEX
  5
D30
  8
240
 10
1.4434
 20
7.1292600000000004
 30
0.0
 70
    32
  0
VERTEX
  5
D31
  8
240
 10
1.5
 20
7.1337000000000002
 30
0.0
 70
    32
  0
VERTEX
  5
D32
  8
240
 10
1.5565999999999991
 20
7.1382799999999991
 30
0.0
 70
    32
  0
VERTEX
  5
D33
  8
240
 10
1.61321
 20
7.1429899999999993
 30
0.0
 70
    32
  0
VERTEX
  5
D34
  8
240
 10
1.6698099999999989
 20
7.147829999999999
 30
0.0
 70
    32
  0
VERTEX
  5
D35
  8
240
 10
1.7264200000000001
 20
7.1527899999999986
 30
0.0
 70
    32
  0
VERTEX
  5
D36
  8
240
 10
1.78302
 20
7.1578899999999992
 30
0.0
 70
    32
  0
VERTEX
  5
D37
  8
240
 10
1.83962
 20
7.1631
 30
0.0
 70
    32
  0
VERTEX
  5
D38
  8
240
 10
1.896229999999999
 20
7.1684399999999986
 30
0.0
 70
    32
  0
VERTEX
  5
D39
  8
240
 10
1.952829999999999
 20
7.1738999999999988
 30
0.0
 70
    32
  0
VERTEX
  5
D3A
  8
240
 10
2.00943
 20
7.1794699999999994
 30
0.0
 70
    32
  0
VERTEX
  5
D3B
  8
240
 10
2.0660400000000001
 20
7.1851500000000001
 30
0.0
 70
    32
  0
VERTEX
  5
D3C
  8
240
 10
2.1226400000000001
 20
7.1909499999999991
 30
0.0
 70
    32
  0
VERTEX
  5
D3D
  8
240
 10
2.1792500000000001
 20
7.1968500000000004
 30
0.0
 70
    32
  0
VERTEX
  5
D3E
  8
240
 10
2.2358500000000001
 20
7.2028600000000003
 30
0.0
 70
    32
  0
VERTEX
  5
D3F
  8
240
 10
2.2924500000000001
 20
7.208969999999999
 30
0.0
 70
    32
  0
VERTEX
  5
D40
  8
240
 10
2.3490599999999988
 20
7.2151800000000001
 30
0.0
 70
    32
  0
VERTEX
  5
D41
  8
240
 10
2.4056599999999988
 20
7.2214899999999993
 30
0.0
 70
    32
  0
VERTEX
  5
D42
  8
240
 10
2.4622599999999988
 20
7.2278899999999986
 30
0.0
 70
    32
  0
VERTEX
  5
D43
  8
240
 10
2.5188700000000002
 20
7.2343799999999998
 30
0.0
 70
    32
  0
VERTEX
  5
D44
  8
240
 10
2.5754700000000001
 20
7.240969999999999
 30
0.0
 70
    32
  0
VERTEX
  5
D45
  8
240
 10
2.6320799999999989
 20
7.2476399999999988
 30
0.0
 70
    32
  0
VERTEX
  5
D46
  8
240
 10
2.6886799999999988
 20
7.2544000000000004
 30
0.0
 70
    32
  0
VERTEX
  5
D47
  8
240
 10
2.7452799999999988
 20
7.261239999999999
 30
0.0
 70
    32
  0
VERTEX
  5
D48
  8
240
 10
2.8018900000000002
 20
7.26816
 30
0.0
 70
    32
  0
VERTEX
  5
D49
  8
240
 10
2.8584900000000002
 20
7.27515
 30
0.0
 70
    32
  0
VERTEX
  5
D4A
  8
240
 10
2.9150900000000002
 20
7.2822199999999988
 30
0.0
 70
    32
  0
VERTEX
  5
D4B
  8
240
 10
2.9716999999999989
 20
7.289369999999999
 30
0.0
 70
    32
  0
VERTEX
  5
D4C
  8
240
 10
3.0283000000000002
 20
7.2965799999999996
 30
0.0
 70
    32
  0
VERTEX
  5
D4D
  8
240
 10
3.0849099999999989
 20
7.3038600000000002
 30
0.0
 70
    32
  0
VERTEX
  5
D4E
  8
240
 10
3.1415099999999989
 20
7.3112000000000004
 30
0.0
 70
    32
  0
VERTEX
  5
D4F
  8
240
 10
3.1981099999999989
 20
7.3185999999999991
 30
0.0
 70
    32
  0
VERTEX
  5
D50
  8
240
 10
3.2547199999999998
 20
7.3260699999999987
 30
0.0
 70
    32
  0
VERTEX
  5
D51
  8
240
 10
3.3113199999999989
 20
7.3335899999999992
 30
0.0
 70
    32
  0
VERTEX
  5
D52
  8
240
 10
3.3679199999999989
 20
7.3411600000000004
 30
0.0
 70
    32
  0
VERTEX
  5
D53
  8
240
 10
3.4245299999999999
 20
7.3487799999999996
 30
0.0
 70
    32
  0
VERTEX
  5
D54
  8
240
 10
3.4811299999999998
 20
7.3564600000000002
 30
0.0
 70
    32
  0
VERTEX
  5
D55
  8
240
 10
3.5377399999999999
 20
7.3641800000000002
 30
0.0
 70
    32
  0
VERTEX
  5
D56
  8
240
 10
3.5943399999999999
 20
7.3719399999999986
 30
0.0
 70
    32
  0
VERTEX
  5
D57
  8
240
 10
3.6509399999999999
 20
7.3797499999999987
 30
0.0
 70
    32
  0
VERTEX
  5
D58
  8
240
 10
3.707549999999999
 20
7.3875899999999994
 30
0.0
 70
    32
  0
VERTEX
  5
D59
  8
240
 10
3.764149999999999
 20
7.3954699999999987
 30
0.0
 70
    32
  0
VERTEX
  5
D5A
  8
240
 10
3.820749999999999
 20
7.4033800000000003
 30
0.0
 70
    32
  0
VERTEX
  5
D5B
  8
240
 10
3.877359999999999
 20
7.411319999999999
 30
0.0
 70
    32
  0
VERTEX
  5
D5C
  8
240
 10
3.933959999999999
 20
7.4192999999999989
 30
0.0
 70
    32
  0
VERTEX
  5
D5D
  8
240
 10
3.9905699999999991
 20
7.4272899999999993
 30
0.0
 70
    32
  0
VERTEX
  5
D5E
  8
240
 10
4.0471699999999986
 20
7.4353100000000003
 30
0.0
 70
    32
  0
VERTEX
  5
D5F
  8
240
 10
4.103769999999999
 20
7.4433499999999988
 30
0.0
 70
    32
  0
VERTEX
  5
D60
  8
240
 10
4.1603799999999991
 20
7.4514100000000001
 30
0.0
 70
    32
  0
VERTEX
  5
D61
  8
240
 10
4.2169800000000004
 20
7.4594899999999988
 30
0.0
 70
    32
  0
VERTEX
  5
D62
  8
240
 10
4.273579999999999
 20
7.4675699999999994
 30
0.0
 70
    32
  0
VERTEX
  5
D63
  8
240
 10
4.3301899999999991
 20
7.47567
 30
0.0
 70
    32
  0
VERTEX
  5
D64
  8
240
 10
4.3867900000000004
 20
7.4837800000000003
 30
0.0
 70
    32
  0
VERTEX
  5
D65
  8
240
 10
4.4433999999999987
 20
7.4918899999999988
 30
0.0
 70
    32
  0
VERTEX
  5
D66
  8
240
 10
4.5
 20
7.5
 30
0.0
 70
    32
  0
SEQEND
  5
D67
  8
240
  0
LINE
  5
B8A
  8
240
  6
CONTINUOUS
 10
-9.5
 20
0.0
 30
0.0
 11
-2.23225183
 21
0.0
 31
0.0
  0
LINE
  5
B8B
  8
240
  6
CONTINUOUS
 10
-9.5
 20
0.0
 30
0.0
 11
-9.5
 21
5.5
 31
0.0
  0
LINE
  5
B8C
  8
240
  6
CONTINUOUS
 10
-7.5
 20
7.5
 30
0.0
 11
-4.5
 21
7.5
 31
0.0
  0
ARC
  5
B8D
  8
240
  6
CONTINUOUS
 10
-7.5
 20
5.5
 30
0.0
 40
2.0
 50
90.0
 51
180.0
  0
LINE
  5
B8E
  8
245
  6
CENTER2
 10
0.0
 20
8.5
 30
0.0
 11
0.0
 21
-1.0
 31
0.0
  0
ARC
  5
B90
  8
241
  6
PHANTOM2
 10
10.03485944
 20
5.2358429099999988
 30
0.0
 40
0.3999999999999955
 50
117.00000008000001
 51
237.00000008000009
1001
GRPNAME
1000
PASTMD03
  0
LINE
  5
B91
  8
241
  6
CONTINUOUS
 10
8.2272413400000008
 20
0.0
 30
0.0
 11
8.2272413400000008
 21
7.3630942099999981
 31
0.0
  0
LINE
  5
B92
  8
240
  6
CONTINUOUS
 10
-2.23225183
 20
2.0999999999999992
 30
0.0
 11
2.23225183
 21
2.0999999999999992
 31
0.0
  0
LINE
  5
B93
  8
240
  6
CONTINUOUS
 10
-2.23225183
 20
0.0
 30
0.0
 11
-2.23225183
 21
2.0999999999999992
 31
0.0
  0
LINE
  5
B94
  8
240
  6
CONTINUOUS
 10
2.23225183
 20
0.0
 30
0.0
 11
2.23225183
 21
2.0999999999999992
 31
0.0
  0
LINE
  5
B96
  8
241
  6
CONTINUOUS
 10
9.5
 20
0.0
 30
0.0
 11
9.5
 21
7.5
 31
0.0
  0
LINE
  5
B97
  8
240
  6
CONTINUOUS
 10
4.5
 20
7.5
 30
0.0
 11
9.8000000000000007
 21
7.5
 31
0.0
  0
ARC
  5
B98
  8
241
  6
CONTINUOUS
 10
7.5
 20
5.5
 30
0.0
 40
1.999999999999998
 50
68.67727911999998
 51
90.0
  0
LINE
  5
B99
  8
240
  6
CONTINUOUS
 10
9.8000000000000007
 20
7.5
 30
0.0
 11
10.53517772
 21
8.2351777199999976
 31
0.0
  0
LINE
  5
B9C
  8
240
  6
PHANTOM2
 10
18.99945181
 20
9.5790656199999997
 30
0.0
 11
18.496352439999999
 21
-0.0206422399999999
 31
0.0
1001
GRPNAME
1000
PASTMD03
  0
ARC
  5
B9E
  8
240
  6
PHANTOM2
 10
18.09690063
 20
0.00029214
 30
0.0
 40
0.3999999999999991
 50
236.99999994000001
 51
356.99999994000001
1001
GRPNAME
1000
PASTMD03
  0
LINE
  5
B9F
  8
240
  6
PHANTOM2
 10
17.362919099999999
 20
0.0
 30
0.0
 11
17.87904502
 21
-0.33517609
 31
0.0
1001
GRPNAME
1000
PASTMD03
  0
ARC
  5
BA0
  8
240
  6
PHANTOM2
 10
18.600000000000001
 20
9.5999999999999996
 30
0.0
 40
0.3999999999999796
 50
357.00000002000002
 51
117.00000002
1001
GRPNAME
1000
PASTMD03
  0
LINE
  5
BA1
  8
240
  6
PHANTOM2
 10
18.4184038
 20
9.9564026099999996
 30
0.0
 11
17.424403330000001
 21
9.4499340699999994
 31
0.0
1001
GRPNAME
1000
PASTMD03
  0
LINE
  5
BA3
  8
250
 10
0.0
 20
9.0
 30
0.0
 11
0.0
 21
18.5
 31
0.0
  0
LINE
  5
BA4
  8
250
 10
19.0
 20
10.1
 30
0.0
 11
19.0
 21
18.5
 31
0.0
  0
LINE
  5
BA5
  8
250
 10
2.2299999999999991
 20
17.5
 30
0.0
 11
16.77
 21
17.5
 31
0.0
  0
TEXT
  5
BAF
  8
250
 10
6.7000000000000002
 20
18.5
 30
0.0
 40
2.799999999999998
  1
19
  0
LINE
  5
BB0
  8
250
 10
16.77
 20
17.871666666666659
 30
0.0
 11
19.0
 21
17.5
 31
0.0
  0
LINE
  5
BB1
  8
250
 10
16.77
 20
17.12833333333333
 30
0.0
 11
19.0
 21
17.5
 31
0.0
  0
LINE
  5
BB2
  8
250
 10
19.0
 20
17.5
 30
0.0
 11
16.77
 21
17.5
 31
0.0
  0
LINE
  5
BB3
  8
250
 10
2.2299999999999991
 20
17.12833333333333
 30
0.0
 11
0.0
 21
17.5
 31
0.0
  0
LINE
  5
BB4
  8
250
 10
2.2299999999999991
 20
17.871666666666659
 30
0.0
 11
0.0
 21
17.5
 31
0.0
  0
LINE
  5
BB5
  8
250
 10
0.0
 20
17.5
 30
0.0
 11
2.2299999999999991
 21
17.5
 31
0.0
  0
CIRCLE
  5
BC1
  8
246
 10
15.577253354387681
 20
4.9453783456572413
 30
0.0
 40
3.1749999974862559
  0
LINE
  5
EF4
  8
250
 10
36.321108255677373
 20
17.21560694350153
 30
0.0
 11
23.502037495619451
 21
17.21560694350153
 31
0.0
  0
LINE
  5
EF5
  8
250
 10
23.502037495619451
 20
17.21560694350153
 30
0.0
 11
19.251200752613538
 21
11.49329108434328
 31
0.0
  0
LINE
  5
EF6
  8
250
 10
19.251200752613538
 20
11.49329108434328
 30
0.0
 11
17.921403564999999
 21
9.7031683399999977
 31
0.0
  0
LINE
  5
EF7
  8
250
 10
19.01552662338425
 20
11.66836220459618
 30
0.0
 11
17.921403564999999
 21
9.7031683399999977
 31
0.0
  0
LINE
  5
EF8
  8
250
 10
17.921403564999999
 20
9.7031683399999977
 30
0.0
 11
19.48687488184283
 21
11.31821996409038
 31
0.0
  0
TEXT
  5
EF9
  8
250
 10
23.654441589010698
 20
18.61560694350154
 30
0.0
 40
2.799999999999998
  1
TC11
  7
ACJISTS
  0
LINE
  5
F10
  8
250
 10
17.862919099999999
 20
-0.0000000000000001
 30
0.0
 11
29.0
 21
-0.0000000000000033
 31
0.0
  0
LINE
  5
F11
  8
250
 10
19.100000000000001
 20
9.9999999999999787
 30
0.0
 11
29.0
 21
9.9999999999999751
 31
0.0
  0
LINE
  5
F12
  8
250
 10
28.0
 20
2.2299999999999951
 30
0.0
 11
28.0
 21
7.7699999999999774
 31
0.0
  0
TEXT
  5
F18
  8
250
 10
27.0
 20
2.1333333333333262
 30
0.0
 40
2.799999999999998
  1
10
 50
90.0
  0
LINE
  5
F19
  8
250
 10
27.628333333333341
 20
7.7699999999999756
 30
0.0
 11
28.000000000000011
 21
9.9999999999999751
 31
0.0
  0
LINE
  5
F1A
  8
250
 10
28.37166666666667
 20
7.7699999999999756
 30
0.0
 11
28.000000000000011
 21
9.9999999999999751
 31
0.0
  0
LINE
  5
F1B
  8
250
 10
28.000000000000011
 20
9.9999999999999751
 30
0.0
 11
28.000000000000011
 21
7.7699999999999756
 31
0.0
  0
LINE
  5
F1C
  8
250
 10
28.371666666666659
 20
2.2299999999999951
 30
0.0
 11
28.0
 21
-0.000000000000003
 31
0.0
  0
LINE
  5
F1D
  8
250
 10
27.62833333333333
 20
2.2299999999999951
 30
0.0
 11
28.0
 21
-0.000000000000003
 31
0.0
  0
LINE
  5
F1E
  8
250
 10
28.0
 20
-0.000000000000003
 30
0.0
 11
28.0
 21
2.2299999999999951
 31
0.0
  0
VIEWPORT
  5
22
 67
     1
  8
0
 10
261.51769911999997
 20
148.5
 30
0.0
 40
523.03539823000006
 41
297.0
 68
     1
 69
     1
1001
ACAD
1000
MVIEW
1002
{
1070
    16
1010
0.0
1020
0.0
1030
0.0
1010
0.0
1020
0.0
1030
1.0
1040
0.0
1040
297.0
1040
261.51769911999997
1040
148.5
1040
50.0
1040
0.0
1040
0.0
1070
     0
1070
   100
1070
     1
1070
     1
1070
     0
1070
     0
1070
     0
1070
     0
1040
0.0
1040
0.0
1040
0.0
1040
1.0
1040
1.0
1040
10.0
1040
10.0
1070
     0
1002
{
1002
}
1002
}
1001
GENIUS_GENOBJ-N-SDF_13
1002
{
1000
OWNER
1000
GEN
1002
}
1001
GENIUS_GENODEF_13
1002
{
1000
HIER
1070
     0
1002
}
1002
{
1000
MANEDIT
1070
     0
1002
}
1002
{
1000
NOSEL
1070
     0
1002
}
1002
{
1000
BEHIND
1070
     0
1002
}
1002
{
1000
OTHER
1070
     0
1002
}
1002
{
1000
REACTOR
1002
}
1001
GENIUS_GENSCREG_15
1000
PF
1040
1.0
1000
DF
1040
1.0
1000
MIN
1011
0.0000000049999471
1021
0.0
1031
0.0
1021
0.0
1031
0.0
1000
MAX
1011
523.035398235
1021
0.0
1031
0.0
1021
297.0
1031
0.0
1000
FLAGS
1070
     4
  0
ENDSEC
  0
EOF
