  0
SECTION
  2
HEADER
  9
$ACADVER
  1
AC1009
  9
$INSBASE
 10
0.0
 20
0.0
 30
0.0
  9
$EXTMIN
 10
-7.6999999999999877
 20
-2.5999999999998091
 30
0.0
  9
$EXTMAX
 10
33.110861975681132
 20
31.0
 30
0.0
  9
$LIMMIN
 10
0.0
 20
0.0
  9
$LIMMAX
 10
297.0
 20
210.0
  9
$ORTHOMODE
 70
     1
  9
$REGENMODE
 70
     1
  9
$FILLMODE
 70
     1
  9
$QTEXTMODE
 70
     0
  9
$MIRRTEXT
 70
     1
  9
$DRAGMODE
 70
     2
  9
$LTSCALE
 40
10.0
  9
$OSMODE
 70
    63
  9
$ATTMODE
 70
     1
  9
$TEXTSIZE
 40
3.0
  9
$TRACEWID
 40
1.0
  9
$TEXTSTYLE
  7
YOKO
  9
$CLAYER
  8
241
  9
$CELTYPE
  6
BYLAYER
  9
$CECOLOR
 62
   256
  9
$DIMSCALE
 40
1.0
  9
$DIMASZ
 40
2.2299999999999991
  9
$DIMEXO
 40
0.5
  9
$DIMDLI
 40
7.0
  9
$DIMRND
 40
0.0
  9
$DIMDLE
 40
0.0
  9
$DIMEXE
 40
1.0
  9
$DIMTP
 40
0.0
  9
$DIMTM
 40
0.01
  9
$DIMTXT
 40
2.7999999999999989
  9
$DIMCEN
 40
0.0
  9
$DIMTSZ
 40
0.0
  9
$DIMTOL
 70
     0
  9
$DIMLIM
 70
     0
  9
$DIMTIH
 70
     0
  9
$DIMTOH
 70
     0
  9
$DIMSE1
 70
     0
  9
$DIMSE2
 70
     0
  9
$DIMTAD
 70
     3
  9
$DIMZIN
 70
     9
  9
$DIMBLK
  1
OPEN
  9
$DIMASO
 70
     1
  9
$DIMSHO
 70
     1
  9
$DIMPOST
  1

  9
$DIMAPOST
  1

  9
$DIMALT
 70
     0
  9
$DIMALTD
 70
     2
  9
$DIMALTF
 40
25.399999999999999
  9
$DIMLFAC
 40
1.0
  9
$DIMTOFL
 70
     1
  9
$DIMTVP
 40
0.0
  9
$DIMTIX
 70
     1
  9
$DIMSOXD
 70
     0
  9
$DIMSAH
 70
     0
  9
$DIMBLK1
  1

  9
$DIMBLK2
  1

  9
$DIMSTYLE
  2
BIGT
  9
$DIMCLRD
 70
   256
  9
$DIMCLRE
 70
   256
  9
$DIMCLRT
 70
    40
  9
$DIMTFAC
 40
1.0
  9
$DIMGAP
 40
1.0
  9
$LUNITS
 70
     2
  9
$LUPREC
 70
     6
  9
$SKETCHINC
 40
1.0
  9
$FILLETRAD
 40
0.0
  9
$AUNITS
 70
     0
  9
$AUPREC
 70
     6
  9
$MENU
  1
.
  9
$ELEVATION
 40
0.0
  9
$PELEVATION
 40
0.0
  9
$THICKNESS
 40
0.0
  9
$LIMCHECK
 70
     0
  9
$BLIPMODE
 70
     0
  9
$CHAMFERA
 40
0.2
  9
$CHAMFERB
 40
0.2
  9
$SKPOLY
 70
     0
  9
$TDCREATE
 40
2457143.7604453131
  9
$TDUPDATE
 40
2457143.780506968
  9
$TDINDWG
 40
0.0075520023
  9
$TDUSRTIMER
 40
0.0075519676
  9
$USRTIMER
 70
     1
  9
$ANGBASE
 50
0.0
  9
$ANGDIR
 70
     0
  9
$PDMODE
 70
     1
  9
$PDSIZE
 40
0.0
  9
$PLINEWID
 40
0.0
  9
$COORDS
 70
     1
  9
$SPLFRAME
 70
     0
  9
$SPLINETYPE
 70
     6
  9
$SPLINESEGS
 70
     4
  9
$ATTDIA
 70
     1
  9
$ATTREQ
 70
     1
  9
$HANDLING
 70
     1
  9
$HANDSEED
  5
47A1
  9
$SURFTAB1
 70
     6
  9
$SURFTAB2
 70
     6
  9
$SURFTYPE
 70
     6
  9
$SURFU
 70
     6
  9
$SURFV
 70
     6
  9
$UCSNAME
  2

  9
$UCSORG
 10
0.0
 20
0.0
 30
0.0
  9
$UCSXDIR
 10
1.0
 20
0.0
 30
0.0
  9
$UCSYDIR
 10
0.0
 20
1.0
 30
0.0
  9
$PUCSNAME
  2

  9
$PUCSORG
 10
0.0
 20
0.0
 30
0.0
  9
$PUCSXDIR
 10
1.0
 20
0.0
 30
0.0
  9
$PUCSYDIR
 10
0.0
 20
1.0
 30
0.0
  9
$USERI1
 70
     1
  9
$USERI2
 70
     0
  9
$USERI3
 70
     0
  9
$USERI4
 70
     0
  9
$USERI5
 70
     0
  9
$USERR1
 40
0.0
  9
$USERR2
 40
0.0
  9
$USERR3
 40
0.0
  9
$USERR4
 40
0.0
  9
$USERR5
 40
0.0
  9
$WORLDVIEW
 70
     1
  9
$SHADEDGE
 70
     3
  9
$SHADEDIF
 70
    70
  9
$TILEMODE
 70
     1
  9
$MAXACTVP
 70
    16
  9
$PLIMCHECK
 70
     0
  9
$PEXTMIN
 10
1.0000000000000000E+020
 20
1.0000000000000000E+020
 30
1.0000000000000000E+020
  9
$PEXTMAX
 10
-1.0000000000000000E+020
 20
-1.0000000000000000E+020
 30
-1.0000000000000000E+020
  9
$PLIMMIN
 10
0.0
 20
0.0
  9
$PLIMMAX
 10
420.0
 20
297.0
  9
$UNITMODE
 70
     0
  9
$VISRETAIN
 70
     1
  9
$PLINEGEN
 70
     0
  9
$PSLTSCALE
 70
     1
  0
ENDSEC
  0
SECTION
  2
TABLES
  0
TABLE
  2
VPORT
 70
     1
  0
VPORT
  2
*ACTIVE
 70
     0
 10
0.0
 20
0.0
 11
1.0
 21
1.0
 12
8.6593072377028264
 22
28.953579463145498
 13
0.0
 23
0.0
 14
7.0
 24
7.0
 15
7.0
 25
7.0
 16
0.0
 26
0.0
 36
1.0
 17
0.0
 27
0.0
 37
0.0
 40
76.038506134386552
 41
1.0634278002699049
 42
50.0
 43
0.0
 44
0.0
 50
0.0
 51
0.0
 71
     0
 72
  2000
 73
     1
 74
     0
 75
     0
 76
     1
 77
     0
 78
     0
  0
ENDTAB
  0
TABLE
  2
LTYPE
 70
    13
  0
LTYPE
  2
CONTINUOUS
 70
     0
  3
Solid line
 72
    65
 73
     0
 40
0.0
  0
LTYPE
  2
CENTER2
 70
     0
  3
___ _ ___ _ ___ _ ___ _ ___ _ ___ _ ___ _ ___ _
 72
    65
 73
     4
 40
1.125
 49
0.75
 49
-0.125
 49
0.125
 49
-0.125
  0
LTYPE
  2
HIDDEN2
 70
     0
  3
_ _ _ _ _ _ _ _ _ _ _ _ _ _ _ _ _ _ _ _ _ _ _ _
 72
    65
 73
     2
 40
0.1875
 49
0.125
 49
-0.0625
  0
LTYPE
  2
PHANTOM2
 70
     0
  3
___ _ _ ___ _ _ ___ _ _ ___ _ _ ___ _ _ ___ _ _
 72
    65
 73
     6
 40
1.25
 49
0.625
 49
-0.125
 49
0.125
 49
-0.125
 49
0.125
 49
-0.125
  0
LTYPE
  2
AM_ISO02W050
 70
     0
  3
__ __ __ __ __ __ __ __ __ __ __ __ __ __ __
 72
    65
 73
     2
 40
7.5
 49
6.0
 49
-1.5
  0
LTYPE
  2
AMCONSTR
 70
     0
  3
_______________________
 72
    65
 73
     2
 40
9999.0
 49
9999.0
 49
0.0
  0
LTYPE
  2
ACISOWELD
 70
     0
  3
_ _ _ _ _
 72
    65
 73
     2
 40
2.0
 49
2.0
 49
-1.0
  0
LTYPE
  2
ACISOTGB
 70
     0
  3
__ . . __ . .
 72
    65
 73
     6
 40
9.0
 49
4.0
 49
-1.0
 49
1.0
 49
-1.0
 49
1.0
 49
-1.0
  0
LTYPE
  2
ACISOTGL
 70
     0
  3
_ _ _ _ _
 72
    65
 73
     2
 40
3.0
 49
2.0
 49
-1.0
  0
LTYPE
  2
ACJISTGB
 70
     0
  3
__ . . __ . .
 72
    65
 73
     6
 40
9.0
 49
4.0
 49
-1.0
 49
1.0
 49
-1.0
 49
1.0
 49
-1.0
  0
LTYPE
  2
ACJISTGL
 70
     0
  3
_ _ _ _ _
 72
    65
 73
     2
 40
3.0
 49
2.0
 49
-1.0
  0
ENDTAB
  0
TABLE
  2
LAYER
 70
     7
  0
LAYER
  2
0
 70
     0
 62
     7
  6
CONTINUOUS
  0
LAYER
  2
DEFPOINTS
 70
     0
 62
     7
  6
CONTINUOUS
  0
LAYER
  2
245
 70
     0
 62
     2
  6
CENTER2
  0
LAYER
  2
240
 70
     0
 62
     4
  6
CONTINUOUS
  0
LAYER
  2
241
 70
     0
 62
   211
  6
CONTINUOUS
  0
LAYER
  2
246
 70
     0
 62
     3
  6
PHANTOM2
  0
LAYER
  2
250
 70
     0
 62
     3
  6
CONTINUOUS
  0
ENDTAB
  0
TABLE
  2
STYLE
 70
     6
  0
STYLE
  2
STANDARD
 70
     0
 40
0.0
 41
1.0
 50
0.0
 71
     0
 42
3.0
  3
romans.shx
  4
extfont.shx
  0
STYLE
  2
ACISOTS
 70
     0
 40
1.0
 41
1.0
 50
0.0
 71
     0
 42
3.0
  3
amgdt.shx
  4
extfont.shx
  0
STYLE
  2
ACISOGDT
 70
     0
 40
0.0
 41
1.0
 50
0.0
 71
     0
 42
3.0
  3
amgdt.shx
  4
extfont.shx
  0
STYLE
  2
ACJISTS
 70
     0
 40
1.0
 41
1.0
 50
0.0
 71
     0
 42
3.0
  3
amgdt.shx
  4
extfont.shx
  0
STYLE
  2
ACJISGDT
 70
     0
 40
0.0
 41
1.0
 50
0.0
 71
     0
 42
3.0
  3
amgdt.shx
  4
extfont.shx
  0
STYLE
  2
YOKO
 70
     0
 40
0.0
 41
1.0
 50
0.0
 71
     0
 42
3.0
  3
romans.shx
  4
extfont.shx
  0
ENDTAB
  0
TABLE
  2
VIEW
 70
     0
  0
ENDTAB
  0
TABLE
  2
UCS
 70
     0
  0
ENDTAB
  0
TABLE
  2
APPID
 70
    35
  0
APPID
  2
ACAD
 70
     0
  0
APPID
  2
GLOBAL
 70
     0
  0
APPID
  2
DETAIL
 70
     0
  0
APPID
  2
GRPNAME
 70
     0
  0
APPID
  2
GPARA
 70
     0
  0
APPID
  2
MCAD_NO_VIS
 70
     0
  0
APPID
  2
ACAD_TEMP_GRAPHIC
 70
     0
  0
APPID
  2
ACATTRIBSERVICES
 70
     0
  0
APPID
  2
GENIUS_GENSCREG_15
 70
     0
  0
APPID
  2
GENIUS_GENODEF_13
 70
     0
  0
APPID
  2
GENIUS_GENOBJ-N-SDF_13
 70
     0
  0
APPID
  2
GENIUS_GENREC_14
 70
     0
  0
APPID
  2
GENIUS_GENOBJ-N-REC_13
 70
     0
  0
APPID
  2
GENIUS_GENDIMSH_14
 70
     0
  0
APPID
  2
GENIUS_GENOBJ-N-DIM_13
 70
     0
  0
APPID
  2
GENIUS_GENDIM_13
 70
     0
  0
APPID
  2
GENIUS_GENDTOL_13
 70
     0
  0
APPID
  2
GENIUS_GENOLIS_13
 70
     0
  0
APPID
  2
GENIUS_GENOENT_13
 70
     0
  0
APPID
  2
GENIUS_GENOBJ-F-FEM_13
 70
     0
  0
APPID
  2
GENIUS_GENOREF_13
 70
     0
  0
APPID
  2
GENIUS_GEFFEM_13
 70
     0
  0
APPID
  2
GENIUS_GEFFEMP_13
 70
     0
  0
APPID
  2
AD_DRAW
 70
     0
  0
APPID
  2
DESIGNERASSEMBLIES
 70
     0
  0
APPID
  2
ACADM_DIM_EDIT
 70
     0
  0
APPID
  2
AMDT_DM_ADJ
 70
     0
  0
APPID
  2
ITEMNAME
 70
     0
  0
APPID
  2
GENIUS_GENOBJ-N-FIL_13
 70
     0
  0
APPID
  2
GENIUS_GENFIL_13
 70
     0
  0
APPID
  2
GENIUS_GENOBJ-N-CHA_13
 70
     0
  0
APPID
  2
ACAD_NAV_VCDISPLAY
 70
     0
  0
APPID
  2
ACAD_DSTYLE_DIMINSPECT
 70
     0
  0
APPID
  2
ACAD_EXEMPT_FROM_CAD_STANDARDS
 70
     0
  0
APPID
  2
ACAD_MLEADERVER
 70
     0
  0
ENDTAB
  0
TABLE
  2
DIMSTYLE
 70
    23
  0
DIMSTYLE
  2
BIGT
 70
     0
  3

  4

  5
OPEN
  6

  7

 40
1.0
 41
2.2299999999999991
 42
0.5
 43
7.0
 44
1.0
 45
0.0
 46
0.0
 47
0.0
 48
0.01
140
2.7999999999999989
141
0.0
142
0.0
143
25.399999999999999
144
1.0
145
0.0
146
1.0
147
1.0
 71
     0
 72
     0
 73
     0
 74
     0
 75
     0
 76
     0
 77
     3
 78
     9
170
     0
171
     2
172
     1
173
     0
174
     1
175
     0
176
   256
177
   256
178
    40
  0
DIMSTYLE
  2
AM_ISO
 70
     0
  3

  4
"
  5

  6

  7

 40
1.0
 41
2.5
 42
1.0
 43
10.0
 44
1.0
 45
0.0
 46
0.0
 47
0.1
 48
0.1
140
3.5
141
0.0
142
0.0
143
0.0393701
144
1.0
145
0.0
146
0.71
147
1.5
 71
     0
 72
     0
 73
     0
 74
     0
 75
     0
 76
     0
 77
     1
 78
     8
170
     0
171
     2
172
     1
173
     0
174
     0
175
     0
176
   256
177
   256
178
     2
  0
DIMSTYLE
  2
AM_ISO$3
 70
     0
  3

  4
"
  5

  6

  7

 40
1.0
 41
2.5
 42
1.0
 43
10.0
 44
1.0
 45
0.0
 46
0.0
 47
0.1
 48
0.1
140
3.5
141
0.0
142
0.0
143
0.0393701
144
1.0
145
0.0
146
0.71
147
1.5
 71
     0
 72
     0
 73
     0
 74
     1
 75
     0
 76
     0
 77
     1
 78
     8
170
     0
171
     2
172
     0
173
     0
174
     0
175
     0
176
   256
177
   256
178
     2
  0
DIMSTYLE
  2
AM_ISO$4
 70
     0
  3

  4
"
  5

  6

  7

 40
1.0
 41
2.5
 42
1.0
 43
10.0
 44
1.0
 45
0.0
 46
0.0
 47
0.1
 48
0.1
140
3.5
141
0.0
142
0.0
143
0.0393701
144
1.0
145
0.0
146
0.71
147
1.5
 71
     0
 72
     0
 73
     0
 74
     1
 75
     0
 76
     0
 77
     1
 78
     8
170
     0
171
     2
172
     0
173
     0
174
     0
175
     0
176
   256
177
   256
178
     2
  0
DIMSTYLE
  2
AM_ISO$6
 70
     0
  3

  4
"
  5

  6

  7

 40
1.0
 41
2.5
 42
1.0
 43
10.0
 44
1.0
 45
0.0
 46
0.0
 47
0.1
 48
0.1
140
3.5
141
0.0
142
0.0
143
0.0393701
144
1.0
145
0.0
146
0.71
147
1.5
 71
     0
 72
     0
 73
     0
 74
     0
 75
     0
 76
     0
 77
     0
 78
     8
170
     0
171
     2
172
     1
173
     0
174
     0
175
     0
176
   256
177
   256
178
     2
  0
DIMSTYLE
  2
AM_ISO$7
 70
     0
  3

  4
"
  5

  6

  7

 40
1.0
 41
2.5
 42
1.0
 43
10.0
 44
1.0
 45
0.0
 46
0.0
 47
0.1
 48
0.1
140
5.0
141
0.0
142
0.0
143
0.0393701
144
1.0
145
0.0
146
0.71
147
1.5
 71
     0
 72
     0
 73
     0
 74
     0
 75
     0
 76
     0
 77
     1
 78
     8
170
     0
171
     2
172
     1
173
     0
174
     0
175
     0
176
   256
177
   256
178
     2
  0
DIMSTYLE
  2
AM_ISO$SF
 70
     0
  3

  4
"
  5

  6

  7

 40
1.0
 41
2.5
 42
1.0
 43
10.0
 44
1.0
 45
0.0
 46
0.0
 47
0.1
 48
0.1
140
3.5
141
0.0
142
0.0
143
0.0393701
144
1.0
145
0.0
146
0.71
147
1.5
 71
     0
 72
     0
 73
     0
 74
     0
 75
     1
 76
     1
 77
     1
 78
     8
170
     0
171
     2
172
     1
173
     0
174
     0
175
     0
176
   256
177
   256
178
     2
  0
DIMSTYLE
  2
AM_ISO$SH
 70
     0
  3

  4
"
  5

  6
GENAXEH
  7

 40
1.0
 41
2.5
 42
1.0
 43
10.0
 44
1.0
 45
0.0
 46
0.0
 47
0.1
 48
0.1
140
3.5
141
0.0
142
0.0
143
0.0393701
144
2.0
145
0.0
146
0.71
147
1.5
 71
     0
 72
     0
 73
     0
 74
     0
 75
     1
 76
     1
 77
     1
 78
     8
170
     0
171
     2
172
     1
173
     1
174
     0
175
     0
176
   256
177
   256
178
     2
  0
DIMSTYLE
  2
BIGT$2
 70
     0
  3

  4

  5
OPEN
  6

  7

 40
1.0
 41
2.2299999999999991
 42
0.5
 43
7.0
 44
1.0
 45
0.0
 46
0.0
 47
0.0
 48
0.01
140
2.7999999999999989
141
0.0
142
0.0
143
25.399999999999999
144
1.0
145
0.0
146
1.0
147
1.0
 71
     0
 72
     0
 73
     0
 74
     0
 75
     0
 76
     0
 77
     3
 78
     9
170
     0
171
     2
172
     1
173
     0
174
     0
175
     0
176
   256
177
   256
178
    40
  0
DIMSTYLE
  2
BIGT$3
 70
     0
  3

  4

  5
OPEN
  6

  7

 40
1.0
 41
2.2299999999999991
 42
0.5
 43
2.5
 44
1.0
 45
0.0
 46
0.0
 47
0.0
 48
0.01
140
2.7999999999999989
141
0.0
142
0.0
143
25.399999999999999
144
1.0
145
0.0
146
1.0
147
1.0
 71
     0
 72
     0
 73
     0
 74
     0
 75
     0
 76
     0
 77
     3
 78
     9
170
     0
171
     2
172
     1
173
     0
174
     0
175
     0
176
   256
177
   256
178
    40
  0
DIMSTYLE
  2
BIGT$7
 70
     0
  3

  4

  5
OPEN
  6

  7

 40
0.0
 41
2.2299999999999991
 42
0.5
 43
7.0
 44
1.0
 45
0.0
 46
0.0
 47
0.0
 48
0.01
140
2.7999999999999989
141
0.0
142
0.0
143
25.399999999999999
144
1.0
145
0.0
146
1.0
147
1.0
 71
     0
 72
     0
 73
     0
 74
     0
 75
     0
 76
     0
 77
     3
 78
     9
170
     0
171
     2
172
     0
173
     0
174
     0
175
     0
176
   256
177
   256
178
    40
  0
DIMSTYLE
  2
BIGT$6
 70
     0
  3

  4

  5
OPEN
  6

  7

 40
1.0
 41
2.2299999999999991
 42
0.5
 43
2.5
 44
1.0
 45
0.0
 46
0.0
 47
0.0
 48
0.01
140
2.7999999999999989
141
0.0
142
0.0
143
25.399999999999999
144
1.0
145
0.0
146
1.0
147
1.0
 71
     0
 72
     0
 73
     0
 74
     0
 75
     0
 76
     0
 77
     3
 78
     9
170
     0
171
     2
172
     1
173
     0
174
     0
175
     0
176
   256
177
   256
178
    40
  0
DIMSTYLE
  2
BIGT$0
 70
     0
  3

  4

  5
OPEN
  6

  7

 40
1.0
 41
2.2299999999999991
 42
0.5
 43
7.0
 44
1.0
 45
0.0
 46
0.0
 47
0.0
 48
0.01
140
2.7999999999999989
141
0.0
142
0.0
143
25.399999999999999
144
1.0
145
0.0
146
1.0
147
1.0
 71
     0
 72
     0
 73
     0
 74
     0
 75
     0
 76
     0
 77
     3
 78
     9
170
     0
171
     2
172
     1
173
     0
174
     1
175
     0
176
   256
177
   256
178
    40
  0
DIMSTYLE
  2
BIGT$4
 70
     0
  3

  4

  5
OPEN
  6

  7

 40
1.0
 41
2.2299999999999991
 42
0.5
 43
2.5
 44
1.0
 45
0.0
 46
0.0
 47
0.0
 48
0.01
140
2.7999999999999989
141
0.0
142
0.0
143
25.399999999999999
144
1.0
145
0.0
146
1.0
147
1.0
 71
     0
 72
     0
 73
     0
 74
     0
 75
     0
 76
     0
 77
     3
 78
     9
170
     0
171
     2
172
     1
173
     0
174
     0
175
     0
176
   256
177
   256
178
    40
  0
DIMSTYLE
  2
BIGT$SH
 70
     0
  3

  4

  5
OPEN
  6

  7

 40
1.0
 41
2.2299999999999991
 42
0.5
 43
7.0
 44
1.0
 45
0.0
 46
0.0
 47
0.0
 48
0.0
140
2.7999999999999989
141
0.0
142
0.0
143
25.399999999999999
144
1.0
145
0.0
146
1.0
147
1.0
 71
     0
 72
     0
 73
     0
 74
     0
 75
     0
 76
     0
 77
     3
 78
     9
170
     0
171
     2
172
     1
173
     0
174
     0
175
     0
176
   256
177
   256
178
    40
  0
DIMSTYLE
  2
BIGT$SF
 70
     0
  3

  4

  5
OPEN
  6

  7

 40
1.0
 41
2.2299999999999991
 42
0.5
 43
7.0
 44
1.0
 45
0.0
 46
0.0
 47
0.0
 48
0.0
140
2.7999999999999989
141
0.0
142
0.0
143
25.399999999999999
144
1.0
145
0.0
146
1.0
147
1.0
 71
     0
 72
     0
 73
     0
 74
     0
 75
     0
 76
     0
 77
     3
 78
     9
170
     0
171
     2
172
     1
173
     0
174
     0
175
     0
176
   256
177
   256
178
    40
  0
DIMSTYLE
  2
TECHNICAL_OSAKA
 70
     0
  3

  4
"
  5
OPEN30
  6

  7

 40
1.0
 41
2.5
 42
1.0
 43
10.0
 44
1.0
 45
0.0
 46
0.0
 47
0.1
 48
0.1
140
2.7999999999999989
141
0.0
142
0.0
143
0.0393701
144
1.0
145
0.0
146
0.71
147
1.5
 71
     0
 72
     0
 73
     0
 74
     0
 75
     0
 76
     0
 77
     3
 78
     8
170
     0
171
     2
172
     1
173
     0
174
     0
175
     0
176
   256
177
   256
178
    40
  0
DIMSTYLE
  2
TECHNICAL_OSAKA$3
 70
     0
  3

  4
"
  5
OPEN30
  6

  7

 40
1.0
 41
2.5
 42
1.0
 43
10.0
 44
1.0
 45
0.0
 46
0.0
 47
0.1
 48
0.1
140
2.7999999999999989
141
0.0
142
0.0
143
0.0393701
144
1.0
145
0.0
146
0.71
147
1.5
 71
     0
 72
     0
 73
     0
 74
     1
 75
     0
 76
     0
 77
     3
 78
     8
170
     0
171
     2
172
     0
173
     0
174
     0
175
     0
176
   256
177
   256
178
    40
  0
DIMSTYLE
  2
TECHNICAL_OSAKA$4
 70
     0
  3

  4
"
  5
OPEN30
  6

  7

 40
1.0
 41
2.5
 42
1.0
 43
10.0
 44
1.0
 45
0.0
 46
0.0
 47
0.1
 48
0.1
140
2.7999999999999989
141
0.0
142
0.0
143
0.0393701
144
1.0
145
0.0
146
0.71
147
1.5
 71
     0
 72
     0
 73
     0
 74
     1
 75
     0
 76
     0
 77
     3
 78
     8
170
     0
171
     2
172
     0
173
     0
174
     0
175
     0
176
   256
177
   256
178
    40
  0
DIMSTYLE
  2
TECHNICAL_OSAKA$6
 70
     0
  3

  4
"
  5
OPEN30
  6

  7

 40
1.0
 41
2.5
 42
1.0
 43
10.0
 44
1.0
 45
0.0
 46
0.0
 47
0.1
 48
0.1
140
2.7999999999999989
141
0.0
142
0.0
143
0.0393701
144
1.0
145
0.0
146
0.71
147
1.5
 71
     0
 72
     0
 73
     0
 74
     0
 75
     0
 76
     0
 77
     0
 78
     8
170
     0
171
     2
172
     1
173
     0
174
     0
175
     0
176
   256
177
   256
178
    40
  0
DIMSTYLE
  2
TECHNICAL_OSAKA$7
 70
     0
  3

  4
"
  5
OPEN30
  6

  7

 40
1.0
 41
2.5
 42
1.0
 43
10.0
 44
1.0
 45
0.0
 46
0.0
 47
0.1
 48
0.1
140
2.7999999999999989
141
0.0
142
0.0
143
0.0393701
144
1.0
145
0.0
146
0.71
147
1.5
 71
     0
 72
     0
 73
     0
 74
     0
 75
     0
 76
     0
 77
     3
 78
     8
170
     0
171
     2
172
     1
173
     0
174
     0
175
     0
176
   256
177
   256
178
    40
  0
DIMSTYLE
  2
TECHNICAL_OSAKA$SF
 70
     0
  3

  4
"
  5
OPEN30
  6
OPEN30
  7
OPEN30
 40
1.0
 41
2.5
 42
1.0
 43
10.0
 44
1.0
 45
0.0
 46
0.0
 47
0.1
 48
0.1
140
3.5
141
0.0
142
0.0
143
0.0393701
144
1.0
145
0.0
146
0.71
147
1.5
 71
     0
 72
     0
 73
     0
 74
     0
 75
     1
 76
     1
 77
     3
 78
     8
170
     0
171
     2
172
     1
173
     0
174
     0
175
     0
176
   256
177
   256
178
    40
  0
DIMSTYLE
  2
TECHNICAL_OSAKA$SH
 70
     0
  3

  4
"
  5
OPEN30
  6
GENAXEH
  7
OPEN30
 40
1.0
 41
2.5
 42
1.0
 43
10.0
 44
1.0
 45
0.0
 46
0.0
 47
0.1
 48
0.1
140
3.5
141
0.0
142
0.0
143
0.0393701
144
2.0
145
0.0
146
0.71
147
1.5
 71
     0
 72
     0
 73
     0
 74
     0
 75
     1
 76
     1
 77
     3
 78
     8
170
     0
171
     2
172
     1
173
     1
174
     0
175
     0
176
   256
177
   256
178
    40
  0
ENDTAB
  0
ENDSEC
  0
SECTION
  2
BLOCKS
  0
BLOCK
  8
0
  2
$MODEL_SPACE
 70
     0
 10
0.0
 20
0.0
 30
0.0
  3
$MODEL_SPACE
  1

  0
ENDBLK
  5
1C
  8
0
  0
BLOCK
 67
     1
  8
0
  2
$PAPER_SPACE
 70
     0
 10
0.0
 20
0.0
 30
0.0
  3
$PAPER_SPACE
  1

  0
ENDBLK
  5
19
 67
     1
  8
0
  0
BLOCK
  8
0
  2
_OPEN
 70
     0
 10
0.0
 20
0.0
 30
0.0
  3
_OPEN
  1

  0
LINE
  5
44CA
  8
0
  6
BYBLOCK
 62
     0
 10
-1.0
 20
0.1666666666666666
 30
0.0
 11
0.0
 21
0.0
 31
0.0
  0
LINE
  5
44CB
  8
0
  6
BYBLOCK
 62
     0
 10
-1.0
 20
-0.1666666666666666
 30
0.0
 11
0.0
 21
0.0
 31
0.0
  0
LINE
  5
44CC
  8
0
  6
BYBLOCK
 62
     0
 10
0.0
 20
0.0
 30
0.0
 11
-1.0
 21
0.0
 31
0.0
  0
ENDBLK
  5
44CD
  8
0
  0
BLOCK
  8
0
  2
GENAXEH
 70
     0
 10
0.0
 20
0.0
 30
0.0
  3
GENAXEH
  1

  0
LINE
  5
4505
  8
0
 10
-1.0
 20
0.0
 30
0.0
 11
1.0
 21
0.0
 31
0.0
  0
ENDBLK
  5
4506
  8
0
  0
BLOCK
  8
0
  2
_OPEN30
 70
     0
 10
0.0
 20
0.0
 30
0.0
  3
_OPEN30
  1

  0
LINE
  5
4541
  8
0
  6
BYBLOCK
 62
     0
 10
-1.0
 20
0.26794919
 30
0.0
 11
0.0
 21
0.0
 31
0.0
  0
LINE
  5
4542
  8
0
  6
BYBLOCK
 62
     0
 10
0.0
 20
0.0
 30
0.0
 11
-1.0
 21
-0.26794919
 31
0.0
  0
LINE
  5
4543
  8
0
  6
BYBLOCK
 62
     0
 10
0.0
 20
0.0
 30
0.0
 11
-1.0
 21
0.0
 31
0.0
  0
ENDBLK
  5
4544
  8
0
  0
BLOCK
  8
0
  2
*U6
 70
     1
 10
0.0
 20
0.0
 30
0.0
  3
*U6
  1

  0
TEXT
  5
45B8
  8
250
 10
20.444195309014461
 20
17.798144219954811
 30
0.0
 40
2.7999999999999989
  1
TP08
  7
ACJISTS
  0
ENDBLK
  5
45BA
  8
0
  0
ENDSEC
  0
SECTION
  2
ENTITIES
  0
LINE
  5
41E8
  8
245
 10
0.0000000000000284
 20
7.7547573350706571
 30
0.0
 11
0.0
 21
-1.2656673057882619
 31
0.0
1001
GRPNAME
1000
PASTMD1D
  0
LINE
  5
41E9
  8
240
 10
4.5000000000000284
 20
6.6000000000003416
 30
0.0
 11
8.5723381690867182
 21
6.6000000000004704
 31
0.0
1001
GRPNAME
1000
PASTMD1C
  0
ARC
  5
41EA
  8
240
 10
15.20045181398735
 20
-2.099999999999532
 30
0.0
 40
0.5
 50
270.0000000000033
 51
0.0000000000016284
  0
LINE
  5
41EB
  8
240
 10
13.003332099679399
 20
-2.5999999999998091
 30
0.0
 11
8.5000000000000284
 21
0.0000000000003624
 31
0.0
1001
GRPNAME
1000
PASTMD1C
  0
LINE
  5
41EC
  8
240
 10
13.003332099679399
 20
-2.5999999999998091
 30
0.0
 11
15.199451813987389
 21
-2.599999999999532
 31
0.0
1001
GRPNAME
1000
PASTMD1C
  0
ARC
  5
41ED
  8
241
 10
13.10894793926688
 20
1.055797853829652
 30
0.0
 40
0.2000000000000104
 50
214.99999980585449
 51
334.99999980586568
1001
GRPNAME
1000
PASTMD11
  0
CIRCLE
  5
41EE
  8
246
 10
12.72894890088717
 20
5.3992067375098918
 30
0.0
 40
2.379999999999999
1001
GRPNAME
1000
PASTMD11
  0
LINE
  5
41EF
  8
240
 10
15.700451813987369
 20
-2.0999999999995178
 30
0.0
 11
15.700451813987019
 21
6.1400555310639531
 31
0.0
  0
ARC
  5
41F0
  8
241
 10
16.30045181398701
 20
7.9000000000002109
 30
0.0
 40
0.2000000000000606
 50
335.00000032008938
 51
95.000000320067102
1001
GRPNAME
1000
PASTMD11
  0
LINE
  5
41F1
  8
241
 10
6.6683956091402763
 20
6.349917124951709
 30
0.0
 11
6.6683956091406031
 21
0.0000000000004192
 31
0.0
1001
GRPNAME
1000
PASTMD1C
  0
LINE
  5
41F2
  8
241
 10
7.700000000000073
 20
6.6000000000003416
 30
0.0
 11
7.6999999999998456
 21
0.0000000000004192
 31
0.0
1001
GRPNAME
1000
PASTMD1C
  0
LINE
  5
41F3
  8
240
 10
-7.6999999999999877
 20
-0.0000000000003766
 30
0.0
 11
-2.8330629563668159
 21
-0.0000000000001279
 31
0.0
1001
GRPNAME
1000
PASTMD1D
  0
ARC
  5
41F4
  8
241
 10
5.700000000000073
 20
4.6000000000003558
 30
0.0
 40
1.9999999999999629
 50
61.040071843076831
 51
89.999999952302886
1001
GRPNAME
1000
PASTMD1C
  0
LINE
  5
41F5
  8
240
 10
8.5723381690867182
 20
6.6000000000004704
 30
0.0
 11
8.9376032557592442
 21
6.6644060898916084
 31
0.0
  0
ARC
  5
41F6
  8
241
 10
8.7774469494072331
 20
7.2418223586995722
 30
0.0
 40
0.1999999999999656
 50
95.000000165807094
 51
215.00000016582879
1001
GRPNAME
1000
PASTMD11
  0
POLYLINE
  8
240
  5
45BB
  66
     1
 10
0.000000
 20
0.000000
 30
0.000000
  70
     8
  0
VERTEX
  8
240
  5
45BC
 10
-3.36396
 20
6.36132
 30
0.000000
  70
    32
  0
VERTEX
  8
240
  5
45BD
 10
-3.32164
 20
6.35562
 30
0.000000
  70
    32
  0
VERTEX
  8
240
  5
45BE
 10
-3.27933
 20
6.34992
 30
0.000000
  70
    32
  0
VERTEX
  8
240
  5
45BF
 10
-3.23701
 20
6.34422
 30
0.000000
  70
    32
  0
VERTEX
  8
240
  5
45C0
 10
-3.19470
 20
6.33853
 30
0.000000
  70
    32
  0
VERTEX
  8
240
  5
45C1
 10
-3.15239
 20
6.33284
 30
0.000000
  70
    32
  0
VERTEX
  8
240
  5
45C2
 10
-3.11007
 20
6.32716
 30
0.000000
  70
    32
  0
VERTEX
  8
240
  5
45C3
 10
-3.06776
 20
6.32150
 30
0.000000
  70
    32
  0
VERTEX
  8
240
  5
45C4
 10
-3.02544
 20
6.31584
 30
0.000000
  70
    32
  0
VERTEX
  8
240
  5
45C5
 10
-2.98313
 20
6.31021
 30
0.000000
  70
    32
  0
VERTEX
  8
240
  5
45C6
 10
-2.94082
 20
6.30458
 30
0.000000
  70
    32
  0
VERTEX
  8
240
  5
45C7
 10
-2.89850
 20
6.29898
 30
0.000000
  70
    32
  0
VERTEX
  8
240
  5
45C8
 10
-2.85619
 20
6.29339
 30
0.000000
  70
    32
  0
VERTEX
  8
240
  5
45C9
 10
-2.81387
 20
6.28783
 30
0.000000
  70
    32
  0
VERTEX
  8
240
  5
45CA
 10
-2.77156
 20
6.28229
 30
0.000000
  70
    32
  0
VERTEX
  8
240
  5
45CB
 10
-2.72925
 20
6.27678
 30
0.000000
  70
    32
  0
VERTEX
  8
240
  5
45CC
 10
-2.68693
 20
6.27129
 30
0.000000
  70
    32
  0
VERTEX
  8
240
  5
45CD
 10
-2.64462
 20
6.26583
 30
0.000000
  70
    32
  0
VERTEX
  8
240
  5
45CE
 10
-2.60231
 20
6.26040
 30
0.000000
  70
    32
  0
VERTEX
  8
240
  5
45CF
 10
-2.55999
 20
6.25501
 30
0.000000
  70
    32
  0
VERTEX
  8
240
  5
45D0
 10
-2.51768
 20
6.24965
 30
0.000000
  70
    32
  0
VERTEX
  8
240
  5
45D1
 10
-2.47536
 20
6.24432
 30
0.000000
  70
    32
  0
VERTEX
  8
240
  5
45D2
 10
-2.43305
 20
6.23903
 30
0.000000
  70
    32
  0
VERTEX
  8
240
  5
45D3
 10
-2.39074
 20
6.23379
 30
0.000000
  70
    32
  0
VERTEX
  8
240
  5
45D4
 10
-2.34842
 20
6.22858
 30
0.000000
  70
    32
  0
VERTEX
  8
240
  5
45D5
 10
-2.30611
 20
6.22342
 30
0.000000
  70
    32
  0
VERTEX
  8
240
  5
45D6
 10
-2.26379
 20
6.21830
 30
0.000000
  70
    32
  0
VERTEX
  8
240
  5
45D7
 10
-2.22148
 20
6.21323
 30
0.000000
  70
    32
  0
VERTEX
  8
240
  5
45D8
 10
-2.17917
 20
6.20821
 30
0.000000
  70
    32
  0
VERTEX
  8
240
  5
45D9
 10
-2.13685
 20
6.20324
 30
0.000000
  70
    32
  0
VERTEX
  8
240
  5
45DA
 10
-2.09454
 20
6.19832
 30
0.000000
  70
    32
  0
VERTEX
  8
240
  5
45DB
 10
-2.05222
 20
6.19346
 30
0.000000
  70
    32
  0
VERTEX
  8
240
  5
45DC
 10
-2.00991
 20
6.18865
 30
0.000000
  70
    32
  0
VERTEX
  8
240
  5
45DD
 10
-1.96760
 20
6.18390
 30
0.000000
  70
    32
  0
VERTEX
  8
240
  5
45DE
 10
-1.92528
 20
6.17920
 30
0.000000
  70
    32
  0
VERTEX
  8
240
  5
45DF
 10
-1.88297
 20
6.17457
 30
0.000000
  70
    32
  0
VERTEX
  8
240
  5
45E0
 10
-1.84065
 20
6.17001
 30
0.000000
  70
    32
  0
VERTEX
  8
240
  5
45E1
 10
-1.79834
 20
6.16551
 30
0.000000
  70
    32
  0
VERTEX
  8
240
  5
45E2
 10
-1.75603
 20
6.16107
 30
0.000000
  70
    32
  0
VERTEX
  8
240
  5
45E3
 10
-1.71371
 20
6.15670
 30
0.000000
  70
    32
  0
VERTEX
  8
240
  5
45E4
 10
-1.67140
 20
6.15241
 30
0.000000
  70
    32
  0
VERTEX
  8
240
  5
45E5
 10
-1.62909
 20
6.14819
 30
0.000000
  70
    32
  0
VERTEX
  8
240
  5
45E6
 10
-1.58677
 20
6.14404
 30
0.000000
  70
    32
  0
VERTEX
  8
240
  5
45E7
 10
-1.54446
 20
6.13996
 30
0.000000
  70
    32
  0
VERTEX
  8
240
  5
45E8
 10
-1.50214
 20
6.13597
 30
0.000000
  70
    32
  0
VERTEX
  8
240
  5
45E9
 10
-1.45983
 20
6.13205
 30
0.000000
  70
    32
  0
VERTEX
  8
240
  5
45EA
 10
-1.41752
 20
6.12821
 30
0.000000
  70
    32
  0
VERTEX
  8
240
  5
45EB
 10
-1.37520
 20
6.12446
 30
0.000000
  70
    32
  0
VERTEX
  8
240
  5
45EC
 10
-1.33289
 20
6.12079
 30
0.000000
  70
    32
  0
VERTEX
  8
240
  5
45ED
 10
-1.29057
 20
6.11721
 30
0.000000
  70
    32
  0
VERTEX
  8
240
  5
45EE
 10
-1.24826
 20
6.11372
 30
0.000000
  70
    32
  0
VERTEX
  8
240
  5
45EF
 10
-1.20595
 20
6.11032
 30
0.000000
  70
    32
  0
VERTEX
  8
240
  5
45F0
 10
-1.16363
 20
6.10701
 30
0.000000
  70
    32
  0
VERTEX
  8
240
  5
45F1
 10
-1.12132
 20
6.10379
 30
0.000000
  70
    32
  0
VERTEX
  8
240
  5
45F2
 10
-1.07900
 20
6.10067
 30
0.000000
  70
    32
  0
VERTEX
  8
240
  5
45F3
 10
-1.03669
 20
6.09764
 30
0.000000
  70
    32
  0
VERTEX
  8
240
  5
45F4
 10
-0.994377
 20
6.09472
 30
0.000000
  70
    32
  0
VERTEX
  8
240
  5
45F5
 10
-0.952063
 20
6.09190
 30
0.000000
  70
    32
  0
VERTEX
  8
240
  5
45F6
 10
-0.909749
 20
6.08918
 30
0.000000
  70
    32
  0
VERTEX
  8
240
  5
45F7
 10
-0.867435
 20
6.08656
 30
0.000000
  70
    32
  0
VERTEX
  8
240
  5
45F8
 10
-0.825121
 20
6.08405
 30
0.000000
  70
    32
  0
VERTEX
  8
240
  5
45F9
 10
-0.782807
 20
6.08165
 30
0.000000
  70
    32
  0
VERTEX
  8
240
  5
45FA
 10
-0.740493
 20
6.07936
 30
0.000000
  70
    32
  0
VERTEX
  8
240
  5
45FB
 10
-0.698179
 20
6.07718
 30
0.000000
  70
    32
  0
VERTEX
  8
240
  5
45FC
 10
-0.655866
 20
6.07512
 30
0.000000
  70
    32
  0
VERTEX
  8
240
  5
45FD
 10
-0.613552
 20
6.07317
 30
0.000000
  70
    32
  0
VERTEX
  8
240
  5
45FE
 10
-0.571238
 20
6.07134
 30
0.000000
  70
    32
  0
VERTEX
  8
240
  5
45FF
 10
-0.528924
 20
6.06962
 30
0.000000
  70
    32
  0
VERTEX
  8
240
  5
4600
 10
-0.486610
 20
6.06803
 30
0.000000
  70
    32
  0
VERTEX
  8
240
  5
4601
 10
-0.444296
 20
6.06656
 30
0.000000
  70
    32
  0
VERTEX
  8
240
  5
4602
 10
-0.401982
 20
6.06522
 30
0.000000
  70
    32
  0
VERTEX
  8
240
  5
4603
 10
-0.359668
 20
6.06400
 30
0.000000
  70
    32
  0
VERTEX
  8
240
  5
4604
 10
-0.317354
 20
6.06291
 30
0.000000
  70
    32
  0
VERTEX
  8
240
  5
4605
 10
-0.275040
 20
6.06195
 30
0.000000
  70
    32
  0
VERTEX
  8
240
  5
4606
 10
-0.232726
 20
6.06112
 30
0.000000
  70
    32
  0
VERTEX
  8
240
  5
4607
 10
-0.190413
 20
6.06043
 30
0.000000
  70
    32
  0
VERTEX
  8
240
  5
4608
 10
-0.148099
 20
6.05987
 30
0.000000
  70
    32
  0
VERTEX
  8
240
  5
4609
 10
-0.105785
 20
6.05944
 30
0.000000
  70
    32
  0
VERTEX
  8
240
  5
460A
 10
-0.0634709
 20
6.05916
 30
0.000000
  70
    32
  0
VERTEX
  8
240
  5
460B
 10
-0.0211570
 20
6.05902
 30
0.000000
  70
    32
  0
VERTEX
  8
240
  5
460C
 10
0.0211570
 20
6.05902
 30
0.000000
  70
    32
  0
VERTEX
  8
240
  5
460D
 10
0.0634709
 20
6.05916
 30
0.000000
  70
    32
  0
VERTEX
  8
240
  5
460E
 10
0.105785
 20
6.05944
 30
0.000000
  70
    32
  0
VERTEX
  8
240
  5
460F
 10
0.148099
 20
6.05987
 30
0.000000
  70
    32
  0
VERTEX
  8
240
  5
4610
 10
0.190413
 20
6.06043
 30
0.000000
  70
    32
  0
VERTEX
  8
240
  5
4611
 10
0.232726
 20
6.06112
 30
0.000000
  70
    32
  0
VERTEX
  8
240
  5
4612
 10
0.275040
 20
6.06195
 30
0.000000
  70
    32
  0
VERTEX
  8
240
  5
4613
 10
0.317354
 20
6.06291
 30
0.000000
  70
    32
  0
VERTEX
  8
240
  5
4614
 10
0.359668
 20
6.06400
 30
0.000000
  70
    32
  0
VERTEX
  8
240
  5
4615
 10
0.401982
 20
6.06522
 30
0.000000
  70
    32
  0
VERTEX
  8
240
  5
4616
 10
0.444296
 20
6.06656
 30
0.000000
  70
    32
  0
VERTEX
  8
240
  5
4617
 10
0.486610
 20
6.06803
 30
0.000000
  70
    32
  0
VERTEX
  8
240
  5
4618
 10
0.528924
 20
6.06962
 30
0.000000
  70
    32
  0
VERTEX
  8
240
  5
4619
 10
0.571238
 20
6.07134
 30
0.000000
  70
    32
  0
VERTEX
  8
240
  5
461A
 10
0.613552
 20
6.07317
 30
0.000000
  70
    32
  0
VERTEX
  8
240
  5
461B
 10
0.655866
 20
6.07512
 30
0.000000
  70
    32
  0
VERTEX
  8
240
  5
461C
 10
0.698179
 20
6.07718
 30
0.000000
  70
    32
  0
VERTEX
  8
240
  5
461D
 10
0.740493
 20
6.07936
 30
0.000000
  70
    32
  0
VERTEX
  8
240
  5
461E
 10
0.782807
 20
6.08165
 30
0.000000
  70
    32
  0
VERTEX
  8
240
  5
461F
 10
0.825121
 20
6.08405
 30
0.000000
  70
    32
  0
VERTEX
  8
240
  5
4620
 10
0.867435
 20
6.08656
 30
0.000000
  70
    32
  0
VERTEX
  8
240
  5
4621
 10
0.909749
 20
6.08918
 30
0.000000
  70
    32
  0
VERTEX
  8
240
  5
4622
 10
0.952063
 20
6.09190
 30
0.000000
  70
    32
  0
VERTEX
  8
240
  5
4623
 10
0.994377
 20
6.09472
 30
0.000000
  70
    32
  0
VERTEX
  8
240
  5
4624
 10
1.03669
 20
6.09764
 30
0.000000
  70
    32
  0
VERTEX
  8
240
  5
4625
 10
1.07900
 20
6.10067
 30
0.000000
  70
    32
  0
VERTEX
  8
240
  5
4626
 10
1.12132
 20
6.10379
 30
0.000000
  70
    32
  0
VERTEX
  8
240
  5
4627
 10
1.16363
 20
6.10701
 30
0.000000
  70
    32
  0
VERTEX
  8
240
  5
4628
 10
1.20595
 20
6.11032
 30
0.000000
  70
    32
  0
VERTEX
  8
240
  5
4629
 10
1.24826
 20
6.11372
 30
0.000000
  70
    32
  0
VERTEX
  8
240
  5
462A
 10
1.29057
 20
6.11721
 30
0.000000
  70
    32
  0
VERTEX
  8
240
  5
462B
 10
1.33289
 20
6.12079
 30
0.000000
  70
    32
  0
VERTEX
  8
240
  5
462C
 10
1.37520
 20
6.12446
 30
0.000000
  70
    32
  0
VERTEX
  8
240
  5
462D
 10
1.41752
 20
6.12821
 30
0.000000
  70
    32
  0
VERTEX
  8
240
  5
462E
 10
1.45983
 20
6.13205
 30
0.000000
  70
    32
  0
VERTEX
  8
240
  5
462F
 10
1.50214
 20
6.13597
 30
0.000000
  70
    32
  0
VERTEX
  8
240
  5
4630
 10
1.54446
 20
6.13996
 30
0.000000
  70
    32
  0
VERTEX
  8
240
  5
4631
 10
1.58677
 20
6.14404
 30
0.000000
  70
    32
  0
VERTEX
  8
240
  5
4632
 10
1.62909
 20
6.14819
 30
0.000000
  70
    32
  0
VERTEX
  8
240
  5
4633
 10
1.67140
 20
6.15241
 30
0.000000
  70
    32
  0
VERTEX
  8
240
  5
4634
 10
1.71371
 20
6.15670
 30
0.000000
  70
    32
  0
VERTEX
  8
240
  5
4635
 10
1.75603
 20
6.16107
 30
0.000000
  70
    32
  0
VERTEX
  8
240
  5
4636
 10
1.79834
 20
6.16551
 30
0.000000
  70
    32
  0
VERTEX
  8
240
  5
4637
 10
1.84065
 20
6.17001
 30
0.000000
  70
    32
  0
VERTEX
  8
240
  5
4638
 10
1.88297
 20
6.17457
 30
0.000000
  70
    32
  0
VERTEX
  8
240
  5
4639
 10
1.92528
 20
6.17920
 30
0.000000
  70
    32
  0
VERTEX
  8
240
  5
463A
 10
1.96760
 20
6.18390
 30
0.000000
  70
    32
  0
VERTEX
  8
240
  5
463B
 10
2.00991
 20
6.18865
 30
0.000000
  70
    32
  0
VERTEX
  8
240
  5
463C
 10
2.05222
 20
6.19346
 30
0.000000
  70
    32
  0
VERTEX
  8
240
  5
463D
 10
2.09454
 20
6.19832
 30
0.000000
  70
    32
  0
VERTEX
  8
240
  5
463E
 10
2.13685
 20
6.20324
 30
0.000000
  70
    32
  0
VERTEX
  8
240
  5
463F
 10
2.17917
 20
6.20821
 30
0.000000
  70
    32
  0
VERTEX
  8
240
  5
4640
 10
2.22148
 20
6.21323
 30
0.000000
  70
    32
  0
VERTEX
  8
240
  5
4641
 10
2.26379
 20
6.21830
 30
0.000000
  70
    32
  0
VERTEX
  8
240
  5
4642
 10
2.30611
 20
6.22342
 30
0.000000
  70
    32
  0
VERTEX
  8
240
  5
4643
 10
2.34842
 20
6.22858
 30
0.000000
  70
    32
  0
VERTEX
  8
240
  5
4644
 10
2.39074
 20
6.23379
 30
0.000000
  70
    32
  0
VERTEX
  8
240
  5
4645
 10
2.43305
 20
6.23903
 30
0.000000
  70
    32
  0
VERTEX
  8
240
  5
4646
 10
2.47536
 20
6.24432
 30
0.000000
  70
    32
  0
VERTEX
  8
240
  5
4647
 10
2.51768
 20
6.24965
 30
0.000000
  70
    32
  0
VERTEX
  8
240
  5
4648
 10
2.55999
 20
6.25501
 30
0.000000
  70
    32
  0
VERTEX
  8
240
  5
4649
 10
2.60231
 20
6.26040
 30
0.000000
  70
    32
  0
VERTEX
  8
240
  5
464A
 10
2.64462
 20
6.26583
 30
0.000000
  70
    32
  0
VERTEX
  8
240
  5
464B
 10
2.68693
 20
6.27129
 30
0.000000
  70
    32
  0
VERTEX
  8
240
  5
464C
 10
2.72925
 20
6.27678
 30
0.000000
  70
    32
  0
VERTEX
  8
240
  5
464D
 10
2.77156
 20
6.28229
 30
0.000000
  70
    32
  0
VERTEX
  8
240
  5
464E
 10
2.81387
 20
6.28783
 30
0.000000
  70
    32
  0
VERTEX
  8
240
  5
464F
 10
2.85619
 20
6.29339
 30
0.000000
  70
    32
  0
VERTEX
  8
240
  5
4650
 10
2.89850
 20
6.29898
 30
0.000000
  70
    32
  0
VERTEX
  8
240
  5
4651
 10
2.94082
 20
6.30458
 30
0.000000
  70
    32
  0
VERTEX
  8
240
  5
4652
 10
2.98313
 20
6.31021
 30
0.000000
  70
    32
  0
VERTEX
  8
240
  5
4653
 10
3.02544
 20
6.31584
 30
0.000000
  70
    32
  0
VERTEX
  8
240
  5
4654
 10
3.06776
 20
6.32150
 30
0.000000
  70
    32
  0
VERTEX
  8
240
  5
4655
 10
3.11007
 20
6.32716
 30
0.000000
  70
    32
  0
VERTEX
  8
240
  5
4656
 10
3.15239
 20
6.33284
 30
0.000000
  70
    32
  0
VERTEX
  8
240
  5
4657
 10
3.19470
 20
6.33853
 30
0.000000
  70
    32
  0
VERTEX
  8
240
  5
4658
 10
3.23701
 20
6.34422
 30
0.000000
  70
    32
  0
VERTEX
  8
240
  5
4659
 10
3.27933
 20
6.34992
 30
0.000000
  70
    32
  0
VERTEX
  8
240
  5
465A
 10
3.32164
 20
6.35562
 30
0.000000
  70
    32
  0
VERTEX
  8
240
  5
465B
 10
3.36396
 20
6.36132
 30
0.000000
  70
    32
  0
SEQEND
  8
240
  5
465C
  0
POLYLINE
  8
240
  5
465D
  66
     1
 10
0.000000
 20
0.000000
 30
0.000000
  70
     8
  0
VERTEX
  8
240
  5
465E
 10
3.36396
 20
6.36132
 30
0.000000
  70
    32
  0
VERTEX
  8
240
  5
465F
 10
3.37113
 20
6.36267
 30
0.000000
  70
    32
  0
VERTEX
  8
240
  5
4660
 10
3.37831
 20
6.36401
 30
0.000000
  70
    32
  0
VERTEX
  8
240
  5
4661
 10
3.38549
 20
6.36536
 30
0.000000
  70
    32
  0
VERTEX
  8
240
  5
4662
 10
3.39267
 20
6.36671
 30
0.000000
  70
    32
  0
VERTEX
  8
240
  5
4663
 10
3.39984
 20
6.36805
 30
0.000000
  70
    32
  0
VERTEX
  8
240
  5
4664
 10
3.40702
 20
6.36940
 30
0.000000
  70
    32
  0
VERTEX
  8
240
  5
4665
 10
3.41420
 20
6.37074
 30
0.000000
  70
    32
  0
VERTEX
  8
240
  5
4666
 10
3.42138
 20
6.37209
 30
0.000000
  70
    32
  0
VERTEX
  8
240
  5
4667
 10
3.42855
 20
6.37344
 30
0.000000
  70
    32
  0
VERTEX
  8
240
  5
4668
 10
3.43573
 20
6.37478
 30
0.000000
  70
    32
  0
VERTEX
  8
240
  5
4669
 10
3.44291
 20
6.37613
 30
0.000000
  70
    32
  0
VERTEX
  8
240
  5
466A
 10
3.45008
 20
6.37748
 30
0.000000
  70
    32
  0
VERTEX
  8
240
  5
466B
 10
3.45726
 20
6.37883
 30
0.000000
  70
    32
  0
VERTEX
  8
240
  5
466C
 10
3.46444
 20
6.38018
 30
0.000000
  70
    32
  0
VERTEX
  8
240
  5
466D
 10
3.47162
 20
6.38153
 30
0.000000
  70
    32
  0
VERTEX
  8
240
  5
466E
 10
3.47879
 20
6.38288
 30
0.000000
  70
    32
  0
VERTEX
  8
240
  5
466F
 10
3.48597
 20
6.38423
 30
0.000000
  70
    32
  0
VERTEX
  8
240
  5
4670
 10
3.49314
 20
6.38559
 30
0.000000
  70
    32
  0
VERTEX
  8
240
  5
4671
 10
3.50032
 20
6.38694
 30
0.000000
  70
    32
  0
VERTEX
  8
240
  5
4672
 10
3.50750
 20
6.38829
 30
0.000000
  70
    32
  0
VERTEX
  8
240
  5
4673
 10
3.51467
 20
6.38965
 30
0.000000
  70
    32
  0
VERTEX
  8
240
  5
4674
 10
3.52185
 20
6.39101
 30
0.000000
  70
    32
  0
VERTEX
  8
240
  5
4675
 10
3.52902
 20
6.39236
 30
0.000000
  70
    32
  0
VERTEX
  8
240
  5
4676
 10
3.53620
 20
6.39372
 30
0.000000
  70
    32
  0
VERTEX
  8
240
  5
4677
 10
3.54337
 20
6.39508
 30
0.000000
  70
    32
  0
VERTEX
  8
240
  5
4678
 10
3.55055
 20
6.39644
 30
0.000000
  70
    32
  0
VERTEX
  8
240
  5
4679
 10
3.55772
 20
6.39781
 30
0.000000
  70
    32
  0
VERTEX
  8
240
  5
467A
 10
3.56489
 20
6.39917
 30
0.000000
  70
    32
  0
VERTEX
  8
240
  5
467B
 10
3.57207
 20
6.40054
 30
0.000000
  70
    32
  0
VERTEX
  8
240
  5
467C
 10
3.57924
 20
6.40190
 30
0.000000
  70
    32
  0
VERTEX
  8
240
  5
467D
 10
3.58641
 20
6.40327
 30
0.000000
  70
    32
  0
VERTEX
  8
240
  5
467E
 10
3.59358
 20
6.40464
 30
0.000000
  70
    32
  0
VERTEX
  8
240
  5
467F
 10
3.60076
 20
6.40601
 30
0.000000
  70
    32
  0
VERTEX
  8
240
  5
4680
 10
3.60793
 20
6.40738
 30
0.000000
  70
    32
  0
VERTEX
  8
240
  5
4681
 10
3.61510
 20
6.40876
 30
0.000000
  70
    32
  0
VERTEX
  8
240
  5
4682
 10
3.62227
 20
6.41014
 30
0.000000
  70
    32
  0
VERTEX
  8
240
  5
4683
 10
3.62944
 20
6.41151
 30
0.000000
  70
    32
  0
VERTEX
  8
240
  5
4684
 10
3.63661
 20
6.41289
 30
0.000000
  70
    32
  0
VERTEX
  8
240
  5
4685
 10
3.64378
 20
6.41427
 30
0.000000
  70
    32
  0
VERTEX
  8
240
  5
4686
 10
3.65095
 20
6.41566
 30
0.000000
  70
    32
  0
VERTEX
  8
240
  5
4687
 10
3.65812
 20
6.41704
 30
0.000000
  70
    32
  0
VERTEX
  8
240
  5
4688
 10
3.66529
 20
6.41843
 30
0.000000
  70
    32
  0
VERTEX
  8
240
  5
4689
 10
3.67246
 20
6.41982
 30
0.000000
  70
    32
  0
VERTEX
  8
240
  5
468A
 10
3.67963
 20
6.42121
 30
0.000000
  70
    32
  0
VERTEX
  8
240
  5
468B
 10
3.68679
 20
6.42261
 30
0.000000
  70
    32
  0
VERTEX
  8
240
  5
468C
 10
3.69396
 20
6.42400
 30
0.000000
  70
    32
  0
VERTEX
  8
240
  5
468D
 10
3.70113
 20
6.42540
 30
0.000000
  70
    32
  0
VERTEX
  8
240
  5
468E
 10
3.70829
 20
6.42680
 30
0.000000
  70
    32
  0
VERTEX
  8
240
  5
468F
 10
3.71546
 20
6.42821
 30
0.000000
  70
    32
  0
VERTEX
  8
240
  5
4690
 10
3.72262
 20
6.42961
 30
0.000000
  70
    32
  0
VERTEX
  8
240
  5
4691
 10
3.72979
 20
6.43102
 30
0.000000
  70
    32
  0
VERTEX
  8
240
  5
4692
 10
3.73695
 20
6.43243
 30
0.000000
  70
    32
  0
VERTEX
  8
240
  5
4693
 10
3.74412
 20
6.43385
 30
0.000000
  70
    32
  0
VERTEX
  8
240
  5
4694
 10
3.75128
 20
6.43526
 30
0.000000
  70
    32
  0
VERTEX
  8
240
  5
4695
 10
3.75844
 20
6.43668
 30
0.000000
  70
    32
  0
VERTEX
  8
240
  5
4696
 10
3.76560
 20
6.43810
 30
0.000000
  70
    32
  0
VERTEX
  8
240
  5
4697
 10
3.77276
 20
6.43953
 30
0.000000
  70
    32
  0
VERTEX
  8
240
  5
4698
 10
3.77992
 20
6.44095
 30
0.000000
  70
    32
  0
VERTEX
  8
240
  5
4699
 10
3.78708
 20
6.44238
 30
0.000000
  70
    32
  0
VERTEX
  8
240
  5
469A
 10
3.79424
 20
6.44381
 30
0.000000
  70
    32
  0
VERTEX
  8
240
  5
469B
 10
3.80140
 20
6.44525
 30
0.000000
  70
    32
  0
VERTEX
  8
240
  5
469C
 10
3.80856
 20
6.44669
 30
0.000000
  70
    32
  0
VERTEX
  8
240
  5
469D
 10
3.81572
 20
6.44813
 30
0.000000
  70
    32
  0
VERTEX
  8
240
  5
469E
 10
3.82287
 20
6.44958
 30
0.000000
  70
    32
  0
VERTEX
  8
240
  5
469F
 10
3.83003
 20
6.45102
 30
0.000000
  70
    32
  0
VERTEX
  8
240
  5
46A0
 10
3.83719
 20
6.45248
 30
0.000000
  70
    32
  0
VERTEX
  8
240
  5
46A1
 10
3.84434
 20
6.45393
 30
0.000000
  70
    32
  0
VERTEX
  8
240
  5
46A2
 10
3.85149
 20
6.45539
 30
0.000000
  70
    32
  0
VERTEX
  8
240
  5
46A3
 10
3.85865
 20
6.45685
 30
0.000000
  70
    32
  0
VERTEX
  8
240
  5
46A4
 10
3.86580
 20
6.45831
 30
0.000000
  70
    32
  0
VERTEX
  8
240
  5
46A5
 10
3.87295
 20
6.45978
 30
0.000000
  70
    32
  0
VERTEX
  8
240
  5
46A6
 10
3.88010
 20
6.46125
 30
0.000000
  70
    32
  0
VERTEX
  8
240
  5
46A7
 10
3.88725
 20
6.46273
 30
0.000000
  70
    32
  0
VERTEX
  8
240
  5
46A8
 10
3.89440
 20
6.46421
 30
0.000000
  70
    32
  0
VERTEX
  8
240
  5
46A9
 10
3.90155
 20
6.46569
 30
0.000000
  70
    32
  0
VERTEX
  8
240
  5
46AA
 10
3.90870
 20
6.46718
 30
0.000000
  70
    32
  0
VERTEX
  8
240
  5
46AB
 10
3.91585
 20
6.46867
 30
0.000000
  70
    32
  0
VERTEX
  8
240
  5
46AC
 10
3.92299
 20
6.47016
 30
0.000000
  70
    32
  0
VERTEX
  8
240
  5
46AD
 10
3.93014
 20
6.47166
 30
0.000000
  70
    32
  0
VERTEX
  8
240
  5
46AE
 10
3.93728
 20
6.47316
 30
0.000000
  70
    32
  0
VERTEX
  8
240
  5
46AF
 10
3.94443
 20
6.47466
 30
0.000000
  70
    32
  0
VERTEX
  8
240
  5
46B0
 10
3.95157
 20
6.47617
 30
0.000000
  70
    32
  0
VERTEX
  8
240
  5
46B1
 10
3.95871
 20
6.47768
 30
0.000000
  70
    32
  0
VERTEX
  8
240
  5
46B2
 10
3.96586
 20
6.47920
 30
0.000000
  70
    32
  0
VERTEX
  8
240
  5
46B3
 10
3.97300
 20
6.48072
 30
0.000000
  70
    32
  0
VERTEX
  8
240
  5
46B4
 10
3.98014
 20
6.48225
 30
0.000000
  70
    32
  0
VERTEX
  8
240
  5
46B5
 10
3.98728
 20
6.48377
 30
0.000000
  70
    32
  0
VERTEX
  8
240
  5
46B6
 10
3.99441
 20
6.48530
 30
0.000000
  70
    32
  0
VERTEX
  8
240
  5
46B7
 10
4.00155
 20
6.48684
 30
0.000000
  70
    32
  0
VERTEX
  8
240
  5
46B8
 10
4.00869
 20
6.48838
 30
0.000000
  70
    32
  0
VERTEX
  8
240
  5
46B9
 10
4.01583
 20
6.48992
 30
0.000000
  70
    32
  0
VERTEX
  8
240
  5
46BA
 10
4.02296
 20
6.49146
 30
0.000000
  70
    32
  0
VERTEX
  8
240
  5
46BB
 10
4.03010
 20
6.49301
 30
0.000000
  70
    32
  0
VERTEX
  8
240
  5
46BC
 10
4.03723
 20
6.49456
 30
0.000000
  70
    32
  0
VERTEX
  8
240
  5
46BD
 10
4.04437
 20
6.49612
 30
0.000000
  70
    32
  0
VERTEX
  8
240
  5
46BE
 10
4.05150
 20
6.49767
 30
0.000000
  70
    32
  0
VERTEX
  8
240
  5
46BF
 10
4.05863
 20
6.49924
 30
0.000000
  70
    32
  0
VERTEX
  8
240
  5
46C0
 10
4.06576
 20
6.50080
 30
0.000000
  70
    32
  0
VERTEX
  8
240
  5
46C1
 10
4.07289
 20
6.50237
 30
0.000000
  70
    32
  0
VERTEX
  8
240
  5
46C2
 10
4.08002
 20
6.50394
 30
0.000000
  70
    32
  0
VERTEX
  8
240
  5
46C3
 10
4.08715
 20
6.50551
 30
0.000000
  70
    32
  0
VERTEX
  8
240
  5
46C4
 10
4.09428
 20
6.50708
 30
0.000000
  70
    32
  0
VERTEX
  8
240
  5
46C5
 10
4.10141
 20
6.50866
 30
0.000000
  70
    32
  0
VERTEX
  8
240
  5
46C6
 10
4.10854
 20
6.51024
 30
0.000000
  70
    32
  0
VERTEX
  8
240
  5
46C7
 10
4.11567
 20
6.51183
 30
0.000000
  70
    32
  0
VERTEX
  8
240
  5
46C8
 10
4.12279
 20
6.51341
 30
0.000000
  70
    32
  0
VERTEX
  8
240
  5
46C9
 10
4.12992
 20
6.51500
 30
0.000000
  70
    32
  0
VERTEX
  8
240
  5
46CA
 10
4.13705
 20
6.51659
 30
0.000000
  70
    32
  0
VERTEX
  8
240
  5
46CB
 10
4.14417
 20
6.51819
 30
0.000000
  70
    32
  0
VERTEX
  8
240
  5
46CC
 10
4.15130
 20
6.51978
 30
0.000000
  70
    32
  0
VERTEX
  8
240
  5
46CD
 10
4.15842
 20
6.52138
 30
0.000000
  70
    32
  0
VERTEX
  8
240
  5
46CE
 10
4.16555
 20
6.52298
 30
0.000000
  70
    32
  0
VERTEX
  8
240
  5
46CF
 10
4.17267
 20
6.52459
 30
0.000000
  70
    32
  0
VERTEX
  8
240
  5
46D0
 10
4.17979
 20
6.52619
 30
0.000000
  70
    32
  0
VERTEX
  8
240
  5
46D1
 10
4.18691
 20
6.52780
 30
0.000000
  70
    32
  0
VERTEX
  8
240
  5
46D2
 10
4.19404
 20
6.52941
 30
0.000000
  70
    32
  0
VERTEX
  8
240
  5
46D3
 10
4.20116
 20
6.53102
 30
0.000000
  70
    32
  0
VERTEX
  8
240
  5
46D4
 10
4.20828
 20
6.53264
 30
0.000000
  70
    32
  0
VERTEX
  8
240
  5
46D5
 10
4.21540
 20
6.53426
 30
0.000000
  70
    32
  0
VERTEX
  8
240
  5
46D6
 10
4.22252
 20
6.53587
 30
0.000000
  70
    32
  0
VERTEX
  8
240
  5
46D7
 10
4.22964
 20
6.53749
 30
0.000000
  70
    32
  0
VERTEX
  8
240
  5
46D8
 10
4.23676
 20
6.53912
 30
0.000000
  70
    32
  0
VERTEX
  8
240
  5
46D9
 10
4.24388
 20
6.54074
 30
0.000000
  70
    32
  0
VERTEX
  8
240
  5
46DA
 10
4.25100
 20
6.54237
 30
0.000000
  70
    32
  0
VERTEX
  8
240
  5
46DB
 10
4.25812
 20
6.54399
 30
0.000000
  70
    32
  0
VERTEX
  8
240
  5
46DC
 10
4.26523
 20
6.54562
 30
0.000000
  70
    32
  0
VERTEX
  8
240
  5
46DD
 10
4.27235
 20
6.54725
 30
0.000000
  70
    32
  0
VERTEX
  8
240
  5
46DE
 10
4.27947
 20
6.54889
 30
0.000000
  70
    32
  0
VERTEX
  8
240
  5
46DF
 10
4.28659
 20
6.55052
 30
0.000000
  70
    32
  0
VERTEX
  8
240
  5
46E0
 10
4.29370
 20
6.55216
 30
0.000000
  70
    32
  0
VERTEX
  8
240
  5
46E1
 10
4.30082
 20
6.55379
 30
0.000000
  70
    32
  0
VERTEX
  8
240
  5
46E2
 10
4.30794
 20
6.55543
 30
0.000000
  70
    32
  0
VERTEX
  8
240
  5
46E3
 10
4.31505
 20
6.55707
 30
0.000000
  70
    32
  0
VERTEX
  8
240
  5
46E4
 10
4.32217
 20
6.55871
 30
0.000000
  70
    32
  0
VERTEX
  8
240
  5
46E5
 10
4.32928
 20
6.56035
 30
0.000000
  70
    32
  0
VERTEX
  8
240
  5
46E6
 10
4.33640
 20
6.56200
 30
0.000000
  70
    32
  0
VERTEX
  8
240
  5
46E7
 10
4.34351
 20
6.56364
 30
0.000000
  70
    32
  0
VERTEX
  8
240
  5
46E8
 10
4.35063
 20
6.56528
 30
0.000000
  70
    32
  0
VERTEX
  8
240
  5
46E9
 10
4.35774
 20
6.56693
 30
0.000000
  70
    32
  0
VERTEX
  8
240
  5
46EA
 10
4.36486
 20
6.56858
 30
0.000000
  70
    32
  0
VERTEX
  8
240
  5
46EB
 10
4.37197
 20
6.57023
 30
0.000000
  70
    32
  0
VERTEX
  8
240
  5
46EC
 10
4.37908
 20
6.57188
 30
0.000000
  70
    32
  0
VERTEX
  8
240
  5
46ED
 10
4.38620
 20
6.57353
 30
0.000000
  70
    32
  0
VERTEX
  8
240
  5
46EE
 10
4.39331
 20
6.57518
 30
0.000000
  70
    32
  0
VERTEX
  8
240
  5
46EF
 10
4.40042
 20
6.57683
 30
0.000000
  70
    32
  0
VERTEX
  8
240
  5
46F0
 10
4.40754
 20
6.57848
 30
0.000000
  70
    32
  0
VERTEX
  8
240
  5
46F1
 10
4.41465
 20
6.58013
 30
0.000000
  70
    32
  0
VERTEX
  8
240
  5
46F2
 10
4.42176
 20
6.58179
 30
0.000000
  70
    32
  0
VERTEX
  8
240
  5
46F3
 10
4.42888
 20
6.58344
 30
0.000000
  70
    32
  0
VERTEX
  8
240
  5
46F4
 10
4.43599
 20
6.58510
 30
0.000000
  70
    32
  0
VERTEX
  8
240
  5
46F5
 10
4.44310
 20
6.58675
 30
0.000000
  70
    32
  0
VERTEX
  8
240
  5
46F6
 10
4.45021
 20
6.58841
 30
0.000000
  70
    32
  0
VERTEX
  8
240
  5
46F7
 10
4.45733
 20
6.59006
 30
0.000000
  70
    32
  0
VERTEX
  8
240
  5
46F8
 10
4.46444
 20
6.59172
 30
0.000000
  70
    32
  0
VERTEX
  8
240
  5
46F9
 10
4.47155
 20
6.59337
 30
0.000000
  70
    32
  0
VERTEX
  8
240
  5
46FA
 10
4.47866
 20
6.59503
 30
0.000000
  70
    32
  0
VERTEX
  8
240
  5
46FB
 10
4.48578
 20
6.59669
 30
0.000000
  70
    32
  0
VERTEX
  8
240
  5
46FC
 10
4.49289
 20
6.59834
 30
0.000000
  70
    32
  0
VERTEX
  8
240
  5
46FD
 10
4.50000
 20
6.60000
 30
0.000000
  70
    32
  0
SEQEND
  8
240
  5
46FE
  0
LINE
  5
41F9
  8
240
 10
-7.6999999999999034
 20
0.0000000000003624
 30
0.0
 11
-7.6999999999999034
 21
4.6000000000003416
 31
0.0
1001
GRPNAME
1000
PASTMD1C
  0
ARC
  5
41FA
  8
240
 10
-5.6999999999999034
 20
4.6000000000003558
 30
0.0
 40
2.0
 50
89.999999992284415
 51
179.9999999922828
1001
GRPNAME
1000
PASTMD1C
  0
POLYLINE
  8
240
  5
46FF
  66
     1
 10
0.000000
 20
0.000000
 30
0.000000
  70
     8
  0
VERTEX
  8
240
  5
4700
 10
-4.50000
 20
6.60000
 30
0.000000
  70
    32
  0
VERTEX
  8
240
  5
4701
 10
-4.49289
 20
6.59834
 30
0.000000
  70
    32
  0
VERTEX
  8
240
  5
4702
 10
-4.48578
 20
6.59669
 30
0.000000
  70
    32
  0
VERTEX
  8
240
  5
4703
 10
-4.47866
 20
6.59503
 30
0.000000
  70
    32
  0
VERTEX
  8
240
  5
4704
 10
-4.47155
 20
6.59337
 30
0.000000
  70
    32
  0
VERTEX
  8
240
  5
4705
 10
-4.46444
 20
6.59172
 30
0.000000
  70
    32
  0
VERTEX
  8
240
  5
4706
 10
-4.45733
 20
6.59006
 30
0.000000
  70
    32
  0
VERTEX
  8
240
  5
4707
 10
-4.45021
 20
6.58841
 30
0.000000
  70
    32
  0
VERTEX
  8
240
  5
4708
 10
-4.44310
 20
6.58675
 30
0.000000
  70
    32
  0
VERTEX
  8
240
  5
4709
 10
-4.43599
 20
6.58510
 30
0.000000
  70
    32
  0
VERTEX
  8
240
  5
470A
 10
-4.42888
 20
6.58344
 30
0.000000
  70
    32
  0
VERTEX
  8
240
  5
470B
 10
-4.42176
 20
6.58179
 30
0.000000
  70
    32
  0
VERTEX
  8
240
  5
470C
 10
-4.41465
 20
6.58013
 30
0.000000
  70
    32
  0
VERTEX
  8
240
  5
470D
 10
-4.40754
 20
6.57848
 30
0.000000
  70
    32
  0
VERTEX
  8
240
  5
470E
 10
-4.40042
 20
6.57683
 30
0.000000
  70
    32
  0
VERTEX
  8
240
  5
470F
 10
-4.39331
 20
6.57518
 30
0.000000
  70
    32
  0
VERTEX
  8
240
  5
4710
 10
-4.38620
 20
6.57353
 30
0.000000
  70
    32
  0
VERTEX
  8
240
  5
4711
 10
-4.37908
 20
6.57188
 30
0.000000
  70
    32
  0
VERTEX
  8
240
  5
4712
 10
-4.37197
 20
6.57023
 30
0.000000
  70
    32
  0
VERTEX
  8
240
  5
4713
 10
-4.36486
 20
6.56858
 30
0.000000
  70
    32
  0
VERTEX
  8
240
  5
4714
 10
-4.35774
 20
6.56693
 30
0.000000
  70
    32
  0
VERTEX
  8
240
  5
4715
 10
-4.35063
 20
6.56528
 30
0.000000
  70
    32
  0
VERTEX
  8
240
  5
4716
 10
-4.34351
 20
6.56364
 30
0.000000
  70
    32
  0
VERTEX
  8
240
  5
4717
 10
-4.33640
 20
6.56200
 30
0.000000
  70
    32
  0
VERTEX
  8
240
  5
4718
 10
-4.32928
 20
6.56035
 30
0.000000
  70
    32
  0
VERTEX
  8
240
  5
4719
 10
-4.32217
 20
6.55871
 30
0.000000
  70
    32
  0
VERTEX
  8
240
  5
471A
 10
-4.31505
 20
6.55707
 30
0.000000
  70
    32
  0
VERTEX
  8
240
  5
471B
 10
-4.30794
 20
6.55543
 30
0.000000
  70
    32
  0
VERTEX
  8
240
  5
471C
 10
-4.30082
 20
6.55379
 30
0.000000
  70
    32
  0
VERTEX
  8
240
  5
471D
 10
-4.29370
 20
6.55216
 30
0.000000
  70
    32
  0
VERTEX
  8
240
  5
471E
 10
-4.28659
 20
6.55052
 30
0.000000
  70
    32
  0
VERTEX
  8
240
  5
471F
 10
-4.27947
 20
6.54889
 30
0.000000
  70
    32
  0
VERTEX
  8
240
  5
4720
 10
-4.27235
 20
6.54725
 30
0.000000
  70
    32
  0
VERTEX
  8
240
  5
4721
 10
-4.26523
 20
6.54562
 30
0.000000
  70
    32
  0
VERTEX
  8
240
  5
4722
 10
-4.25812
 20
6.54399
 30
0.000000
  70
    32
  0
VERTEX
  8
240
  5
4723
 10
-4.25100
 20
6.54237
 30
0.000000
  70
    32
  0
VERTEX
  8
240
  5
4724
 10
-4.24388
 20
6.54074
 30
0.000000
  70
    32
  0
VERTEX
  8
240
  5
4725
 10
-4.23676
 20
6.53912
 30
0.000000
  70
    32
  0
VERTEX
  8
240
  5
4726
 10
-4.22964
 20
6.53749
 30
0.000000
  70
    32
  0
VERTEX
  8
240
  5
4727
 10
-4.22252
 20
6.53587
 30
0.000000
  70
    32
  0
VERTEX
  8
240
  5
4728
 10
-4.21540
 20
6.53426
 30
0.000000
  70
    32
  0
VERTEX
  8
240
  5
4729
 10
-4.20828
 20
6.53264
 30
0.000000
  70
    32
  0
VERTEX
  8
240
  5
472A
 10
-4.20116
 20
6.53102
 30
0.000000
  70
    32
  0
VERTEX
  8
240
  5
472B
 10
-4.19404
 20
6.52941
 30
0.000000
  70
    32
  0
VERTEX
  8
240
  5
472C
 10
-4.18691
 20
6.52780
 30
0.000000
  70
    32
  0
VERTEX
  8
240
  5
472D
 10
-4.17979
 20
6.52619
 30
0.000000
  70
    32
  0
VERTEX
  8
240
  5
472E
 10
-4.17267
 20
6.52459
 30
0.000000
  70
    32
  0
VERTEX
  8
240
  5
472F
 10
-4.16555
 20
6.52298
 30
0.000000
  70
    32
  0
VERTEX
  8
240
  5
4730
 10
-4.15842
 20
6.52138
 30
0.000000
  70
    32
  0
VERTEX
  8
240
  5
4731
 10
-4.15130
 20
6.51978
 30
0.000000
  70
    32
  0
VERTEX
  8
240
  5
4732
 10
-4.14417
 20
6.51819
 30
0.000000
  70
    32
  0
VERTEX
  8
240
  5
4733
 10
-4.13705
 20
6.51659
 30
0.000000
  70
    32
  0
VERTEX
  8
240
  5
4734
 10
-4.12992
 20
6.51500
 30
0.000000
  70
    32
  0
VERTEX
  8
240
  5
4735
 10
-4.12279
 20
6.51341
 30
0.000000
  70
    32
  0
VERTEX
  8
240
  5
4736
 10
-4.11567
 20
6.51183
 30
0.000000
  70
    32
  0
VERTEX
  8
240
  5
4737
 10
-4.10854
 20
6.51024
 30
0.000000
  70
    32
  0
VERTEX
  8
240
  5
4738
 10
-4.10141
 20
6.50866
 30
0.000000
  70
    32
  0
VERTEX
  8
240
  5
4739
 10
-4.09428
 20
6.50708
 30
0.000000
  70
    32
  0
VERTEX
  8
240
  5
473A
 10
-4.08715
 20
6.50551
 30
0.000000
  70
    32
  0
VERTEX
  8
240
  5
473B
 10
-4.08002
 20
6.50394
 30
0.000000
  70
    32
  0
VERTEX
  8
240
  5
473C
 10
-4.07289
 20
6.50237
 30
0.000000
  70
    32
  0
VERTEX
  8
240
  5
473D
 10
-4.06576
 20
6.50080
 30
0.000000
  70
    32
  0
VERTEX
  8
240
  5
473E
 10
-4.05863
 20
6.49924
 30
0.000000
  70
    32
  0
VERTEX
  8
240
  5
473F
 10
-4.05150
 20
6.49767
 30
0.000000
  70
    32
  0
VERTEX
  8
240
  5
4740
 10
-4.04437
 20
6.49612
 30
0.000000
  70
    32
  0
VERTEX
  8
240
  5
4741
 10
-4.03723
 20
6.49456
 30
0.000000
  70
    32
  0
VERTEX
  8
240
  5
4742
 10
-4.03010
 20
6.49301
 30
0.000000
  70
    32
  0
VERTEX
  8
240
  5
4743
 10
-4.02296
 20
6.49146
 30
0.000000
  70
    32
  0
VERTEX
  8
240
  5
4744
 10
-4.01583
 20
6.48992
 30
0.000000
  70
    32
  0
VERTEX
  8
240
  5
4745
 10
-4.00869
 20
6.48838
 30
0.000000
  70
    32
  0
VERTEX
  8
240
  5
4746
 10
-4.00155
 20
6.48684
 30
0.000000
  70
    32
  0
VERTEX
  8
240
  5
4747
 10
-3.99441
 20
6.48530
 30
0.000000
  70
    32
  0
VERTEX
  8
240
  5
4748
 10
-3.98728
 20
6.48377
 30
0.000000
  70
    32
  0
VERTEX
  8
240
  5
4749
 10
-3.98014
 20
6.48225
 30
0.000000
  70
    32
  0
VERTEX
  8
240
  5
474A
 10
-3.97300
 20
6.48072
 30
0.000000
  70
    32
  0
VERTEX
  8
240
  5
474B
 10
-3.96586
 20
6.47920
 30
0.000000
  70
    32
  0
VERTEX
  8
240
  5
474C
 10
-3.95871
 20
6.47768
 30
0.000000
  70
    32
  0
VERTEX
  8
240
  5
474D
 10
-3.95157
 20
6.47617
 30
0.000000
  70
    32
  0
VERTEX
  8
240
  5
474E
 10
-3.94443
 20
6.47466
 30
0.000000
  70
    32
  0
VERTEX
  8
240
  5
474F
 10
-3.93728
 20
6.47316
 30
0.000000
  70
    32
  0
VERTEX
  8
240
  5
4750
 10
-3.93014
 20
6.47166
 30
0.000000
  70
    32
  0
VERTEX
  8
240
  5
4751
 10
-3.92299
 20
6.47016
 30
0.000000
  70
    32
  0
VERTEX
  8
240
  5
4752
 10
-3.91585
 20
6.46867
 30
0.000000
  70
    32
  0
VERTEX
  8
240
  5
4753
 10
-3.90870
 20
6.46718
 30
0.000000
  70
    32
  0
VERTEX
  8
240
  5
4754
 10
-3.90155
 20
6.46569
 30
0.000000
  70
    32
  0
VERTEX
  8
240
  5
4755
 10
-3.89440
 20
6.46421
 30
0.000000
  70
    32
  0
VERTEX
  8
240
  5
4756
 10
-3.88725
 20
6.46273
 30
0.000000
  70
    32
  0
VERTEX
  8
240
  5
4757
 10
-3.88010
 20
6.46125
 30
0.000000
  70
    32
  0
VERTEX
  8
240
  5
4758
 10
-3.87295
 20
6.45978
 30
0.000000
  70
    32
  0
VERTEX
  8
240
  5
4759
 10
-3.86580
 20
6.45831
 30
0.000000
  70
    32
  0
VERTEX
  8
240
  5
475A
 10
-3.85865
 20
6.45685
 30
0.000000
  70
    32
  0
VERTEX
  8
240
  5
475B
 10
-3.85149
 20
6.45539
 30
0.000000
  70
    32
  0
VERTEX
  8
240
  5
475C
 10
-3.84434
 20
6.45393
 30
0.000000
  70
    32
  0
VERTEX
  8
240
  5
475D
 10
-3.83719
 20
6.45248
 30
0.000000
  70
    32
  0
VERTEX
  8
240
  5
475E
 10
-3.83003
 20
6.45102
 30
0.000000
  70
    32
  0
VERTEX
  8
240
  5
475F
 10
-3.82287
 20
6.44958
 30
0.000000
  70
    32
  0
VERTEX
  8
240
  5
4760
 10
-3.81572
 20
6.44813
 30
0.000000
  70
    32
  0
VERTEX
  8
240
  5
4761
 10
-3.80856
 20
6.44669
 30
0.000000
  70
    32
  0
VERTEX
  8
240
  5
4762
 10
-3.80140
 20
6.44525
 30
0.000000
  70
    32
  0
VERTEX
  8
240
  5
4763
 10
-3.79424
 20
6.44381
 30
0.000000
  70
    32
  0
VERTEX
  8
240
  5
4764
 10
-3.78708
 20
6.44238
 30
0.000000
  70
    32
  0
VERTEX
  8
240
  5
4765
 10
-3.77992
 20
6.44095
 30
0.000000
  70
    32
  0
VERTEX
  8
240
  5
4766
 10
-3.77276
 20
6.43953
 30
0.000000
  70
    32
  0
VERTEX
  8
240
  5
4767
 10
-3.76560
 20
6.43810
 30
0.000000
  70
    32
  0
VERTEX
  8
240
  5
4768
 10
-3.75844
 20
6.43668
 30
0.000000
  70
    32
  0
VERTEX
  8
240
  5
4769
 10
-3.75128
 20
6.43526
 30
0.000000
  70
    32
  0
VERTEX
  8
240
  5
476A
 10
-3.74412
 20
6.43385
 30
0.000000
  70
    32
  0
VERTEX
  8
240
  5
476B
 10
-3.73695
 20
6.43243
 30
0.000000
  70
    32
  0
VERTEX
  8
240
  5
476C
 10
-3.72979
 20
6.43102
 30
0.000000
  70
    32
  0
VERTEX
  8
240
  5
476D
 10
-3.72262
 20
6.42961
 30
0.000000
  70
    32
  0
VERTEX
  8
240
  5
476E
 10
-3.71546
 20
6.42821
 30
0.000000
  70
    32
  0
VERTEX
  8
240
  5
476F
 10
-3.70829
 20
6.42680
 30
0.000000
  70
    32
  0
VERTEX
  8
240
  5
4770
 10
-3.70113
 20
6.42540
 30
0.000000
  70
    32
  0
VERTEX
  8
240
  5
4771
 10
-3.69396
 20
6.42400
 30
0.000000
  70
    32
  0
VERTEX
  8
240
  5
4772
 10
-3.68679
 20
6.42261
 30
0.000000
  70
    32
  0
VERTEX
  8
240
  5
4773
 10
-3.67963
 20
6.42121
 30
0.000000
  70
    32
  0
VERTEX
  8
240
  5
4774
 10
-3.67246
 20
6.41982
 30
0.000000
  70
    32
  0
VERTEX
  8
240
  5
4775
 10
-3.66529
 20
6.41843
 30
0.000000
  70
    32
  0
VERTEX
  8
240
  5
4776
 10
-3.65812
 20
6.41704
 30
0.000000
  70
    32
  0
VERTEX
  8
240
  5
4777
 10
-3.65095
 20
6.41566
 30
0.000000
  70
    32
  0
VERTEX
  8
240
  5
4778
 10
-3.64378
 20
6.41427
 30
0.000000
  70
    32
  0
VERTEX
  8
240
  5
4779
 10
-3.63661
 20
6.41289
 30
0.000000
  70
    32
  0
VERTEX
  8
240
  5
477A
 10
-3.62944
 20
6.41151
 30
0.000000
  70
    32
  0
VERTEX
  8
240
  5
477B
 10
-3.62227
 20
6.41014
 30
0.000000
  70
    32
  0
VERTEX
  8
240
  5
477C
 10
-3.61510
 20
6.40876
 30
0.000000
  70
    32
  0
VERTEX
  8
240
  5
477D
 10
-3.60793
 20
6.40738
 30
0.000000
  70
    32
  0
VERTEX
  8
240
  5
477E
 10
-3.60076
 20
6.40601
 30
0.000000
  70
    32
  0
VERTEX
  8
240
  5
477F
 10
-3.59358
 20
6.40464
 30
0.000000
  70
    32
  0
VERTEX
  8
240
  5
4780
 10
-3.58641
 20
6.40327
 30
0.000000
  70
    32
  0
VERTEX
  8
240
  5
4781
 10
-3.57924
 20
6.40190
 30
0.000000
  70
    32
  0
VERTEX
  8
240
  5
4782
 10
-3.57207
 20
6.40054
 30
0.000000
  70
    32
  0
VERTEX
  8
240
  5
4783
 10
-3.56489
 20
6.39917
 30
0.000000
  70
    32
  0
VERTEX
  8
240
  5
4784
 10
-3.55772
 20
6.39781
 30
0.000000
  70
    32
  0
VERTEX
  8
240
  5
4785
 10
-3.55055
 20
6.39644
 30
0.000000
  70
    32
  0
VERTEX
  8
240
  5
4786
 10
-3.54337
 20
6.39508
 30
0.000000
  70
    32
  0
VERTEX
  8
240
  5
4787
 10
-3.53620
 20
6.39372
 30
0.000000
  70
    32
  0
VERTEX
  8
240
  5
4788
 10
-3.52902
 20
6.39236
 30
0.000000
  70
    32
  0
VERTEX
  8
240
  5
4789
 10
-3.52185
 20
6.39101
 30
0.000000
  70
    32
  0
VERTEX
  8
240
  5
478A
 10
-3.51467
 20
6.38965
 30
0.000000
  70
    32
  0
VERTEX
  8
240
  5
478B
 10
-3.50750
 20
6.38829
 30
0.000000
  70
    32
  0
VERTEX
  8
240
  5
478C
 10
-3.50032
 20
6.38694
 30
0.000000
  70
    32
  0
VERTEX
  8
240
  5
478D
 10
-3.49314
 20
6.38559
 30
0.000000
  70
    32
  0
VERTEX
  8
240
  5
478E
 10
-3.48597
 20
6.38423
 30
0.000000
  70
    32
  0
VERTEX
  8
240
  5
478F
 10
-3.47879
 20
6.38288
 30
0.000000
  70
    32
  0
VERTEX
  8
240
  5
4790
 10
-3.47162
 20
6.38153
 30
0.000000
  70
    32
  0
VERTEX
  8
240
  5
4791
 10
-3.46444
 20
6.38018
 30
0.000000
  70
    32
  0
VERTEX
  8
240
  5
4792
 10
-3.45726
 20
6.37883
 30
0.000000
  70
    32
  0
VERTEX
  8
240
  5
4793
 10
-3.45008
 20
6.37748
 30
0.000000
  70
    32
  0
VERTEX
  8
240
  5
4794
 10
-3.44291
 20
6.37613
 30
0.000000
  70
    32
  0
VERTEX
  8
240
  5
4795
 10
-3.43573
 20
6.37478
 30
0.000000
  70
    32
  0
VERTEX
  8
240
  5
4796
 10
-3.42855
 20
6.37344
 30
0.000000
  70
    32
  0
VERTEX
  8
240
  5
4797
 10
-3.42138
 20
6.37209
 30
0.000000
  70
    32
  0
VERTEX
  8
240
  5
4798
 10
-3.41420
 20
6.37074
 30
0.000000
  70
    32
  0
VERTEX
  8
240
  5
4799
 10
-3.40702
 20
6.36940
 30
0.000000
  70
    32
  0
VERTEX
  8
240
  5
479A
 10
-3.39984
 20
6.36805
 30
0.000000
  70
    32
  0
VERTEX
  8
240
  5
479B
 10
-3.39267
 20
6.36671
 30
0.000000
  70
    32
  0
VERTEX
  8
240
  5
479C
 10
-3.38549
 20
6.36536
 30
0.000000
  70
    32
  0
VERTEX
  8
240
  5
479D
 10
-3.37831
 20
6.36401
 30
0.000000
  70
    32
  0
VERTEX
  8
240
  5
479E
 10
-3.37113
 20
6.36267
 30
0.000000
  70
    32
  0
VERTEX
  8
240
  5
479F
 10
-3.36396
 20
6.36132
 30
0.000000
  70
    32
  0
SEQEND
  8
240
  5
47A0
  0
LINE
  5
41FC
  8
240
 10
-5.6999999999999034
 20
6.6000000000003416
 30
0.0
 11
-4.4999999999999707
 21
6.6000000000003416
 31
0.0
1001
GRPNAME
1000
PASTMD1C
  0
LINE
  5
41FF
  8
241
 10
8.6136165405494864
 20
7.1271070714293847
 30
0.0
 11
12.94511753040906
 21
0.9410825665595083
 31
0.0
1001
GRPNAME
1000
PASTMD11
  0
LINE
  5
4200
  8
241
 10
13.290209496674221
 20
0.9712742014815134
 30
0.0
 11
16.481713371394349
 21
7.8154763476520861
 31
0.0
1001
GRPNAME
1000
PASTMD11
  0
LINE
  5
4208
  8
241
 10
8.7600158008577296
 20
7.4410612983179121
 30
0.0
 11
16.283020665437501
 21
8.0992389396185374
 31
0.0
1001
GRPNAME
1000
PASTMD11
  0
LINE
  5
4209
  8
240
 10
2.2322518254687651
 20
2.1000000000001289
 30
0.0
 11
-2.2322518254696599
 21
2.0999999999999228
 31
0.0
  0
LINE
  5
420A
  8
240
 10
-2.2322518254696031
 20
1.6000000000003489
 30
0.0
 11
-2.4330629563673218
 21
0.3999999999999986
 31
0.0
  0
LINE
  5
420B
  8
240
 10
-2.4330629563673218
 20
0.3999999999999986
 30
0.0
 11
-2.8330629563672991
 21
-0.0000000000001208
 31
0.0
  0
LINE
  5
420C
  8
240
 10
-2.2322518254696031
 20
1.6000000000003489
 30
0.0
 11
-2.2322518254696599
 21
2.0999999999999228
 31
0.0
  0
LINE
  5
420D
  8
240
 10
2.433062956367336
 20
0.3999999999999844
 30
0.0
 11
2.8330629563672991
 21
-0.0000000000001421
 31
0.0
  0
LINE
  5
420E
  8
240
 10
2.2322518254696169
 20
1.6000000000003349
 30
0.0
 11
2.2322518254687651
 21
2.1000000000001289
 31
0.0
  0
LINE
  5
420F
  8
240
 10
2.2322518254696169
 20
1.6000000000003349
 30
0.0
 11
2.433062956367336
 21
0.3999999999999844
 31
0.0
  0
LINE
  5
4210
  8
240
 10
2.833062956367697
 20
0.0000000000001208
 30
0.0
 11
8.5000000000000284
 21
0.0000000000003624
 31
0.0
1001
GRPNAME
1000
PASTMD1D
  0
TEXT
  5
42A9
  8
241
 10
0.0
 20
28.0
 30
0.0
 40
3.0
  1
ENH4-1J
  7
YOKO
  0
LINE
  5
42C4
  8
250
 10
9.0000000000001634
 20
0.0000000000002841
 30
0.0
 11
29.0
 21
0.0000000000002784
 31
0.0
  0
LINE
  5
42C5
  8
250
 10
16.80045181398701
 20
8.1000000000002732
 30
0.0
 11
29.0
 21
8.1000000000002697
 31
0.0
  0
LINE
  5
42C6
  8
250
 10
28.0
 20
2.230000000000278
 30
0.0
 11
28.0
 21
5.8700000000002701
 31
0.0
  0
LINE
  5
42CB
  8
250
 10
33.110861975681132
 20
16.398144219954808
 30
0.0
 11
19.940259869551589
 21
16.398144219954808
 31
0.0
  0
LINE
  5
42CC
  8
250
 10
19.940259869551589
 20
16.398144219954808
 30
0.0
 11
15.999936063034781
 21
9.8817772659504008
 31
0.0
  0
LINE
  5
42CD
  8
250
 10
15.999936063034781
 20
9.8817772659504008
 30
0.0
 11
14.846049132232761
 21
7.9735202206537492
 31
0.0
  0
LINE
  5
42CE
  8
250
 10
15.748709258103631
 20
10.03368936164615
 30
0.0
 11
14.846049132232761
 21
7.9735202206537492
 31
0.0
  0
LINE
  5
42CF
  8
250
 10
14.846049132232761
 20
7.9735202206537492
 30
0.0
 11
16.25116286796592
 21
9.7298651702546461
 31
0.0
  0
INSERT
  5
42D0
  8
241
  2
*U6
 10
0.0
 20
0.0
 30
0.0
  0
LINE
  5
42D1
  8
250
 10
0.0000000000000285
 20
8.2547573350706571
 30
0.0
 11
0.0000000000000293
 21
22.0
 31
0.0
  0
LINE
  5
42D2
  8
250
 10
16.50045181398707
 20
8.4000000000002117
 30
0.0
 11
16.50045181398707
 21
22.0
 31
0.0
  0
LINE
  5
42D3
  8
250
 10
2.2300000000000288
 20
21.0
 30
0.0
 11
14.270451813987069
 21
21.0
 31
0.0
  0
TEXT
  5
42D7
  8
250
 10
3.3835592403268819
 20
22.0
 30
0.0
 40
2.7999999999999989
  1
16.5
  0
LINE
  5
42D8
  8
250
 10
14.270451813987069
 20
21.37166666666667
 30
0.0
 11
16.50045181398707
 21
21.0
 31
0.0
  0
LINE
  5
42D9
  8
250
 10
14.270451813987069
 20
20.62833333333333
 30
0.0
 11
16.50045181398707
 21
21.0
 31
0.0
  0
LINE
  5
42DA
  8
250
 10
16.50045181398707
 20
21.0
 30
0.0
 11
14.270451813987069
 21
21.0
 31
0.0
  0
LINE
  5
42DB
  8
250
 10
2.2300000000000288
 20
20.62833333333333
 30
0.0
 11
0.0000000000000292
 21
21.0
 31
0.0
  0
LINE
  5
42DC
  8
250
 10
2.2300000000000288
 20
21.37166666666667
 30
0.0
 11
0.0000000000000292
 21
21.0
 31
0.0
  0
LINE
  5
42DD
  8
250
 10
0.0000000000000292
 20
21.0
 30
0.0
 11
2.2300000000000288
 21
21.0
 31
0.0
  0
TEXT
  5
42DE
  8
250
 10
27.000000000000011
 20
1.1166666666669449
 30
0.0
 40
2.7999999999999989
  1
8.1
 50
90.0
  0
LINE
  5
42DF
  8
250
 10
27.628333333333341
 20
5.870000000000271
 30
0.0
 11
28.000000000000011
 21
8.1000000000002714
 31
0.0
  0
LINE
  5
42E0
  8
250
 10
28.37166666666667
 20
5.870000000000271
 30
0.0
 11
28.000000000000011
 21
8.1000000000002714
 31
0.0
  0
LINE
  5
42E1
  8
250
 10
28.000000000000011
 20
8.1000000000002714
 30
0.0
 11
28.000000000000011
 21
5.870000000000271
 31
0.0
  0
LINE
  5
42E2
  8
250
 10
28.371666666666659
 20
2.230000000000278
 30
0.0
 11
28.0
 21
0.0000000000002787
 31
0.0
  0
LINE
  5
42E3
  8
250
 10
27.62833333333333
 20
2.230000000000278
 30
0.0
 11
28.0
 21
0.0000000000002787
 31
0.0
  0
LINE
  5
42E4
  8
250
 10
28.0
 20
0.0000000000002787
 30
0.0
 11
28.0
 21
2.230000000000278
 31
0.0
  0
VIEWPORT
  5
22
 67
     1
  8
0
 10
261.51769911504419
 20
148.5
 30
0.0
 40
523.0353982300885
 41
297.0
 68
     1
 69
     1
1001
ACAD
1000
MVIEW
1002
{
1070
    16
1010
0.0
1020
0.0
1030
0.0
1010
0.0
1020
0.0
1030
1.0
1040
0.0
1040
297.0
1040
261.51769911504419
1040
148.5
1040
50.0
1040
0.0
1040
0.0
1070
     0
1070
   100
1070
     1
1070
     1
1070
     0
1070
     0
1070
     0
1070
     0
1040
0.0
1040
0.0
1040
0.0
1040
1.0
1040
1.0
1040
10.0
1040
10.0
1070
     0
1002
{
1002
}
1002
}
1001
GENIUS_GENODEF_13
1002
{
1000
HIER
1070
     0
1002
}
1002
{
1000
MANEDIT
1070
     0
1002
}
1002
{
1000
NOSEL
1070
     0
1002
}
1002
{
1000
BEHIND
1070
     0
1002
}
1002
{
1000
OTHER
1070
     0
1002
}
1002
{
1000
REACTOR
1002
}
1001
GENIUS_GENOBJ-N-SDF_13
1002
{
1000
OWNER
1000
GEN
1002
}
1001
GENIUS_GENSCREG_15
1000
PF
1040
1.0
1000
DF
1040
1.0
1000
MIN
1011
0.0
1021
0.0
1031
0.0
1021
0.0
1031
0.0
1000
MAX
1011
523.0353982300885
1021
0.0
1031
0.0
1021
297.0
1031
0.0
1000
FLAGS
1070
     4
  0
ENDSEC
  0
EOF
